  0
SECTION
  2
HEADER
  9
$ACADVER
  1
AC1009
  9
$INSBASE
 10
0.0
 20
0.0
 30
0.0
  9
$EXTMIN
 10
-122.5952122258355
 20
-40.0
 30
0.0
  9
$EXTMAX
 10
197.10368642000111
 20
75.000000000000028
 30
0.0
  9
$LIMMIN
 10
0.0
 20
0.0
  9
$LIMMAX
 10
297.0
 20
210.0
  9
$ORTHOMODE
 70
     1
  9
$REGENMODE
 70
     1
  9
$FILLMODE
 70
     1
  9
$QTEXTMODE
 70
     0
  9
$MIRRTEXT
 70
     1
  9
$DRAGMODE
 70
     2
  9
$LTSCALE
 40
10.0
  9
$OSMODE
 70
    39
  9
$ATTMODE
 70
     1
  9
$TEXTSIZE
 40
3.0
  9
$TRACEWID
 40
1.0
  9
$TEXTSTYLE
  7
YOKO
  9
$CLAYER
  8
240
  9
$CELTYPE
  6
BYLAYER
  9
$CECOLOR
 62
   256
  9
$DIMSCALE
 40
1.0
  9
$DIMASZ
 40
2.2299999999999991
  9
$DIMEXO
 40
0.5
  9
$DIMDLI
 40
7.0
  9
$DIMRND
 40
0.0
  9
$DIMDLE
 40
0.0
  9
$DIMEXE
 40
1.0
  9
$DIMTP
 40
0.0
  9
$DIMTM
 40
0.01
  9
$DIMTXT
 40
2.799999999999998
  9
$DIMCEN
 40
0.0
  9
$DIMTSZ
 40
0.0
  9
$DIMTOL
 70
     0
  9
$DIMLIM
 70
     0
  9
$DIMTIH
 70
     0
  9
$DIMTOH
 70
     0
  9
$DIMSE1
 70
     0
  9
$DIMSE2
 70
     0
  9
$DIMTAD
 70
     3
  9
$DIMZIN
 70
     9
  9
$DIMBLK
  1
OPEN
  9
$DIMASO
 70
     1
  9
$DIMSHO
 70
     1
  9
$DIMPOST
  1

  9
$DIMAPOST
  1

  9
$DIMALT
 70
     0
  9
$DIMALTD
 70
     2
  9
$DIMALTF
 40
25.399999999999999
  9
$DIMLFAC
 40
1.0
  9
$DIMTOFL
 70
     1
  9
$DIMTVP
 40
0.0
  9
$DIMTIX
 70
     1
  9
$DIMSOXD
 70
     0
  9
$DIMSAH
 70
     0
  9
$DIMBLK1
  1

  9
$DIMBLK2
  1

  9
$DIMSTYLE
  2
BIGT
  9
$DIMCLRD
 70
   256
  9
$DIMCLRE
 70
   256
  9
$DIMCLRT
 70
    40
  9
$DIMTFAC
 40
1.0
  9
$DIMGAP
 40
1.0
  9
$LUNITS
 70
     2
  9
$LUPREC
 70
     6
  9
$SKETCHINC
 40
1.0
  9
$FILLETRAD
 40
5.0
  9
$AUNITS
 70
     0
  9
$AUPREC
 70
     6
  9
$MENU
  1
.
  9
$ELEVATION
 40
0.0
  9
$PELEVATION
 40
0.0
  9
$THICKNESS
 40
0.0
  9
$LIMCHECK
 70
     0
  9
$BLIPMODE
 70
     0
  9
$CHAMFERA
 40
0.2
  9
$CHAMFERB
 40
0.2
  9
$SKPOLY
 70
     0
  9
$TDCREATE
 40
2457746.656508449
  9
$TDUPDATE
 40
2459608.6084921178
  9
$TDINDWG
 40
0.0090244213
  9
$TDUSRTIMER
 40
0.0090243634
  9
$USRTIMER
 70
     1
  9
$ANGBASE
 50
0.0
  9
$ANGDIR
 70
     0
  9
$PDMODE
 70
     1
  9
$PDSIZE
 40
0.0
  9
$PLINEWID
 40
0.0
  9
$COORDS
 70
     1
  9
$SPLFRAME
 70
     0
  9
$SPLINETYPE
 70
     6
  9
$SPLINESEGS
 70
     4
  9
$ATTDIA
 70
     1
  9
$ATTREQ
 70
     1
  9
$HANDLING
 70
     1
  9
$HANDSEED
  5
4A23
  9
$SURFTAB1
 70
     6
  9
$SURFTAB2
 70
     6
  9
$SURFTYPE
 70
     6
  9
$SURFU
 70
     6
  9
$SURFV
 70
     6
  9
$UCSNAME
  2

  9
$UCSORG
 10
0.0
 20
0.0
 30
0.0
  9
$UCSXDIR
 10
1.0
 20
0.0
 30
0.0
  9
$UCSYDIR
 10
0.0
 20
1.0
 30
0.0
  9
$PUCSNAME
  2

  9
$PUCSORG
 10
0.0
 20
0.0
 30
0.0
  9
$PUCSXDIR
 10
1.0
 20
0.0
 30
0.0
  9
$PUCSYDIR
 10
0.0
 20
1.0
 30
0.0
  9
$USERI1
 70
     1
  9
$USERI2
 70
     0
  9
$USERI3
 70
     0
  9
$USERI4
 70
     0
  9
$USERI5
 70
     0
  9
$USERR1
 40
0.0
  9
$USERR2
 40
0.0
  9
$USERR3
 40
0.0
  9
$USERR4
 40
0.0
  9
$USERR5
 40
0.0
  9
$WORLDVIEW
 70
     1
  9
$SHADEDGE
 70
     3
  9
$SHADEDIF
 70
    70
  9
$TILEMODE
 70
     1
  9
$MAXACTVP
 70
    16
  9
$PLIMCHECK
 70
     0
  9
$PEXTMIN
 10
1.0000000000000000E+020
 20
1.0000000000000000E+020
 30
1.0000000000000000E+020
  9
$PEXTMAX
 10
-1.0000000000000000E+020
 20
-1.0000000000000000E+020
 30
-1.0000000000000000E+020
  9
$PLIMMIN
 10
0.0
 20
0.0
  9
$PLIMMAX
 10
420.0
 20
297.0
  9
$UNITMODE
 70
     0
  9
$VISRETAIN
 70
     1
  9
$PLINEGEN
 70
     0
  9
$PSLTSCALE
 70
     1
  0
ENDSEC
  0
SECTION
  2
TABLES
  0
TABLE
  2
VPORT
 70
     1
  0
VPORT
  2
*ACTIVE
 70
     0
 10
0.0
 20
0.0
 11
1.0
 21
1.0
 12
16.265181727127981
 22
3.2899996199386399
 13
0.0
 23
0.0
 14
7.0
 24
7.0
 15
7.0
 25
7.0
 16
0.0
 26
0.0
 36
1.0
 17
0.0
 27
0.0
 37
0.0
 40
249.68312637237079
 41
1.488859764089121
 42
50.0
 43
0.0
 44
0.0
 50
0.0
 51
0.0
 71
     0
 72
  2000
 73
     1
 74
     0
 75
     0
 76
     1
 77
     0
 78
     0
  0
ENDTAB
  0
TABLE
  2
LTYPE
 70
    21
  0
LTYPE
  2
CONTINUOUS
 70
     0
  3
Solid line
 72
    65
 73
     0
 40
0.0
  0
LTYPE
  2
CENTER2
 70
     0
  3
___ _ ___ _ ___ _ ___ _ ___ _ ___ _ ___ _ ___ _
 72
    65
 73
     4
 40
1.125
 49
0.75
 49
-0.125
 49
0.125
 49
-0.125
  0
LTYPE
  2
HIDDEN2
 70
     0
  3
_ _ _ _ _ _ _ _ _ _ _ _ _ _ _ _ _ _ _ _ _ _ _ _
 72
    65
 73
     2
 40
0.1875
 49
0.125
 49
-0.0625
  0
LTYPE
  2
PHANTOM2
 70
     0
  3
___ _ _ ___ _ _ ___ _ _ ___ _ _ ___ _ _ ___ _ _
 72
    65
 73
     6
 40
1.25
 49
0.625
 49
-0.125
 49
0.125
 49
-0.125
 49
0.125
 49
-0.125
  0
LTYPE
  2
AMCONSTR
 70
     0
  3
_______________________
 72
    65
 73
     2
 40
9999.0
 49
9999.0
 49
0.0
  0
LTYPE
  2
HIDDEN
 70
     0
  3
Hidden __ __ __ __ __ __ __ __ __ __ __ __ __ _
 72
    65
 73
     2
 40
0.375
 49
0.25
 49
-0.125
  0
LTYPE
  2
CENTER
 70
     0
  3
Center ____ _ ____ _ ____ _ ____ _ ____ _ ____
 72
    65
 73
     4
 40
2.0
 49
1.25
 49
-0.25
 49
0.25
 49
-0.25
  0
LTYPE
  2
AMZIGZAG2
 70
     0
  3
/\/-/\/-/\/-/\/-/\/-/\/
 72
    65
 73
     2
 40
0.4401
 49
0.0001
 49
-0.4400000000000001
  0
LTYPE
  2
ACANSTGB
 70
     0
  3
__ . . __ . .
 72
    65
 73
     6
 40
0.35433070866
 49
0.15748031496
 49
-0.03937007874
 49
0.03937007874
 49
-0.03937007874
 49
0.03937007874
 49
-0.03937007874
  0
LTYPE
  2
ACANSTGL
 70
     0
  3
_ _ _ _ _
 72
    65
 73
     2
 40
0.11811023622
 49
0.07874015748
 49
-0.03937007874
  0
ENDTAB
  0
TABLE
  2
LAYER
 70
     9
  0
LAYER
  2
0
 70
     0
 62
     7
  6
CONTINUOUS
  0
LAYER
  2
240
 70
     0
 62
     4
  6
CONTINUOUS
  0
LAYER
  2
DEFPOINTS
 70
     0
 62
     7
  6
CONTINUOUS
  0
LAYER
  2
245
 70
     0
 62
     2
  6
CENTER2
  0
LAYER
  2
241
 70
     0
 62
   211
  6
CONTINUOUS
  0
LAYER
  2
242
 70
     0
 62
     3
  6
CONTINUOUS
  0
LAYER
  2
243
 70
     0
 62
   211
  6
HIDDEN2
  0
LAYER
  2
247
 70
     0
 62
    60
  6
CONTINUOUS
  0
LAYER
  2
250
 70
     0
 62
     3
  6
CONTINUOUS
  0
ENDTAB
  0
TABLE
  2
STYLE
 70
    10
  0
STYLE
  2
STANDARD
 70
     0
 40
0.0
 41
1.0
 50
0.0
 71
     0
 42
3.0
  3
romans.shx
  4
extfont.shx
  0
STYLE
  2
YOKO
 70
     0
 40
0.0
 41
1.0
 50
0.0
 71
     0
 42
3.0
  3
romans.shx
  4
extfont.shx
  0
STYLE
  2

 70
     1
 40
0.0
 41
1.0
 50
0.0
 71
     0
 42
3.0
  3
genltshp.shx
  4

  0
STYLE
  2
ACANSGDT
 70
     0
 40
0.0
 41
1.0
 50
0.0
 71
     0
 42
3.0
  3
amgdt.shx
  4

  0
ENDTAB
  0
TABLE
  2
VIEW
 70
     0
  0
ENDTAB
  0
TABLE
  2
UCS
 70
     0
  0
ENDTAB
  0
TABLE
  2
APPID
 70
    37
  0
APPID
  2
ACAD
 70
     0
  0
APPID
  2
ACADANNOTATIVE
 70
     0
  0
APPID
  2
GLOBAL
 70
     0
  0
APPID
  2
DETAIL
 70
     0
  0
APPID
  2
GRPNAME
 70
     0
  0
APPID
  2
GPARA
 70
     0
  0
APPID
  2
MCAD_NO_VIS
 70
     0
  0
APPID
  2
ACAD_TEMP_GRAPHIC
 70
     0
  0
APPID
  2
ACATTRIBSERVICES
 70
     0
  0
APPID
  2
GENIUS_GENSCREG_15
 70
     0
  0
APPID
  2
GENIUS_GENODEF_13
 70
     0
  0
APPID
  2
GENIUS_GENOBJ-N-SDF_13
 70
     0
  0
APPID
  2
GENIUS_GENREC_14
 70
     0
  0
APPID
  2
GENIUS_GENOBJ-N-REC_13
 70
     0
  0
APPID
  2
GENIUS_GENDIMSH_14
 70
     0
  0
APPID
  2
GENIUS_GENOBJ-N-DIM_13
 70
     0
  0
APPID
  2
GENIUS_GENDIM_13
 70
     0
  0
APPID
  2
GENIUS_GENDTOL_13
 70
     0
  0
APPID
  2
GENIUS_GENOLIS_13
 70
     0
  0
APPID
  2
GENIUS_GENOENT_13
 70
     0
  0
APPID
  2
GENIUS_GENOBJ-F-FEM_13
 70
     0
  0
APPID
  2
GENIUS_GENOREF_13
 70
     0
  0
APPID
  2
GENIUS_GEFFEM_13
 70
     0
  0
APPID
  2
GENIUS_GEFFEMP_13
 70
     0
  0
APPID
  2
AD_DRAW
 70
     0
  0
APPID
  2
DESIGNERASSEMBLIES
 70
     0
  0
APPID
  2
ACADM_DIM_EDIT
 70
     0
  0
APPID
  2
AMDT_DM_ADJ
 70
     0
  0
APPID
  2
ITEMNAME
 70
     0
  0
APPID
  2
GENIUS_GENOBJ-N-FIL_13
 70
     0
  0
APPID
  2
GENIUS_GENFIL_13
 70
     0
  0
APPID
  2
GENIUS_GENOBJ-N-CHA_13
 70
     0
  0
APPID
  2
ACAD_NAV_VCDISPLAY
 70
     0
  0
APPID
  2
ACAD_DSTYLE_DIMJAG
 70
     0
  0
APPID
  2
ACAD_DSTYLE_DIMBREAK
 70
     0
  0
APPID
  2
ACAECLAYERSTANDARD
 70
     0
  0
APPID
  2
ACAD_MLEADERVER
 70
     0
  0
ENDTAB
  0
TABLE
  2
DIMSTYLE
 70
    31
  0
DIMSTYLE
  2
STANDARD
 70
     0
  3

  4

  5

  6

  7

 40
1.0
 41
0.18
 42
0.0625
 43
0.38
 44
0.18
 45
0.0
 46
0.0
 47
0.0
 48
0.0
140
0.18
141
0.09
142
0.0
143
25.399999999999999
144
1.0
145
0.0
146
1.0
147
0.09
 71
     0
 72
     0
 73
     1
 74
     1
 75
     0
 76
     0
 77
     0
 78
     0
170
     0
171
     2
172
     0
173
     0
174
     0
175
     0
176
     0
177
     0
178
     0
  0
DIMSTYLE
  2
BIGT
 70
     0
  3

  4

  5

  6

  7

 40
1.0
 41
2.2299999999999991
 42
0.5
 43
7.0
 44
1.0
 45
0.0
 46
0.0
 47
0.0
 48
0.01
140
2.799999999999998
141
0.0
142
0.0
143
25.399999999999999
144
1.0
145
0.0
146
1.0
147
1.0
 71
     0
 72
     0
 73
     0
 74
     0
 75
     0
 76
     0
 77
     3
 78
     9
170
     0
171
     2
172
     1
173
     0
174
     1
175
     0
176
   256
177
   256
178
    40
  0
DIMSTYLE
  2
AM_ANSI
 70
     0
  3

  4
mm
  5

  6

  7

 40
1.0
 41
0.12
 42
0.05
 43
0.5
 44
0.1
 45
0.0
 46
0.0
 47
0.1
 48
0.1
140
0.12
141
0.0
142
0.0
143
25.399999999999999
144
1.0
145
0.0
146
0.71
147
0.06
 71
     0
 72
     0
 73
     1
 74
     1
 75
     0
 76
     0
 77
     0
 78
     7
170
     0
171
     2
172
     0
173
     0
174
     0
175
     0
176
   256
177
   256
178
     2
  0
DIMSTYLE
  2
AM_ANSI$3
 70
     0
  3

  4
mm
  5

  6

  7

 40
1.0
 41
0.12
 42
0.05
 43
0.5
 44
0.1
 45
0.0
 46
0.0
 47
0.1
 48
0.1
140
0.12
141
0.0
142
0.0
143
25.399999999999999
144
1.0
145
0.0
146
0.71
147
0.06
 71
     0
 72
     0
 73
     1
 74
     1
 75
     0
 76
     0
 77
     0
 78
     7
170
     0
171
     2
172
     0
173
     0
174
     0
175
     0
176
   256
177
   256
178
     2
  0
DIMSTYLE
  2
AM_ANSI$4
 70
     0
  3

  4
mm
  5

  6

  7

 40
1.0
 41
0.12
 42
0.05
 43
0.5
 44
0.1
 45
0.0
 46
0.0
 47
0.1
 48
0.1
140
0.12
141
0.0
142
0.0
143
25.399999999999999
144
1.0
145
0.0
146
0.71
147
0.06
 71
     0
 72
     0
 73
     1
 74
     1
 75
     0
 76
     0
 77
     0
 78
     7
170
     0
171
     2
172
     0
173
     0
174
     0
175
     0
176
   256
177
   256
178
     2
  0
DIMSTYLE
  2
AM_ANSI$7
 70
     0
  3

  4
mm
  5

  6

  7

 40
1.0
 41
0.12
 42
0.05
 43
0.5
 44
0.1
 45
0.0
 46
0.0
 47
0.1
 48
0.1
140
0.12
141
0.0
142
0.0
143
25.399999999999999
144
1.0
145
0.0
146
0.71
147
0.06
 71
     0
 72
     0
 73
     1
 74
     1
 75
     0
 76
     0
 77
     0
 78
     7
170
     0
171
     2
172
     0
173
     0
174
     0
175
     0
176
   256
177
   256
178
     2
  0
DIMSTYLE
  2
AM_ANSI$SF
 70
     0
  3

  4
mm
  5

  6

  7

 40
1.0
 41
0.12
 42
0.05
 43
0.5
 44
0.1
 45
0.0
 46
0.0
 47
0.1
 48
0.1
140
0.12
141
0.0
142
0.0
143
25.399999999999999
144
1.0
145
0.0
146
0.71
147
0.06
 71
     0
 72
     0
 73
     1
 74
     1
 75
     1
 76
     1
 77
     0
 78
     7
170
     0
171
     2
172
     0
173
     0
174
     0
175
     0
176
   256
177
   256
178
     2
  0
DIMSTYLE
  2
AM_ANSI$SH
 70
     0
  3

  4
mm
  5

  6
GENAXEH
  7

 40
1.0
 41
0.12
 42
0.05
 43
0.5
 44
0.1
 45
0.0
 46
0.0
 47
0.1
 48
0.1
140
0.12
141
0.0
142
0.0
143
25.399999999999999
144
1.0
145
0.0
146
0.71
147
0.06
 71
     0
 72
     0
 73
     1
 74
     1
 75
     1
 76
     1
 77
     0
 78
     7
170
     0
171
     2
172
     0
173
     1
174
     0
175
     0
176
   256
177
   256
178
     2
  0
ENDTAB
  0
ENDSEC
  0
SECTION
  2
BLOCKS
  0
BLOCK
  8
0
  2
$MODEL_SPACE
 70
     0
 10
0.0
 20
0.0
 30
0.0
  3
$MODEL_SPACE
  1

  0
ENDBLK
  5
4504
  8
0
  0
BLOCK
 67
     1
  8
0
  2
$PAPER_SPACE
 70
     0
 10
0.0
 20
0.0
 30
0.0
  3
$PAPER_SPACE
  1

  0
ENDBLK
  5
4500
 67
     1
  8
0
  0
BLOCK
  8
0
  2
_OPEN
 70
     0
 10
0.0
 20
0.0
 30
0.0
  3
_OPEN
  1

  0
LINE
  5
439B
  8
0
  6
BYBLOCK
 62
     0
 10
-1.0
 20
0.1666666666666666
 30
0.0
 11
0.0
 21
0.0
 31
0.0
  0
LINE
  5
439C
  8
0
  6
BYBLOCK
 62
     0
 10
-1.0
 20
-0.1666666666666666
 30
0.0
 11
0.0
 21
0.0
 31
0.0
  0
LINE
  5
439D
  8
0
  6
BYBLOCK
 62
     0
 10
0.0
 20
0.0
 30
0.0
 11
-1.0
 21
0.0
 31
0.0
  0
ENDBLK
  5
439E
  8
0
  0
BLOCK
  8
0
  2
GENAXEH
 70
     0
 10
0.0
 20
0.0
 30
0.0
  3
GENAXEH
  1

  0
LINE
  5
43D6
  8
0
 10
-1.0
 20
0.0
 30
0.0
 11
1.0
 21
0.0
 31
0.0
  0
ENDBLK
  5
43D7
  8
0
  0
BLOCK
  8
0
  2
_ACMFILLEDHALF
 70
     0
 10
0.0
 20
0.0
 30
0.0
  3
_ACMFILLEDHALF
  1

  0
TRACE
  5
45C4
  8
240
 62
     0
 10
-0.8
 20
0.0
 30
0.0
 11
-1.0
 21
0.166666666
 31
0.0
 12
0.0
 22
0.0
 32
0.0
 13
0.0
 23
0.0
 33
0.0
  0
LINE
  5
45C5
  8
240
 62
     0
 10
-1.0
 20
0.0
 30
0.0
 11
-0.8
 21
0.0
 31
0.0
  0
ENDBLK
  5
45C3
  8
0
  0
ENDSEC
  0
SECTION
  2
ENTITIES
  0
LINE
  5
4229
  8
245
  6
CENTER2
 10
-48.999999999999282
 20
0.0
 30
0.0
 11
180.29237257579291
 21
0.0
 31
0.0
  0
LINE
  5
422A
  8
241
  6
CONTINUOUS
 10
-39.725958279723137
 20
-4.4180000000001707
 30
0.0
 11
-39.725958279723137
 21
4.4179999999998261
 31
0.0
  0
LINE
  5
422B
  8
241
  6
CONTINUOUS
 10
-47.999999999999282
 20
-4.4179999999999993
 30
0.0
 11
-39.725958279723137
 21
-4.4180000000001707
 31
0.0
  0
LINE
  5
422C
  8
241
  6
CONTINUOUS
 10
-47.999999999999282
 20
4.4179999999999993
 30
0.0
 11
-39.725958279723137
 21
4.4179999999998261
 31
0.0
  0
LINE
  5
422D
  8
240
  6
CONTINUOUS
 10
0.0000000000007105
 20
-40.0
 30
0.0
 11
0.0000000000007105
 21
-27.575022188355408
 31
0.0
  0
LINE
  5
422E
  8
240
  6
CONTINUOUS
 10
0.0000000000007105
 20
40.0
 30
0.0
 11
0.0000000000007105
 21
27.57502218835522
 31
0.0
  0
LINE
  5
422F
  8
240
  6
CONTINUOUS
 10
30.000000000000711
 20
40.0
 30
0.0
 11
30.000000000000711
 21
24.500000000000028
 31
0.0
  0
LINE
  5
4230
  8
247
  6
CONTINUOUS
 10
6.000000000000707
 20
-20.250000000069999
 30
0.0
 11
6.000000000000707
 21
-13.557692308029999
 31
0.0
  0
ARC
  5
4231
  8
247
  6
CONTINUOUS
 10
4.250000000070683
 20
-20.250000000069999
 30
0.0
 40
1.7499999999299991
 50
180.0
 51
0.0
  0
ARC
  5
4232
  8
247
  6
CONTINUOUS
 10
4.250000000070683
 20
-13.557692308029999
 30
0.0
 40
1.7499999999299991
 50
0.0
 51
180.0
  0
LINE
  5
4233
  8
247
  6
CONTINUOUS
 10
2.5000000001407141
 20
-19.384615384720011
 30
0.0
 11
5.5000000000207203
 21
-20.244851541962021
 31
0.0
  0
LINE
  5
4234
  8
247
  6
CONTINUOUS
 10
3.9230769231607181
 20
-18.48498381833582
 30
0.0
 11
3.9230769231607181
 21
-19.792676125975809
 31
0.0
  0
ARC
  5
4235
  8
247
  6
CONTINUOUS
 10
3.049598667703691
 20
-18.145143816089782
 30
0.0
 40
0.5538165441895349
 50
72.997889675292001
 51
172.924166218512
  0
ARC
  5
4236
  8
247
  6
CONTINUOUS
 10
2.9360330444664831
 20
-18.566878323028789
 30
0.0
 40
0.9904354236226808
 50
4.742936852200585
 51
73.849226273266424
1001
GENIUS_GENOBJ-N-FIL_13
1002
{
1000
OWNER
1000
GEN
1002
}
1001
GENIUS_GENODEF_13
1002
{
1000
HIER
1070
     0
1002
}
1002
{
1000
MANEDIT
1070
     0
1002
}
1002
{
1000
NOSEL
1070
     0
1002
}
1002
{
1000
BEHIND
1070
     0
1002
}
1002
{
1000
OTHER
1070
     0
1002
}
1002
{
1000
REACTOR
1002
}
  0
LINE
  5
4237
  8
247
  6
CONTINUOUS
 10
5.5000000000207203
 20
-18.937159234321989
 30
0.0
 11
5.5000000000207203
 21
-20.244851541962021
 31
0.0
  0
LINE
  5
4238
  8
247
  6
CONTINUOUS
 10
2.5000000001407141
 20
-19.384615384720011
 30
0.0
 11
2.5000000001407141
 21
-18.076923077079972
 31
0.0
  0
ARC
  5
4239
  8
247
  6
CONTINUOUS
 10
4.4820242326662481
 20
-18.56091963654697
 30
0.0
 40
0.5640818586791229
 50
65.990941652528889
 51
172.26344345906909
  0
ARC
  5
423A
  8
247
  6
CONTINUOUS
 10
4.4874290391872762
 20
-19.03826268534706
 30
0.0
 40
1.0176059446230981
 50
5.7019851642580841
 51
77.277338436822191
1001
GENIUS_GENOBJ-N-FIL_13
1002
{
1000
OWNER
1000
GEN
1002
}
1001
GENIUS_GENODEF_13
1002
{
1000
HIER
1070
     0
1002
}
1002
{
1000
MANEDIT
1070
     0
1002
}
1002
{
1000
NOSEL
1070
     0
1002
}
1002
{
1000
BEHIND
1070
     0
1002
}
1002
{
1000
OTHER
1070
     0
1002
}
1002
{
1000
REACTOR
1002
}
  0
LINE
  5
423B
  8
247
  6
CONTINUOUS
 10
5.5000000000207203
 20
-17.283313080541991
 30
0.0
 11
2.5000000001407141
 21
-16.423076923300009
 31
0.0
  0
LINE
  5
423C
  8
247
  6
CONTINUOUS
 10
2.5000000001407141
 20
-14.00000000032
 30
0.0
 11
2.5000000001407141
 21
-14.565736619456599
 31
0.0
  0
LINE
  5
423D
  8
247
  6
CONTINUOUS
 10
5.5000000000207203
 20
-15.461538461799989
 30
0.0
 11
5.5000000000207203
 21
-14.846153846440011
 31
0.0
  0
ARC
  5
423E
  8
247
  6
CONTINUOUS
 10
4.58328513597408
 20
-13.708791209122859
 30
0.0
 40
2.2526500823422122
 50
202.35948814152769
 51
254.99324854284609
  0
ARC
  5
423F
  8
247
  6
CONTINUOUS
 10
3.3083126551952362
 20
-14.37406947921323
 30
0.0
 40
0.8906723995727782
 50
94.994589319075374
 51
155.1663289573039
1001
GENIUS_GENOBJ-N-FIL_13
1002
{
1000
OWNER
1000
GEN
1002
}
1001
GENIUS_GENODEF_13
1002
{
1000
HIER
1070
     0
1002
}
1002
{
1000
MANEDIT
1070
     0
1002
}
1002
{
1000
NOSEL
1070
     0
1002
}
1002
{
1000
BEHIND
1070
     0
1002
}
1002
{
1000
OTHER
1070
     0
1002
}
1002
{
1000
REACTOR
1002
}
  0
ARC
  5
4240
  8
247
  6
CONTINUOUS
 10
4.1601458886684952
 20
-15.22645888621258
 30
0.0
 40
1.392781735586712
 50
15.8460965557808
 51
82.325137004169122
  0
ARC
  5
4241
  8
247
  6
CONTINUOUS
 10
4.459243431527991
 20
-14.64221272584035
 30
0.0
 40
1.324563662670287
 50
249.7136016704969
 51
321.78874565640928
1001
GENIUS_GENOBJ-N-FIL_13
1002
{
1000
OWNER
1000
GEN
1002
}
1001
GENIUS_GENODEF_13
1002
{
1000
HIER
1070
     0
1002
}
1002
{
1000
MANEDIT
1070
     0
1002
}
1002
{
1000
NOSEL
1070
     0
1002
}
1002
{
1000
BEHIND
1070
     0
1002
}
1002
{
1000
OTHER
1070
     0
1002
}
1002
{
1000
REACTOR
1002
}
  0
LINE
  5
4242
  8
247
  6
CONTINUOUS
 10
4.3461538462206866
 20
-14.53846153876
 30
0.0
 11
4.3461538462206866
 21
-13.84615384648
 31
0.0
  0
LINE
  5
4243
  8
247
  6
CONTINUOUS
 10
2.500000000140687
 20
-20.250000000069999
 30
0.0
 11
2.500000000140687
 21
-19.576923077020009
 31
0.0
  0
LINE
  5
4244
  8
240
  6
CONTINUOUS
 10
-47.975958279723137
 20
-26.375703820393401
 30
0.0
 11
-47.975958279723137
 21
26.37570382039306
 31
0.0
1001
GRPNAME
1000
PASTMD0U
  0
LINE
  5
4245
  8
240
  6
CONTINUOUS
 10
-0.0000000000007105
 20
-27.57502218835538
 30
0.0
 11
-47.975958279723137
 21
-26.375703820393401
 31
0.0
  0
LINE
  5
4246
  8
240
  6
CONTINUOUS
 10
-0.0000000000007105
 20
27.575022188355039
 30
0.0
 11
-47.975958279723137
 21
26.37570382039306
 31
0.0
  0
LINE
  5
4247
  8
241
  6
CONTINUOUS
 10
0.0000000000007105
 20
27.57502218835522
 30
0.0
 11
-0.0000000000007105
 21
-27.57502218835538
 31
0.0
  0
TEXT
  5
4248
  8
250
  6
CONTINUOUS
 10
-38.771796381152967
 20
-36.0023988214895
 30
0.0
 40
2.799999999999998
  1
C8
  7
YOKO
1001
ITEMNAME
1000
LNSP3
  0
LINE
  5
4249
  8
250
  6
CONTINUOUS
 10
-26.38864390603052
 20
-28.512949272158931
 30
0.0
 11
-25.099968771152959
 21
-26.94756513148949
 31
0.0
  0
LINE
  5
424A
  8
250
  6
CONTINUOUS
 10
-25.811293636901119
 20
-28.846282605596549
 30
0.0
 11
-25.099968771152959
 21
-26.94756513148949
 31
0.0
  0
LINE
  5
424B
  8
250
  6
CONTINUOUS
 10
-25.099968771152959
 20
-26.94756513148949
 30
0.0
 11
-26.099968771465829
 21
-28.679615938877738
 31
0.0
  0
LINE
  5
424C
  8
250
  6
CONTINUOUS
 10
-26.099968771465829
 20
-28.679615938877738
 30
0.0
 11
-30.90512971115297
 21
-37.002398821489493
 31
0.0
1001
ACAD
1000
DSTYLE
1002
{
1070
     6
1000
OPEN
1070
    41
1040
2.0
1070
    42
1040
2.0
1070
    44
1040
2.0
1070
   140
1040
4.0
1070
   343
1005
0
1002
}
  0
LINE
  5
424D
  8
250
  6
CONTINUOUS
 10
-30.90512971115297
 20
-37.002398821489493
 30
0.0
 11
-41.171796381152937
 21
-37.002398821489493
 31
0.0
1001
ITEMNAME
1000
LNSP2
  0
LINE
  5
424E
  8
240
  6
CONTINUOUS
 10
0.0000000000007105
 20
40.0
 30
0.0
 11
30.000000000000711
 21
40.0
 31
0.0
  0
LINE
  5
424F
  8
240
  6
CONTINUOUS
 10
0.0000000000007105
 20
-40.0
 30
0.0
 11
30.000000000000711
 21
-40.0
 31
0.0
  0
LINE
  5
4250
  8
241
  6
CONTINUOUS
 10
9.9499999999999975
 20
11.77167262
 30
0.0
 11
9.9499999999999975
 21
38.22077680999999
 31
0.0
1001
GRPNAME
1000
PASTMD1I
  0
LINE
  5
4251
  8
241
  6
CONTINUOUS
 10
14.05000000000002
 20
11.77167262
 30
0.0
 11
14.05000000000002
 21
38.22077680999999
 31
0.0
1001
GRPNAME
1000
PASTMD1I
  0
LINE
  5
4252
  8
241
  6
CONTINUOUS
 10
9.9499999999999975
 20
11.77167262
 30
0.0
 11
14.05000000000002
 21
11.77167262
 31
0.0
1001
GRPNAME
1000
PASTMD1I
  0
LINE
  5
4253
  8
241
  6
CONTINUOUS
 10
9.9499999999999975
 20
38.22077680999999
 30
0.0
 11
14.05000000000002
 21
38.22077680999999
 31
0.0
1001
GRPNAME
1000
PASTMD1I
  0
ARC
  5
4254
  8
241
  6
CONTINUOUS
 10
-19.247999627147941
 20
24.996224715
 30
0.0
 40
35.82799962714796
 50
338.33912465138178
 51
21.660875348618202
  0
ARC
  5
4255
  8
241
  6
CONTINUOUS
 10
43.247999627147912
 20
24.996224715
 30
0.0
 40
35.827999627147932
 50
158.33912465138181
 51
201.66087534861811
  0
LINE
  5
4256
  8
241
  6
CONTINUOUS
 10
9.9499999999999975
 20
-11.77167262
 30
0.0
 11
9.9499999999999975
 21
-38.22077680999999
 31
0.0
1001
GRPNAME
1000
PASTMD1I
  0
LINE
  5
4257
  8
241
  6
CONTINUOUS
 10
14.05000000000002
 20
-11.77167262
 30
0.0
 11
14.05000000000002
 21
-38.22077680999999
 31
0.0
1001
GRPNAME
1000
PASTMD1I
  0
LINE
  5
4258
  8
241
  6
CONTINUOUS
 10
9.9499999999999975
 20
-11.77167262
 30
0.0
 11
14.05000000000002
 21
-11.77167262
 31
0.0
1001
GRPNAME
1000
PASTMD1I
  0
LINE
  5
4259
  8
241
  6
CONTINUOUS
 10
9.9499999999999975
 20
-38.22077680999999
 30
0.0
 11
14.05000000000002
 21
-38.22077680999999
 31
0.0
1001
GRPNAME
1000
PASTMD1I
  0
ARC
  5
425A
  8
241
  6
CONTINUOUS
 10
-19.247999627147941
 20
-24.996224715
 30
0.0
 40
35.82799962714796
 50
338.33912465138178
 51
21.660875348618202
  0
ARC
  5
425B
  8
241
  6
CONTINUOUS
 10
43.247999627147912
 20
-24.996224715
 30
0.0
 40
35.827999627147932
 50
158.33912465138181
 51
201.66087534861811
  0
ARC
  5
425C
  8
241
  6
CONTINUOUS
 10
-42.514693471448112
 20
-0.0000000000001723
 30
0.0
 40
5.2245351917242679
 50
302.26098869277632
 51
57.739011307223699
  0
LINE
  5
4268
  8
240
  6
CONTINUOUS
 10
35.000000000000711
 20
-19.500000000000021
 30
0.0
 11
178.00000000000011
 21
-19.50000000000006
 31
0.0
1001
GRPNAME
1000
PASTMD1U
  0
LINE
  5
4269
  8
240
  6
CONTINUOUS
 10
178.00000000000011
 20
19.500000000000021
 30
0.0
 11
35.000000000000682
 21
19.500000000000021
 31
0.0
  0
LINE
  5
426A
  8
240
  6
CONTINUOUS
 10
178.00000000000011
 20
-19.50000000000006
 30
0.0
 11
178.00000000000011
 21
19.500000000000021
 31
0.0
1001
GRPNAME
1000
PASTMD1U
  0
ARC
  5
426B
  8
240
  6
CONTINUOUS
 10
35.000000000000711
 20
-24.500000000000011
 30
0.0
 40
5.0
 50
89.999999999999986
 51
180.0
1001
GENIUS_GENODEF_13
1002
{
1000
HIER
1070
     0
1002
}
1002
{
1000
MANEDIT
1070
     0
1002
}
1002
{
1000
NOSEL
1070
     0
1002
}
1002
{
1000
BEHIND
1070
     0
1002
}
1002
{
1000
OTHER
1070
     0
1002
}
1002
{
1000
REACTOR
1002
}
1001
GENIUS_GENOBJ-N-FIL_13
1002
{
1000
OWNER
1000
GEN
1002
}
  0
ARC
  5
426D
  8
240
  6
CONTINUOUS
 10
35.000000000000711
 20
24.500000000000028
 30
0.0
 40
5.0
 50
180.0
 51
270.0
1001
GENIUS_GENOBJ-N-FIL_13
1002
{
1000
OWNER
1000
GEN
1002
}
1001
GENIUS_GENODEF_13
1002
{
1000
HIER
1070
     0
1002
}
1002
{
1000
MANEDIT
1070
     0
1002
}
1002
{
1000
NOSEL
1070
     0
1002
}
1002
{
1000
BEHIND
1070
     0
1002
}
1002
{
1000
OTHER
1070
     0
1002
}
1002
{
1000
REACTOR
1002
}
  0
LINE
  5
4274
  8
240
  6
CONTINUOUS
 10
30.000000000000711
 20
-24.500000000000011
 30
0.0
 11
30.000000000000711
 21
-40.0
 31
0.0
  0
LINE
  5
4275
  8
241
  6
CONTINUOUS
 10
30.000000000000711
 20
-24.500000000000011
 30
0.0
 11
30.000000000000711
 21
24.500000000000028
 31
0.0
  0
LINE
  5
429F
  8
243
  6
HIDDEN2
 10
151.9500000000001
 20
11.000000000000011
 30
0.0
 11
178.00000000000011
 21
11.000000000000011
 31
0.0
1001
GRPNAME
1000
PASTMD03
  0
LINE
  5
42A0
  8
243
  6
HIDDEN2
 10
151.9500000000001
 20
-11.00000000000005
 30
0.0
 11
178.00000000000011
 21
-11.00000000000005
 31
0.0
1001
GRPNAME
1000
PASTMD03
  0
LINE
  5
42A1
  8
250
  6
CONTINUOUS
 10
178.50000000000099
 20
-19.499999999999961
 30
0.0
 11
192.00000000000091
 21
-19.499999999999961
 31
0.0
  0
LINE
  5
42A2
  8
250
  6
CONTINUOUS
 10
178.50000000000099
 20
19.500000000000021
 30
0.0
 11
192.00000000000091
 21
19.500000000000021
 31
0.0
  0
LINE
  5
42A3
  8
250
  6
CONTINUOUS
 10
191.00000000000091
 20
-17.26999999999996
 30
0.0
 11
191.00000000000091
 21
17.270000000000032
 31
0.0
  0
LINE
  5
42A4
  8
250
  6
CONTINUOUS
 10
191.37166666666761
 20
-17.26999999999996
 30
0.0
 11
191.00000000000091
 21
-19.499999999999961
 31
0.0
  0
LINE
  5
42A5
  8
250
  6
CONTINUOUS
 10
190.62833333333441
 20
-17.26999999999996
 30
0.0
 11
191.00000000000091
 21
-19.499999999999961
 31
0.0
  0
LINE
  5
42A6
  8
250
  6
CONTINUOUS
 10
191.00000000000091
 20
-19.499999999999961
 30
0.0
 11
191.00000000000091
 21
-17.26999999999996
 31
0.0
  0
LINE
  5
42A7
  8
250
  6
CONTINUOUS
 10
190.62833333333441
 20
17.270000000000032
 30
0.0
 11
191.00000000000091
 21
19.500000000000021
 31
0.0
  0
LINE
  5
42A8
  8
250
  6
CONTINUOUS
 10
191.37166666666761
 20
17.270000000000032
 30
0.0
 11
191.00000000000091
 21
19.500000000000021
 31
0.0
  0
LINE
  5
42A9
  8
250
  6
CONTINUOUS
 10
191.00000000000091
 20
19.500000000000021
 30
0.0
 11
191.00000000000091
 21
17.270000000000032
 31
0.0
  0
TEXT
  5
42AA
  8
250
  6
CONTINUOUS
 10
190.00000000000111
 20
-3.8666666666666361
 30
0.0
 40
2.799999999999998
  1
\U+220539
 50
90.0
1001
ACAD
1000
MTEXTBEGIN
1070
    73
1070
     1
1070
    44
1040
1.0
1070
    74
1070
     0
1000
MTEXTEND
  0
LINE
  5
42AB
  8
250
  6
CONTINUOUS
 10
175.34176270432491
 20
21.065384141125332
 30
0.0
 11
174.05308757000111
 21
19.50000000000005
 31
0.0
  0
LINE
  5
42AC
  8
250
  6
CONTINUOUS
 10
174.76441243507759
 20
21.39871747435873
 30
0.0
 11
174.05308757000111
 21
19.50000000000005
 31
0.0
  0
LINE
  5
42AD
  8
250
  6
CONTINUOUS
 10
174.05308757000111
 20
19.50000000000005
 30
0.0
 11
175.0530875697012
 21
21.232050807742031
 31
0.0
  0
POLYLINE
  5
42AE
  8
250
  6
CONTINUOUS
 66
     1
 10
0.0
 20
0.0
 30
0.0
1001
ACAD
1000
DSTYLE
1002
{
1070
     6
1000
OPEN
1070
    41
1040
2.0
1070
    42
1040
2.0
1070
    44
1040
2.0
1070
    79
1070
     2
1070
   140
1040
4.0
1070
   179
1070
     3
1070
   343
1005
0
1070
   371
1070
    -1
1070
   372
1070
    -1
1002
}
  0
VERTEX
  5
42AF
  8
250
  6
CONTINUOUS
 10
175.0530875697012
 20
21.232050807742031
 30
0.0
  0
VERTEX
  5
42B0
  8
250
  6
CONTINUOUS
 10
183.90368642000109
 20
36.561737700000037
 30
0.0
  0
SEQEND
  5
42B1
  8
250
  6
CONTINUOUS
  0
TEXT
  5
42B2
  8
250
  6
CONTINUOUS
 10
186.3036864200011
 20
37.561737700000052
 30
0.0
 40
2.799999999999998
  1
CK4
  7
YOKO
1001
ITEMNAME
1000
LNSP3
1001
ACAD
1000
MTEXTBEGIN
1070
    73
1070
     1
1070
    44
1040
1.0
1070
    74
1070
     0
1000
MTEXTEND
1000
MTEXTBEGIN
1070
    73
1070
     1
1070
    44
1040
1.0
1070
    74
1070
     0
1000
MTEXTEND
  0
LINE
  5
42B3
  8
250
  6
CONTINUOUS
 10
183.90368642000109
 20
36.561737700000037
 30
0.0
 11
197.10368642000111
 21
36.561737700000037
 31
0.0
1001
ITEMNAME
1000
LNSP2
  0
LINE
  5
42B4
  8
245
  6
CENTER2
 10
168.00000000000111
 20
5.0000000000000258
 30
0.0
 11
168.00000000000111
 21
-4.9999999999999698
 31
0.0
  0
CIRCLE
  5
42B5
  8
242
  6
CONTINUOUS
 10
168.00000000000111
 20
0.0000000000000284
 30
0.0
 40
3.5
  0
POLYLINE
  5
42B6
  8
241
  6
CONTINUOUS
 66
     1
 10
0.0
 20
0.0
 30
0.0
 70
     1
  0
VERTEX
  5
42B7
  8
241
  6
CONTINUOUS
 10
166.00000000000099
 20
-1.154700539999971
 30
0.0
  0
VERTEX
  5
42B8
  8
241
  6
CONTINUOUS
 10
168.00000000000111
 20
-2.30940107999997
 30
0.0
  0
VERTEX
  5
42B9
  8
241
  6
CONTINUOUS
 10
170.00000000000111
 20
-1.154700539999971
 30
0.0
  0
VERTEX
  5
42BA
  8
241
  6
CONTINUOUS
 10
170.00000000000111
 20
1.154700540000027
 30
0.0
  0
VERTEX
  5
42BB
  8
241
  6
CONTINUOUS
 10
168.00000000000111
 20
2.309401080000026
 30
0.0
  0
VERTEX
  5
42BC
  8
241
  6
CONTINUOUS
 10
166.00000000000099
 20
1.154700540000027
 30
0.0
  0
SEQEND
  5
42BD
  8
241
  6
CONTINUOUS
  0
CIRCLE
  5
42BE
  8
241
  6
CONTINUOUS
 10
168.00000000000111
 20
0.0000000000000284
 30
0.0
 40
4.0
  0
LINE
  5
42D1
  8
250
  6
CONTINUOUS
 10
0.0
 20
40.192500000000003
 30
0.0
 11
0.0
 21
57.0
 31
0.0
  0
LINE
  5
42D2
  8
250
  6
CONTINUOUS
 10
178.0
 20
20.0
 30
0.0
 11
178.0
 21
57.0
 31
0.0
  0
LINE
  5
42D3
  8
250
  6
CONTINUOUS
 10
2.2299999999999991
 20
56.0
 30
0.0
 11
175.77000000000001
 21
56.0
 31
0.0
  0
LINE
  5
42D4
  8
250
  6
CONTINUOUS
 10
2.2299999999999991
 20
55.62833333333333
 30
0.0
 11
0.0
 21
56.0
 31
0.0
  0
LINE
  5
42D5
  8
250
  6
CONTINUOUS
 10
2.2299999999999991
 20
56.37166666666667
 30
0.0
 11
0.0
 21
56.0
 31
0.0
  0
LINE
  5
42D6
  8
250
  6
CONTINUOUS
 10
0.0
 20
56.0
 30
0.0
 11
2.2299999999999991
 21
56.0
 31
0.0
  0
LINE
  5
42D7
  8
250
  6
CONTINUOUS
 10
175.77000000000001
 20
56.37166666666667
 30
0.0
 11
178.0
 21
56.0
 31
0.0
  0
LINE
  5
42D8
  8
250
  6
CONTINUOUS
 10
175.77000000000001
 20
55.62833333333333
 30
0.0
 11
178.0
 21
56.0
 31
0.0
  0
LINE
  5
42D9
  8
250
  6
CONTINUOUS
 10
178.0
 20
56.0
 30
0.0
 11
175.77000000000001
 21
56.0
 31
0.0
  0
TEXT
  5
42DA
  8
250
  6
CONTINUOUS
 10
84.500000000000014
 20
57.0
 30
0.0
 40
3.0
  1
178
1001
ACAD
1000
MTEXTBEGIN
1070
    73
1070
     1
1070
    44
1040
1.0
1070
    74
1070
     0
1000
MTEXTEND
  0
TEXT
  5
42DB
  8
241
  6
CONTINUOUS
 10
-48.0
 20
70.0
 30
0.0
 40
5.0
  1
C8-CKB4-178
  7
YOKO
 11
-48.0
 21
70.0
 31
0.0
 73
     1
  0
LINE
  5
47D7
  8
245
  6
CENTER2
 10
-90.302810710411435
 20
29.90252242402018
 30
0.0
 11
-90.302810710411435
 21
-29.09747757597982
 31
0.0
  0
LINE
  5
47D8
  8
245
  6
CENTER2
 10
-122.5952122258355
 20
0.4025224240201811
 30
0.0
 11
-58.375824688378458
 21
0.4025224240201811
 31
0.0
  0
ARC
  5
47D9
  8
241
  6
CONTINUOUS
 10
-119.5028107104114
 20
0.4025224240201811
 30
0.0
 40
7.0
 50
305.4441780804321
 51
55.022492573911741
  0
ARC
  5
47DA
  8
241
  6
CONTINUOUS
 10
-57.092810710411428
 20
0.4025224240201527
 30
0.0
 40
7.0
 50
131.38246406869931
 51
228.29366482707141
  0
CIRCLE
  5
47DB
  8
241
  6
CONTINUOUS
 10
-90.302810710412317
 20
0.4025224240206927
 30
0.0
 40
9.0500000000000007
  0
CIRCLE
  5
47DC
  8
241
  6
CONTINUOUS
 10
-90.302810710412317
 20
0.4025224240206927
 30
0.0
 40
16.0
  0
CIRCLE
  5
47DD
  8
242
  6
CONTINUOUS
 10
-90.302810710412317
 20
0.4025224240206927
 30
0.0
 40
10.0
  0
POLYLINE
  5
47DE
  8
240
 66
     1
 10
0.0
 20
0.0
 30
0.0
 70
     8
  0
VERTEX
  5
47DF
  8
240
 10
-77.552810710411435
 20
22.486122424020081
 30
0.0
 70
    32
  0
VERTEX
  5
47E0
  8
240
 10
-77.199310710411439
 20
22.283022424020078
 30
0.0
 70
    32
  0
VERTEX
  5
47E1
  8
240
 10
-76.847810710411423
 20
22.076922424020079
 30
0.0
 70
    32
  0
VERTEX
  5
47E2
  8
240
 10
-76.498310710411431
 20
21.868122424020079
 30
0.0
 70
    32
  0
VERTEX
  5
47E3
  8
240
 10
-76.151010710411441
 20
21.656522424020078
 30
0.0
 70
    32
  0
VERTEX
  5
47E4
  8
240
 10
-75.805710710411432
 20
21.442122424020081
 30
0.0
 70
    32
  0
VERTEX
  5
47E5
  8
240
 10
-75.462810710411432
 20
21.225022424020079
 30
0.0
 70
    32
  0
VERTEX
  5
47E6
  8
240
 10
-75.122110710411434
 20
21.005322424020079
 30
0.0
 70
    32
  0
VERTEX
  5
47E7
  8
240
 10
-74.783710710411441
 20
20.782922424020079
 30
0.0
 70
    32
  0
VERTEX
  5
47E8
  8
240
 10
-74.447810710411432
 20
20.558022424020081
 30
0.0
 70
    32
  0
VERTEX
  5
47E9
  8
240
 10
-74.114410710411434
 20
20.330522424020081
 30
0.0
 70
    32
  0
VERTEX
  5
47EA
  8
240
 10
-73.783510710411434
 20
20.100522424020081
 30
0.0
 70
    32
  0
VERTEX
  5
47EB
  8
240
 10
-73.455210710411436
 20
19.86792242402008
 30
0.0
 70
    32
  0
VERTEX
  5
47EC
  8
240
 10
-73.129610710411441
 20
19.63302242402008
 30
0.0
 70
    32
  0
VERTEX
  5
47ED
  8
240
 10
-72.80681071041144
 20
19.395622424020079
 30
0.0
 70
    32
  0
VERTEX
  5
47EE
  8
240
 10
-72.48671071041143
 20
19.15592242402008
 30
0.0
 70
    32
  0
VERTEX
  5
47EF
  8
240
 10
-72.169610710411433
 20
18.913822424020079
 30
0.0
 70
    32
  0
VERTEX
  5
47F0
  8
240
 10
-71.85531071041143
 20
18.66942242402008
 30
0.0
 70
    32
  0
VERTEX
  5
47F1
  8
240
 10
-71.544110710411431
 20
18.42282242402008
 30
0.0
 70
    32
  0
VERTEX
  5
47F2
  8
240
 10
-71.235910710411432
 20
18.173922424020081
 30
0.0
 70
    32
  0
VERTEX
  5
47F3
  8
240
 10
-70.930910710411425
 20
17.922922424020079
 30
0.0
 70
    32
  0
VERTEX
  5
47F4
  8
240
 10
-70.629110710411439
 20
17.66972242402008
 30
0.0
 70
    32
  0
VERTEX
  5
47F5
  8
240
 10
-70.330510710411431
 20
17.414422424020081
 30
0.0
 70
    32
  0
VERTEX
  5
47F6
  8
240
 10
-70.035310710411437
 20
17.157022424020081
 30
0.0
 70
    32
  0
VERTEX
  5
47F7
  8
240
 10
-69.743410710411439
 20
16.897522424020082
 30
0.0
 70
    32
  0
VERTEX
  5
47F8
  8
240
 10
-69.455010710411415
 20
16.63612242402008
 30
0.0
 70
    32
  0
VERTEX
  5
47F9
  8
240
 10
-69.170110710411436
 20
16.372722424020079
 30
0.0
 70
    32
  0
VERTEX
  5
47FA
  8
240
 10
-68.888810710411434
 20
16.107322424020079
 30
0.0
 70
    32
  0
VERTEX
  5
47FB
  8
240
 10
-68.611210710411441
 20
15.84012242402008
 30
0.0
 70
    32
  0
VERTEX
  5
47FC
  8
240
 10
-68.337310710411415
 20
15.571022424020081
 30
0.0
 70
    32
  0
VERTEX
  5
47FD
  8
240
 10
-68.067110710411441
 20
15.300122424020079
 30
0.0
 70
    32
  0
VERTEX
  5
47FE
  8
240
 10
-67.80081071041144
 20
15.027422424020081
 30
0.0
 70
    32
  0
VERTEX
  5
47FF
  8
240
 10
-67.538410710411441
 20
14.753022424020079
 30
0.0
 70
    32
  0
VERTEX
  5
4800
  8
240
 10
-67.279910710411428
 20
14.47682242402008
 30
0.0
 70
    32
  0
VERTEX
  5
4801
  8
240
 10
-67.025510710411439
 20
14.199022424020081
 30
0.0
 70
    32
  0
VERTEX
  5
4802
  8
240
 10
-66.775210710411429
 20
13.91952242402008
 30
0.0
 70
    32
  0
VERTEX
  5
4803
  8
240
 10
-66.52911071041143
 20
13.63842242402008
 30
0.0
 70
    32
  0
VERTEX
  5
4804
  8
240
 10
-66.287210710411429
 20
13.355822424020079
 30
0.0
 70
    32
  0
VERTEX
  5
4805
  8
240
 10
-66.049610710411429
 20
13.071722424020081
 30
0.0
 70
    32
  0
VERTEX
  5
4806
  8
240
 10
-65.816410710411432
 20
12.78602242402008
 30
0.0
 70
    32
  0
VERTEX
  5
4807
  8
240
 10
-65.587510710411436
 20
12.49892242402008
 30
0.0
 70
    32
  0
VERTEX
  5
4808
  8
240
 10
-65.363210710411437
 20
12.210422424020081
 30
0.0
 70
    32
  0
VERTEX
  5
4809
  8
240
 10
-65.14341071041143
 20
11.92052242402008
 30
0.0
 70
    32
  0
VERTEX
  5
480A
  8
240
 10
-64.928310710411438
 20
11.62922242402008
 30
0.0
 70
    32
  0
VERTEX
  5
480B
  8
240
 10
-64.717810710411442
 20
11.336722424020079
 30
0.0
 70
    32
  0
VERTEX
  5
480C
  8
240
 10
-64.512010710411431
 20
11.04292242402008
 30
0.0
 70
    32
  0
VERTEX
  5
480D
  8
240
 10
-64.311110710411441
 20
10.747822424020081
 30
0.0
 70
    32
  0
VERTEX
  5
480E
  8
240
 10
-64.115110710411429
 20
10.45162242402008
 30
0.0
 70
    32
  0
VERTEX
  5
480F
  8
240
 10
-63.924010710411437
 20
10.15419242402008
 30
0.0
 70
    32
  0
VERTEX
  5
4810
  8
240
 10
-63.737910710411441
 20
9.8556724240200815
 30
0.0
 70
    32
  0
VERTEX
  5
4811
  8
240
 10
-63.55681071041144
 20
9.5560524240200806
 30
0.0
 70
    32
  0
VERTEX
  5
4812
  8
240
 10
-63.381010710411431
 20
9.2553924240200782
 30
0.0
 70
    32
  0
VERTEX
  5
4813
  8
240
 10
-63.210310710411441
 20
8.9537124240200825
 30
0.0
 70
    32
  0
VERTEX
  5
4814
  8
240
 10
-63.044810710411433
 20
8.6510624240200826
 30
0.0
 70
    32
  0
VERTEX
  5
4815
  8
240
 10
-62.88471071041144
 20
8.3474724240200828
 30
0.0
 70
    32
  0
VERTEX
  5
4816
  8
240
 10
-62.730010710411428
 20
8.0429824240200816
 30
0.0
 70
    32
  0
VERTEX
  5
4817
  8
240
 10
-62.580810710411427
 20
7.7376224240200813
 30
0.0
 70
    32
  0
VERTEX
  5
4818
  8
240
 10
-62.437010710411442
 20
7.4314324240200822
 30
0.0
 70
    32
  0
VERTEX
  5
4819
  8
240
 10
-62.298910710411427
 20
7.1244524240200811
 30
0.0
 70
    32
  0
VERTEX
  5
481A
  8
240
 10
-62.166410710411427
 20
6.8167224240200808
 30
0.0
 70
    32
  0
VERTEX
  5
481B
  8
240
 10
-62.039710710411427
 20
6.5082724240200811
 30
0.0
 70
    32
  0
VERTEX
  5
481C
  8
240
 10
-61.918710710411439
 20
6.1991324240200809
 30
0.0
 70
    32
  0
VERTEX
  5
481D
  8
240
 10
-61.803510710411437
 20
5.889352424020081
 30
0.0
 70
    32
  0
VERTEX
  5
481E
  8
240
 10
-61.694310710411429
 20
5.5789724240200806
 30
0.0
 70
    32
  0
VERTEX
  5
481F
  8
240
 10
-61.591010710411439
 20
5.268012424020081
 30
0.0
 70
    32
  0
VERTEX
  5
4820
  8
240
 10
-61.493810710411438
 20
4.9565224240200809
 30
0.0
 70
    32
  0
VERTEX
  5
4821
  8
240
 10
-61.402710710411426
 20
4.6445324240200812
 30
0.0
 70
    32
  0
VERTEX
  5
4822
  8
240
 10
-61.317810710411429
 20
4.332082424020081
 30
0.0
 70
    32
  0
VERTEX
  5
4823
  8
240
 10
-61.239010710411428
 20
4.0192024240200812
 30
0.0
 70
    32
  0
VERTEX
  5
4824
  8
240
 10
-61.166610710411433
 20
3.7059424240200811
 30
0.0
 70
    32
  0
VERTEX
  5
4825
  8
240
 10
-61.100610710411438
 20
3.3923224240200809
 30
0.0
 70
    32
  0
VERTEX
  5
4826
  8
240
 10
-61.041010710411427
 20
3.0783924240200808
 30
0.0
 70
    32
  0
VERTEX
  5
4827
  8
240
 10
-60.987810710411438
 20
2.7641924240200808
 30
0.0
 70
    32
  0
VERTEX
  5
4828
  8
240
 10
-60.941210710411433
 20
2.4497424240200809
 30
0.0
 70
    32
  0
VERTEX
  5
4829
  8
240
 10
-60.901310710411437
 20
2.135092424020081
 30
0.0
 70
    32
  0
VERTEX
  5
482A
  8
240
 10
-60.868010710411433
 20
1.820282424020081
 30
0.0
 70
    32
  0
VERTEX
  5
482B
  8
240
 10
-60.841510710411427
 20
1.5053324240200809
 30
0.0
 70
    32
  0
VERTEX
  5
482C
  8
240
 10
-60.821810710411427
 20
1.190291424020081
 30
0.0
 70
    32
  0
VERTEX
  5
482D
  8
240
 10
-60.809010710411428
 20
0.8751944240200815
 30
0.0
 70
    32
  0
VERTEX
  5
482E
  8
240
 10
-60.803110710411438
 20
0.5600774240200817
 30
0.0
 70
    32
  0
VERTEX
  5
482F
  8
240
 10
-60.804210710411432
 20
0.2449764240200815
 30
0.0
 70
    32
  0
VERTEX
  5
4830
  8
240
 10
-60.812410710411427
 20
-0.0700725759799185
 30
0.0
 70
    32
  0
VERTEX
  5
4831
  8
240
 10
-60.827510710411438
 20
-0.3850345759799184
 30
0.0
 70
    32
  0
VERTEX
  5
4832
  8
240
 10
-60.849410710411433
 20
-0.6998775759799186
 30
0.0
 70
    32
  0
VERTEX
  5
4833
  8
240
 10
-60.878210710411437
 20
-1.014567575979918
 30
0.0
 70
    32
  0
VERTEX
  5
4834
  8
240
 10
-60.913710710411443
 20
-1.329067575979918
 30
0.0
 70
    32
  0
VERTEX
  5
4835
  8
240
 10
-60.955810710411427
 20
-1.643337575979918
 30
0.0
 70
    32
  0
VERTEX
  5
4836
  8
240
 10
-61.004610710411427
 20
-1.957357575979918
 30
0.0
 70
    32
  0
VERTEX
  5
4837
  8
240
 10
-61.059910710411437
 20
-2.2710875759799181
 30
0.0
 70
    32
  0
VERTEX
  5
4838
  8
240
 10
-61.121710710411428
 20
-2.5844875759799182
 30
0.0
 70
    32
  0
VERTEX
  5
4839
  8
240
 10
-61.189910710411432
 20
-2.8975375759799178
 30
0.0
 70
    32
  0
VERTEX
  5
483A
  8
240
 10
-61.264510710411429
 20
-3.2101875759799179
 30
0.0
 70
    32
  0
VERTEX
  5
483B
  8
240
 10
-61.345310710411432
 20
-3.5224075759799178
 30
0.0
 70
    32
  0
VERTEX
  5
483C
  8
240
 10
-61.432310710411429
 20
-3.8341675759799179
 30
0.0
 70
    32
  0
VERTEX
  5
483D
  8
240
 10
-61.525510710411439
 20
-4.1454375759799182
 30
0.0
 70
    32
  0
VERTEX
  5
483E
  8
240
 10
-61.624710710411428
 20
-4.4561775759799183
 30
0.0
 70
    32
  0
VERTEX
  5
483F
  8
240
 10
-61.730010710411428
 20
-4.7663475759799177
 30
0.0
 70
    32
  0
VERTEX
  5
4840
  8
240
 10
-61.841110710411442
 20
-5.0759275759799181
 30
0.0
 70
    32
  0
VERTEX
  5
4841
  8
240
 10
-61.958210710411443
 20
-5.3848675759799178
 30
0.0
 70
    32
  0
VERTEX
  5
4842
  8
240
 10
-62.081010710411427
 20
-5.6931475759799177
 30
0.0
 70
    32
  0
VERTEX
  5
4843
  8
240
 10
-62.209610710411432
 20
-6.0007275759799183
 30
0.0
 70
    32
  0
VERTEX
  5
4844
  8
240
 10
-62.343910710411443
 20
-6.3075675759799168
 30
0.0
 70
    32
  0
VERTEX
  5
4845
  8
240
 10
-62.483810710411433
 20
-6.6136475759799183
 30
0.0
 70
    32
  0
VERTEX
  5
4846
  8
240
 10
-62.629210710411442
 20
-6.9189175759799166
 30
0.0
 70
    32
  0
VERTEX
  5
4847
  8
240
 10
-62.780110710411428
 20
-7.2233475759799184
 30
0.0
 70
    32
  0
VERTEX
  5
4848
  8
240
 10
-62.93641071041143
 20
-7.5269175759799181
 30
0.0
 70
    32
  0
VERTEX
  5
4849
  8
240
 10
-63.09801071041143
 20
-7.8295775759799193
 30
0.0
 70
    32
  0
VERTEX
  5
484A
  8
240
 10
-63.264910710411428
 20
-8.1312975759799162
 30
0.0
 70
    32
  0
VERTEX
  5
484B
  8
240
 10
-63.437110710411432
 20
-8.4320475759799187
 30
0.0
 70
    32
  0
VERTEX
  5
484C
  8
240
 10
-63.614310710411431
 20
-8.7317875759799186
 30
0.0
 70
    32
  0
VERTEX
  5
484D
  8
240
 10
-63.796610710411429
 20
-9.0304875759799188
 30
0.0
 70
    32
  0
VERTEX
  5
484E
  8
240
 10
-63.98401071041144
 20
-9.3281175759799169
 30
0.0
 70
    32
  0
VERTEX
  5
484F
  8
240
 10
-64.176210710411439
 20
-9.6246775759799181
 30
0.0
 70
    32
  0
VERTEX
  5
4850
  8
240
 10
-64.373410710411434
 20
-9.9199775759799174
 30
0.0
 70
    32
  0
VERTEX
  5
4851
  8
240
 10
-64.575310710411429
 20
-10.21417757597991
 30
0.0
 70
    32
  0
VERTEX
  5
4852
  8
240
 10
-64.782010710411441
 20
-10.50717757597992
 30
0.0
 70
    32
  0
VERTEX
  5
4853
  8
240
 10
-64.993310710411436
 20
-10.798877575979921
 30
0.0
 70
    32
  0
VERTEX
  5
4854
  8
240
 10
-65.20931071041143
 20
-11.08937757597991
 30
0.0
 70
    32
  0
VERTEX
  5
4855
  8
240
 10
-65.429810710411431
 20
-11.37847757597992
 30
0.0
 70
    32
  0
VERTEX
  5
4856
  8
240
 10
-65.654710710411436
 20
-11.666277575979921
 30
0.0
 70
    32
  0
VERTEX
  5
4857
  8
240
 10
-65.884110710411434
 20
-11.952677575979919
 30
0.0
 70
    32
  0
VERTEX
  5
4858
  8
240
 10
-66.117810710411433
 20
-12.237677575979919
 30
0.0
 70
    32
  0
VERTEX
  5
4859
  8
240
 10
-66.355810710411433
 20
-12.521277575979919
 30
0.0
 70
    32
  0
VERTEX
  5
485A
  8
240
 10
-66.59801071041143
 20
-12.803377575979921
 30
0.0
 70
    32
  0
VERTEX
  5
485B
  8
240
 10
-66.844310710411435
 20
-13.083877575979921
 30
0.0
 70
    32
  0
VERTEX
  5
485C
  8
240
 10
-67.094710710411434
 20
-13.362877575979921
 30
0.0
 70
    32
  0
VERTEX
  5
485D
  8
240
 10
-67.349010710411434
 20
-13.640277575979921
 30
0.0
 70
    32
  0
VERTEX
  5
485E
  8
240
 10
-67.607410710411429
 20
-13.916077575979919
 30
0.0
 70
    32
  0
VERTEX
  5
485F
  8
240
 10
-67.869610710411436
 20
-14.19017757597992
 30
0.0
 70
    32
  0
VERTEX
  5
4860
  8
240
 10
-68.135610710411441
 20
-14.462577575979919
 30
0.0
 70
    32
  0
VERTEX
  5
4861
  8
240
 10
-68.405310710411442
 20
-14.733277575979921
 30
0.0
 70
    32
  0
VERTEX
  5
4862
  8
240
 10
-68.678710710411437
 20
-15.002277575979919
 30
0.0
 70
    32
  0
VERTEX
  5
4863
  8
240
 10
-68.955710710411424
 20
-15.26947757597992
 30
0.0
 70
    32
  0
VERTEX
  5
4864
  8
240
 10
-69.236310710411431
 20
-15.53477757597992
 30
0.0
 70
    32
  0
VERTEX
  5
4865
  8
240
 10
-69.520310710411437
 20
-15.79827757597992
 30
0.0
 70
    32
  0
VERTEX
  5
4866
  8
240
 10
-69.807710710411442
 20
-16.059877575979922
 30
0.0
 70
    32
  0
VERTEX
  5
4867
  8
240
 10
-70.098410710411429
 20
-16.319477575979921
 30
0.0
 70
    32
  0
VERTEX
  5
4868
  8
240
 10
-70.392510710411415
 20
-16.57717757597992
 30
0.0
 70
    32
  0
VERTEX
  5
4869
  8
240
 10
-70.689710710411433
 20
-16.832877575979921
 30
0.0
 70
    32
  0
VERTEX
  5
486A
  8
240
 10
-70.990010710411426
 20
-17.08657757597992
 30
0.0
 70
    32
  0
VERTEX
  5
486B
  8
240
 10
-71.293510710411439
 20
-17.33817757597992
 30
0.0
 70
    32
  0
VERTEX
  5
486C
  8
240
 10
-71.599910710411436
 20
-17.587677575979921
 30
0.0
 70
    32
  0
VERTEX
  5
486D
  8
240
 10
-71.909210710411429
 20
-17.83507757597992
 30
0.0
 70
    32
  0
VERTEX
  5
486E
  8
240
 10
-72.221510710411437
 20
-18.08027757597992
 30
0.0
 70
    32
  0
VERTEX
  5
486F
  8
240
 10
-72.536510710411434
 20
-18.323277575979919
 30
0.0
 70
    32
  0
VERTEX
  5
4870
  8
240
 10
-72.85431071041144
 20
-18.564077575979919
 30
0.0
 70
    32
  0
VERTEX
  5
4871
  8
240
 10
-73.174710710411432
 20
-18.802577575979921
 30
0.0
 70
    32
  0
VERTEX
  5
4872
  8
240
 10
-73.497810710411414
 20
-19.038777575979921
 30
0.0
 70
    32
  0
VERTEX
  5
4873
  8
240
 10
-73.823310710411434
 20
-19.27267757597992
 30
0.0
 70
    32
  0
VERTEX
  5
4874
  8
240
 10
-74.15141071041144
 20
-19.50407757597992
 30
0.0
 70
    32
  0
VERTEX
  5
4875
  8
240
 10
-74.481810710411438
 20
-19.733177575979919
 30
0.0
 70
    32
  0
VERTEX
  5
4876
  8
240
 10
-74.814610710411429
 20
-19.95987757597992
 30
0.0
 70
    32
  0
VERTEX
  5
4877
  8
240
 10
-75.149610710411437
 20
-20.18407757597992
 30
0.0
 70
    32
  0
VERTEX
  5
4878
  8
240
 10
-75.486910710411436
 20
-20.405677575979919
 30
0.0
 70
    32
  0
VERTEX
  5
4879
  8
240
 10
-75.826210710411431
 20
-20.62477757597992
 30
0.0
 70
    32
  0
VERTEX
  5
487A
  8
240
 10
-76.167710710411441
 20
-20.841377575979919
 30
0.0
 70
    32
  0
VERTEX
  5
487B
  8
240
 10
-76.511110710411415
 20
-21.055277575979918
 30
0.0
 70
    32
  0
VERTEX
  5
487C
  8
240
 10
-76.856510710411442
 20
-21.26657757597992
 30
0.0
 70
    32
  0
VERTEX
  5
487D
  8
240
 10
-77.203810710411432
 20
-21.47517757597992
 30
0.0
 70
    32
  0
VERTEX
  5
487E
  8
240
 10
-77.552810710411435
 20
-21.68107757597992
 30
0.0
 70
    32
  0
SEQEND
  5
487F
  8
240
  0
POLYLINE
  5
4880
  8
240
 66
     1
 10
0.0
 20
0.0
 30
0.0
 70
     8
  0
VERTEX
  5
4881
  8
240
 10
-115.80281071041141
 20
0.4025224270889715
 30
0.0
 70
    32
  0
VERTEX
  5
4882
  8
240
 10
-115.8038107104114
 20
0.8102344240200814
 30
0.0
 70
    32
  0
VERTEX
  5
4883
  8
240
 10
-115.8008107104114
 20
1.217666424020081
 30
0.0
 70
    32
  0
VERTEX
  5
4884
  8
240
 10
-115.7948107104114
 20
1.624742424020081
 30
0.0
 70
    32
  0
VERTEX
  5
4885
  8
240
 10
-115.78481071041141
 20
2.0313924240200811
 30
0.0
 70
    32
  0
VERTEX
  5
4886
  8
240
 10
-115.7718107104114
 20
2.4375424240200809
 30
0.0
 70
    32
  0
VERTEX
  5
4887
  8
240
 10
-115.7558107104114
 20
2.8431124240200809
 30
0.0
 70
    32
  0
VERTEX
  5
4888
  8
240
 10
-115.7358107104114
 20
3.2480324240200811
 30
0.0
 70
    32
  0
VERTEX
  5
4889
  8
240
 10
-115.7128107104114
 20
3.6522224240200809
 30
0.0
 70
    32
  0
VERTEX
  5
488A
  8
240
 10
-115.6858107104114
 20
4.05562242402008
 30
0.0
 70
    32
  0
VERTEX
  5
488B
  8
240
 10
-115.6548107104114
 20
4.4581324240200813
 30
0.0
 70
    32
  0
VERTEX
  5
488C
  8
240
 10
-115.6218107104114
 20
4.8597024240200808
 30
0.0
 70
    32
  0
VERTEX
  5
488D
  8
240
 10
-115.5838107104114
 20
5.2602524240200808
 30
0.0
 70
    32
  0
VERTEX
  5
488E
  8
240
 10
-115.54381071041141
 20
5.6597024240200806
 30
0.0
 70
    32
  0
VERTEX
  5
488F
  8
240
 10
-115.4998107104114
 20
6.0579824240200812
 30
0.0
 70
    32
  0
VERTEX
  5
4890
  8
240
 10
-115.45181071041139
 20
6.4550124240200812
 30
0.0
 70
    32
  0
VERTEX
  5
4891
  8
240
 10
-115.40081071041141
 20
6.8507224240200806
 30
0.0
 70
    32
  0
VERTEX
  5
4892
  8
240
 10
-115.3458107104114
 20
7.245042424020081
 30
0.0
 70
    32
  0
VERTEX
  5
4893
  8
240
 10
-115.28781071041141
 20
7.6378924240200812
 30
0.0
 70
    32
  0
VERTEX
  5
4894
  8
240
 10
-115.2268107104114
 20
8.0291924240200814
 30
0.0
 70
    32
  0
VERTEX
  5
4895
  8
240
 10
-115.1618107104114
 20
8.418882424020083
 30
0.0
 70
    32
  0
VERTEX
  5
4896
  8
240
 10
-115.0938107104114
 20
8.8068724240200815
 30
0.0
 70
    32
  0
VERTEX
  5
4897
  8
240
 10
-115.0218107104114
 20
9.1931024240200827
 30
0.0
 70
    32
  0
VERTEX
  5
4898
  8
240
 10
-114.9468107104114
 20
9.5774824240200829
 30
0.0
 70
    32
  0
VERTEX
  5
4899
  8
240
 10
-114.8678107104114
 20
9.9599524240200807
 30
0.0
 70
    32
  0
VERTEX
  5
489A
  8
240
 10
-114.7858107104114
 20
10.340442424020081
 30
0.0
 70
    32
  0
VERTEX
  5
489B
  8
240
 10
-114.6998107104114
 20
10.718822424020081
 30
0.0
 70
    32
  0
VERTEX
  5
489C
  8
240
 10
-114.6108107104114
 20
11.095122424020079
 30
0.0
 70
    32
  0
VERTEX
  5
489D
  8
240
 10
-114.5178107104114
 20
11.46922242402008
 30
0.0
 70
    32
  0
VERTEX
  5
489E
  8
240
 10
-114.42181071041141
 20
11.84102242402008
 30
0.0
 70
    32
  0
VERTEX
  5
489F
  8
240
 10
-114.3228107104114
 20
12.210422424020081
 30
0.0
 70
    32
  0
VERTEX
  5
48A0
  8
240
 10
-114.21981071041139
 20
12.57742242402008
 30
0.0
 70
    32
  0
VERTEX
  5
48A1
  8
240
 10
-114.1128107104114
 20
12.94182242402008
 30
0.0
 70
    32
  0
VERTEX
  5
48A2
  8
240
 10
-114.0028107104114
 20
13.30372242402008
 30
0.0
 70
    32
  0
VERTEX
  5
48A3
  8
240
 10
-113.8898107104114
 20
13.663022424020079
 30
0.0
 70
    32
  0
VERTEX
  5
48A4
  8
240
 10
-113.77281071041141
 20
14.01952242402008
 30
0.0
 70
    32
  0
VERTEX
  5
48A5
  8
240
 10
-113.6528107104114
 20
14.37312242402008
 30
0.0
 70
    32
  0
VERTEX
  5
48A6
  8
240
 10
-113.52881071041141
 20
14.724022424020079
 30
0.0
 70
    32
  0
VERTEX
  5
48A7
  8
240
 10
-113.40081071041141
 20
15.07182242402008
 30
0.0
 70
    32
  0
VERTEX
  5
48A8
  8
240
 10
-113.2708107104114
 20
15.41662242402008
 30
0.0
 70
    32
  0
VERTEX
  5
48A9
  8
240
 10
-113.13581071041141
 20
15.758322424020079
 30
0.0
 70
    32
  0
VERTEX
  5
48AA
  8
240
 10
-112.99881071041141
 20
16.096922424020079
 30
0.0
 70
    32
  0
VERTEX
  5
48AB
  8
240
 10
-112.8578107104114
 20
16.432222424020079
 30
0.0
 70
    32
  0
VERTEX
  5
48AC
  8
240
 10
-112.7128107104114
 20
16.76412242402008
 30
0.0
 70
    32
  0
VERTEX
  5
48AD
  8
240
 10
-112.56481071041139
 20
17.092722424020081
 30
0.0
 70
    32
  0
VERTEX
  5
48AE
  8
240
 10
-112.41281071041141
 20
17.417822424020081
 30
0.0
 70
    32
  0
VERTEX
  5
48AF
  8
240
 10
-112.25781071041141
 20
17.739322424020081
 30
0.0
 70
    32
  0
VERTEX
  5
48B0
  8
240
 10
-112.0998107104114
 20
18.057222424020079
 30
0.0
 70
    32
  0
VERTEX
  5
48B1
  8
240
 10
-111.9378107104114
 20
18.371422424020079
 30
0.0
 70
    32
  0
VERTEX
  5
48B2
  8
240
 10
-111.7718107104114
 20
18.68182242402008
 30
0.0
 70
    32
  0
VERTEX
  5
48B3
  8
240
 10
-111.6028107104114
 20
18.988422424020079
 30
0.0
 70
    32
  0
VERTEX
  5
48B4
  8
240
 10
-111.43081071041139
 20
19.291122424020081
 30
0.0
 70
    32
  0
VERTEX
  5
48B5
  8
240
 10
-111.25481071041141
 20
19.589722424020081
 30
0.0
 70
    32
  0
VERTEX
  5
48B6
  8
240
 10
-111.0748107104114
 20
19.88432242402008
 30
0.0
 70
    32
  0
VERTEX
  5
48B7
  8
240
 10
-110.8928107104114
 20
20.174822424020078
 30
0.0
 70
    32
  0
VERTEX
  5
48B8
  8
240
 10
-110.7058107104114
 20
20.461022424020079
 30
0.0
 70
    32
  0
VERTEX
  5
48B9
  8
240
 10
-110.5158107104114
 20
20.74292242402008
 30
0.0
 70
    32
  0
VERTEX
  5
48BA
  8
240
 10
-110.3228107104114
 20
21.020522424020079
 30
0.0
 70
    32
  0
VERTEX
  5
48BB
  8
240
 10
-110.1258107104114
 20
21.293622424020079
 30
0.0
 70
    32
  0
VERTEX
  5
48BC
  8
240
 10
-109.9258107104114
 20
21.562222424020081
 30
0.0
 70
    32
  0
VERTEX
  5
48BD
  8
240
 10
-109.7218107104114
 20
21.826222424020081
 30
0.0
 70
    32
  0
VERTEX
  5
48BE
  8
240
 10
-109.5148107104114
 20
22.08562242402008
 30
0.0
 70
    32
  0
VERTEX
  5
48BF
  8
240
 10
-109.3038107104114
 20
22.34022242402008
 30
0.0
 70
    32
  0
VERTEX
  5
48C0
  8
240
 10
-109.0898107104114
 20
22.590022424020081
 30
0.0
 70
    32
  0
VERTEX
  5
48C1
  8
240
 10
-108.8728107104114
 20
22.834922424020078
 30
0.0
 70
    32
  0
VERTEX
  5
48C2
  8
240
 10
-108.65081071041141
 20
23.074822424020081
 30
0.0
 70
    32
  0
VERTEX
  5
48C3
  8
240
 10
-108.4268107104114
 20
23.30972242402008
 30
0.0
 70
    32
  0
VERTEX
  5
48C4
  8
240
 10
-108.19881071041139
 20
23.539522424020081
 30
0.0
 70
    32
  0
VERTEX
  5
48C5
  8
240
 10
-107.96681071041139
 20
23.76412242402008
 30
0.0
 70
    32
  0
VERTEX
  5
48C6
  8
240
 10
-107.73181071041139
 20
23.98352242402008
 30
0.0
 70
    32
  0
VERTEX
  5
48C7
  8
240
 10
-107.4928107104114
 20
24.197522424020089
 30
0.0
 70
    32
  0
VERTEX
  5
48C8
  8
240
 10
-107.2508107104114
 20
24.406122424020079
 30
0.0
 70
    32
  0
VERTEX
  5
48C9
  8
240
 10
-107.0058107104114
 20
24.609222424020079
 30
0.0
 70
    32
  0
VERTEX
  5
48CA
  8
240
 10
-106.7568107104114
 20
24.80672242402008
 30
0.0
 70
    32
  0
VERTEX
  5
48CB
  8
240
 10
-106.5038107104114
 20
24.99872242402008
 30
0.0
 70
    32
  0
VERTEX
  5
48CC
  8
240
 10
-106.2478107104114
 20
25.18492242402008
 30
0.0
 70
    32
  0
VERTEX
  5
48CD
  8
240
 10
-105.9888107104114
 20
25.365322424020079
 30
0.0
 70
    32
  0
VERTEX
  5
48CE
  8
240
 10
-105.72581071041139
 20
25.53992242402008
 30
0.0
 70
    32
  0
VERTEX
  5
48CF
  8
240
 10
-105.4588107104114
 20
25.708622424020081
 30
0.0
 70
    32
  0
VERTEX
  5
48D0
  8
240
 10
-105.1888107104114
 20
25.871222424020079
 30
0.0
 70
    32
  0
VERTEX
  5
48D1
  8
240
 10
-104.91581071041141
 20
26.02782242402008
 30
0.0
 70
    32
  0
VERTEX
  5
48D2
  8
240
 10
-104.63881071041141
 20
26.178322424020081
 30
0.0
 70
    32
  0
VERTEX
  5
48D3
  8
240
 10
-104.3588107104114
 20
26.322722424020078
 30
0.0
 70
    32
  0
VERTEX
  5
48D4
  8
240
 10
-104.0748107104114
 20
26.461122424020079
 30
0.0
 70
    32
  0
VERTEX
  5
48D5
  8
240
 10
-103.78781071041141
 20
26.59352242402008
 30
0.0
 70
    32
  0
VERTEX
  5
48D6
  8
240
 10
-103.4978107104114
 20
26.72002242402008
 30
0.0
 70
    32
  0
VERTEX
  5
48D7
  8
240
 10
-103.20481071041139
 20
26.840622424020079
 30
0.0
 70
    32
  0
VERTEX
  5
48D8
  8
240
 10
-102.9078107104114
 20
26.955422424020082
 30
0.0
 70
    32
  0
VERTEX
  5
48D9
  8
240
 10
-102.6088107104114
 20
27.06442242402008
 30
0.0
 70
    32
  0
VERTEX
  5
48DA
  8
240
 10
-102.3068107104114
 20
27.167622424020081
 30
0.0
 70
    32
  0
VERTEX
  5
48DB
  8
240
 10
-102.00181071041141
 20
27.265022424020081
 30
0.0
 70
    32
  0
VERTEX
  5
48DC
  8
240
 10
-101.69281071041139
 20
27.356822424020081
 30
0.0
 70
    32
  0
VERTEX
  5
48DD
  8
240
 10
-101.38281071041141
 20
27.442922424020079
 30
0.0
 70
    32
  0
VERTEX
  5
48DE
  8
240
 10
-101.0688107104114
 20
27.52342242402008
 30
0.0
 70
    32
  0
VERTEX
  5
48DF
  8
240
 10
-100.7528107104114
 20
27.598422424020089
 30
0.0
 70
    32
  0
VERTEX
  5
48E0
  8
240
 10
-100.43381071041139
 20
27.667822424020081
 30
0.0
 70
    32
  0
VERTEX
  5
48E1
  8
240
 10
-100.1128107104114
 20
27.731722424020081
 30
0.0
 70
    32
  0
VERTEX
  5
48E2
  8
240
 10
-99.788810710411425
 20
27.790322424020079
 30
0.0
 70
    32
  0
VERTEX
  5
48E3
  8
240
 10
-99.462810710411432
 20
27.84342242402008
 30
0.0
 70
    32
  0
VERTEX
  5
48E4
  8
240
 10
-99.13471071041144
 20
27.891122424020079
 30
0.0
 70
    32
  0
VERTEX
  5
48E5
  8
240
 10
-98.804010710411433
 20
27.933522424020079
 30
0.0
 70
    32
  0
VERTEX
  5
48E6
  8
240
 10
-98.471110710411438
 20
27.970622424020078
 30
0.0
 70
    32
  0
VERTEX
  5
48E7
  8
240
 10
-98.136110710411444
 20
28.002522424020079
 30
0.0
 70
    32
  0
VERTEX
  5
48E8
  8
240
 10
-97.799010710411451
 20
28.02922242402008
 30
0.0
 70
    32
  0
VERTEX
  5
48E9
  8
240
 10
-97.459910710411435
 20
28.05082242402008
 30
0.0
 70
    32
  0
VERTEX
  5
48EA
  8
240
 10
-97.118910710411441
 20
28.06722242402008
 30
0.0
 70
    32
  0
VERTEX
  5
48EB
  8
240
 10
-96.776010710411455
 20
28.078622424020079
 30
0.0
 70
    32
  0
VERTEX
  5
48EC
  8
240
 10
-96.431210710411435
 20
28.084922424020078
 30
0.0
 70
    32
  0
VERTEX
  5
48ED
  8
240
 10
-96.084710710411443
 20
28.086222424020079
 30
0.0
 70
    32
  0
VERTEX
  5
48EE
  8
240
 10
-95.736510710411437
 20
28.08262242402008
 30
0.0
 70
    32
  0
VERTEX
  5
48EF
  8
240
 10
-95.386710710411435
 20
28.074022424020079
 30
0.0
 70
    32
  0
VERTEX
  5
48F0
  8
240
 10
-95.035210710411434
 20
28.060622424020082
 30
0.0
 70
    32
  0
VERTEX
  5
48F1
  8
240
 10
-94.682310710411429
 20
28.042422424020081
 30
0.0
 70
    32
  0
VERTEX
  5
48F2
  8
240
 10
-94.328010710411434
 20
28.019322424020078
 30
0.0
 70
    32
  0
VERTEX
  5
48F3
  8
240
 10
-93.972210710411417
 20
27.991522424020079
 30
0.0
 70
    32
  0
VERTEX
  5
48F4
  8
240
 10
-93.615110710411415
 20
27.95902242402008
 30
0.0
 70
    32
  0
VERTEX
  5
48F5
  8
240
 10
-93.256810710411429
 20
27.921922424020082
 30
0.0
 70
    32
  0
VERTEX
  5
48F6
  8
240
 10
-92.897310710411446
 20
27.88012242402008
 30
0.0
 70
    32
  0
VERTEX
  5
48F7
  8
240
 10
-92.536610710411423
 20
27.833722424020081
 30
0.0
 70
    32
  0
VERTEX
  5
48F8
  8
240
 10
-92.174910710411424
 20
27.782822424020079
 30
0.0
 70
    32
  0
VERTEX
  5
48F9
  8
240
 10
-91.812210710411435
 20
27.72732242402008
 30
0.0
 70
    32
  0
VERTEX
  5
48FA
  8
240
 10
-91.448510710411426
 20
27.667422424020081
 30
0.0
 70
    32
  0
VERTEX
  5
48FB
  8
240
 10
-91.084010710411434
 20
27.603122424020089
 30
0.0
 70
    32
  0
VERTEX
  5
48FC
  8
240
 10
-90.71861071041144
 20
27.534422424020079
 30
0.0
 70
    32
  0
VERTEX
  5
48FD
  8
240
 10
-90.352510710411437
 20
27.461422424020078
 30
0.0
 70
    32
  0
VERTEX
  5
48FE
  8
240
 10
-89.985710710411439
 20
27.384022424020081
 30
0.0
 70
    32
  0
VERTEX
  5
48FF
  8
240
 10
-89.618310710411436
 20
27.302422424020079
 30
0.0
 70
    32
  0
VERTEX
  5
4900
  8
240
 10
-89.250310710411455
 20
27.21662242402008
 30
0.0
 70
    32
  0
VERTEX
  5
4901
  8
240
 10
-88.881810710411429
 20
27.126622424020081
 30
0.0
 70
    32
  0
VERTEX
  5
4902
  8
240
 10
-88.512810710411415
 20
27.03252242402008
 30
0.0
 70
    32
  0
VERTEX
  5
4903
  8
240
 10
-88.143510710411434
 20
26.934222424020081
 30
0.0
 70
    32
  0
VERTEX
  5
4904
  8
240
 10
-87.773910710411442
 20
26.831922424020082
 30
0.0
 70
    32
  0
VERTEX
  5
4905
  8
240
 10
-87.404010710411441
 20
26.725622424020081
 30
0.0
 70
    32
  0
VERTEX
  5
4906
  8
240
 10
-87.034010710411437
 20
26.615322424020079
 30
0.0
 70
    32
  0
VERTEX
  5
4907
  8
240
 10
-86.663810710411425
 20
26.501122424020078
 30
0.0
 70
    32
  0
VERTEX
  5
4908
  8
240
 10
-86.293510710411439
 20
26.38302242402008
 30
0.0
 70
    32
  0
VERTEX
  5
4909
  8
240
 10
-85.923310710411442
 20
26.26102242402008
 30
0.0
 70
    32
  0
VERTEX
  5
490A
  8
240
 10
-85.553110710411445
 20
26.135222424020078
 30
0.0
 70
    32
  0
VERTEX
  5
490B
  8
240
 10
-85.183010710411423
 20
26.005722424020082
 30
0.0
 70
    32
  0
VERTEX
  5
490C
  8
240
 10
-84.813210710411425
 20
25.87242242402008
 30
0.0
 70
    32
  0
VERTEX
  5
490D
  8
240
 10
-84.443610710411434
 20
25.735422424020079
 30
0.0
 70
    32
  0
VERTEX
  5
490E
  8
240
 10
-84.074310710411424
 20
25.59482242402008
 30
0.0
 70
    32
  0
VERTEX
  5
490F
  8
240
 10
-83.705410710411428
 20
25.450622424020079
 30
0.0
 70
    32
  0
VERTEX
  5
4910
  8
240
 10
-83.336910710411416
 20
25.302822424020079
 30
0.0
 70
    32
  0
VERTEX
  5
4911
  8
240
 10
-82.968910710411436
 20
25.151522424020079
 30
0.0
 70
    32
  0
VERTEX
  5
4912
  8
240
 10
-82.601510710411432
 20
24.996722424020081
 30
0.0
 70
    32
  0
VERTEX
  5
4913
  8
240
 10
-82.234710710411434
 20
24.838422424020081
 30
0.0
 70
    32
  0
VERTEX
  5
4914
  8
240
 10
-81.868710710411435
 20
24.676722424020081
 30
0.0
 70
    32
  0
VERTEX
  5
4915
  8
240
 10
-81.50341071041143
 20
24.511722424020078
 30
0.0
 70
    32
  0
VERTEX
  5
4916
  8
240
 10
-81.138910710411423
 20
24.34342242402008
 30
0.0
 70
    32
  0
VERTEX
  5
4917
  8
240
 10
-80.775210710411429
 20
24.171722424020089
 30
0.0
 70
    32
  0
VERTEX
  5
4918
  8
240
 10
-80.412610710411442
 20
23.996922424020081
 30
0.0
 70
    32
  0
VERTEX
  5
4919
  8
240
 10
-80.050910710411415
 20
23.81882242402008
 30
0.0
 70
    32
  0
VERTEX
  5
491A
  8
240
 10
-79.690310710411424
 20
23.63762242402008
 30
0.0
 70
    32
  0
VERTEX
  5
491B
  8
240
 10
-79.33091071041143
 20
23.45322242402008
 30
0.0
 70
    32
  0
VERTEX
  5
491C
  8
240
 10
-78.972610710411431
 20
23.265822424020079
 30
0.0
 70
    32
  0
VERTEX
  5
491D
  8
240
 10
-78.615610710411431
 20
23.075422424020079
 30
0.0
 70
    32
  0
VERTEX
  5
491E
  8
240
 10
-78.259910710411432
 20
22.881922424020079
 30
0.0
 70
    32
  0
VERTEX
  5
491F
  8
240
 10
-77.905610710411423
 20
22.685522424020078
 30
0.0
 70
    32
  0
VERTEX
  5
4920
  8
240
 10
-77.552810710411435
 20
22.486122424020081
 30
0.0
 70
    32
  0
SEQEND
  5
4921
  8
240
  0
POLYLINE
  5
4922
  8
240
 66
     1
 10
0.0
 20
0.0
 30
0.0
 70
     8
  0
VERTEX
  5
4923
  8
240
 10
-77.552810710411435
 20
-21.68107757597992
 30
0.0
 70
    32
  0
VERTEX
  5
4924
  8
240
 10
-77.905510710411434
 20
-21.885677575979919
 30
0.0
 70
    32
  0
VERTEX
  5
4925
  8
240
 10
-78.25971071041144
 20
-22.087077575979919
 30
0.0
 70
    32
  0
VERTEX
  5
4926
  8
240
 10
-78.615310710411435
 20
-22.285277575979919
 30
0.0
 70
    32
  0
VERTEX
  5
4927
  8
240
 10
-78.972210710411431
 20
-22.480277575979919
 30
0.0
 70
    32
  0
VERTEX
  5
4928
  8
240
 10
-79.330510710411431
 20
-22.67207757597992
 30
0.0
 70
    32
  0
VERTEX
  5
4929
  8
240
 10
-79.690010710411443
 20
-22.860577575979921
 30
0.0
 70
    32
  0
VERTEX
  5
492A
  8
240
 10
-80.050610710411434
 20
-23.045777575979919
 30
0.0
 70
    32
  0
VERTEX
  5
492B
  8
240
 10
-80.412410710411436
 20
-23.227577575979922
 30
0.0
 70
    32
  0
VERTEX
  5
492C
  8
240
 10
-80.775110710411425
 20
-23.406077575979921
 30
0.0
 70
    32
  0
VERTEX
  5
492D
  8
240
 10
-81.138910710411423
 20
-23.581077575979918
 30
0.0
 70
    32
  0
VERTEX
  5
492E
  8
240
 10
-81.503510710411433
 20
-23.75257757597992
 30
0.0
 70
    32
  0
VERTEX
  5
492F
  8
240
 10
-81.86901071041143
 20
-23.920677575979919
 30
0.0
 70
    32
  0
VERTEX
  5
4930
  8
240
 10
-82.23531071041144
 20
-24.08517757597992
 30
0.0
 70
    32
  0
VERTEX
  5
4931
  8
240
 10
-82.60231071041143
 20
-24.246077575979921
 30
0.0
 70
    32
  0
VERTEX
  5
4932
  8
240
 10
-82.96991071041144
 20
-24.403377575979921
 30
0.0
 70
    32
  0
VERTEX
  5
4933
  8
240
 10
-83.338210710411431
 20
-24.556977575979921
 30
0.0
 70
    32
  0
VERTEX
  5
4934
  8
240
 10
-83.706910710411435
 20
-24.70687757597992
 30
0.0
 70
    32
  0
VERTEX
  5
4935
  8
240
 10
-84.076110710411427
 20
-24.85317757597992
 30
0.0
 70
    32
  0
VERTEX
  5
4936
  8
240
 10
-84.445710710411447
 20
-24.995577575979919
 30
0.0
 70
    32
  0
VERTEX
  5
4937
  8
240
 10
-84.815610710411434
 20
-25.134177575979919
 30
0.0
 70
    32
  0
VERTEX
  5
4938
  8
240
 10
-85.185810710411431
 20
-25.268977575979921
 30
0.0
 70
    32
  0
VERTEX
  5
4939
  8
240
 10
-85.556210710411435
 20
-25.399877575979922
 30
0.0
 70
    32
  0
VERTEX
  5
493A
  8
240
 10
-85.926810710411431
 20
-25.52687757597992
 30
0.0
 70
    32
  0
VERTEX
  5
493B
  8
240
 10
-86.297410710411427
 20
-25.649977575979921
 30
0.0
 70
    32
  0
VERTEX
  5
493C
  8
240
 10
-86.668010710411437
 20
-25.768977575979921
 30
0.0
 70
    32
  0
VERTEX
  5
493D
  8
240
 10
-87.038510710411416
 20
-25.88397757597992
 30
0.0
 70
    32
  0
VERTEX
  5
493E
  8
240
 10
-87.409010710411437
 20
-25.99497757597992
 30
0.0
 70
    32
  0
VERTEX
  5
493F
  8
240
 10
-87.779210710411434
 20
-26.10177757597992
 30
0.0
 70
    32
  0
VERTEX
  5
4940
  8
240
 10
-88.149310710411442
 20
-26.204477575979919
 30
0.0
 70
    32
  0
VERTEX
  5
4941
  8
240
 10
-88.518910710411419
 20
-26.30297757597992
 30
0.0
 70
    32
  0
VERTEX
  5
4942
  8
240
 10
-88.888310710411446
 20
-26.397277575979921
 30
0.0
 70
    32
  0
VERTEX
  5
4943
  8
240
 10
-89.257110710411439
 20
-26.48727757597992
 30
0.0
 70
    32
  0
VERTEX
  5
4944
  8
240
 10
-89.625510710411433
 20
-26.57297757597992
 30
0.0
 70
    32
  0
VERTEX
  5
4945
  8
240
 10
-89.993310710411436
 20
-26.654377575979922
 30
0.0
 70
    32
  0
VERTEX
  5
4946
  8
240
 10
-90.360510710411432
 20
-26.73147757597992
 30
0.0
 70
    32
  0
VERTEX
  5
4947
  8
240
 10
-90.727010710411435
 20
-26.804077575979921
 30
0.0
 70
    32
  0
VERTEX
  5
4948
  8
240
 10
-91.092710710411438
 20
-26.872277575979918
 30
0.0
 70
    32
  0
VERTEX
  5
4949
  8
240
 10
-91.457610710411416
 20
-26.935977575979919
 30
0.0
 70
    32
  0
VERTEX
  5
494A
  8
240
 10
-91.821610710411434
 20
-26.99507757597992
 30
0.0
 70
    32
  0
VERTEX
  5
494B
  8
240
 10
-92.184610710411434
 20
-27.049677575979921
 30
0.0
 70
    32
  0
VERTEX
  5
494C
  8
240
 10
-92.546710710411418
 20
-27.099777575979921
 30
0.0
 70
    32
  0
VERTEX
  5
494D
  8
240
 10
-92.907610710411447
 20
-27.145177575979918
 30
0.0
 70
    32
  0
VERTEX
  5
494E
  8
240
 10
-93.26741071041144
 20
-27.185877575979919
 30
0.0
 70
    32
  0
VERTEX
  5
494F
  8
240
 10
-93.626010710411435
 20
-27.221877575979921
 30
0.0
 70
    32
  0
VERTEX
  5
4950
  8
240
 10
-93.98331071041143
 20
-27.253077575979919
 30
0.0
 70
    32
  0
VERTEX
  5
4951
  8
240
 10
-94.339310710411425
 20
-27.279577575979921
 30
0.0
 70
    32
  0
VERTEX
  5
4952
  8
240
 10
-94.693910710411416
 20
-27.30127757597992
 30
0.0
 70
    32
  0
VERTEX
  5
4953
  8
240
 10
-95.047010710411456
 20
-27.31807757597992
 30
0.0
 70
    32
  0
VERTEX
  5
4954
  8
240
 10
-95.398610710411418
 20
-27.329977575979921
 30
0.0
 70
    32
  0
VERTEX
  5
4955
  8
240
 10
-95.748610710411441
 20
-27.336877575979919
 30
0.0
 70
    32
  0
VERTEX
  5
4956
  8
240
 10
-96.096910710411436
 20
-27.338877575979922
 30
0.0
 70
    32
  0
VERTEX
  5
4957
  8
240
 10
-96.443510710411431
 20
-27.335877575979922
 30
0.0
 70
    32
  0
VERTEX
  5
4958
  8
240
 10
-96.788310710411452
 20
-27.327877575979919
 30
0.0
 70
    32
  0
VERTEX
  5
4959
  8
240
 10
-97.131310710411455
 20
-27.314677575979921
 30
0.0
 70
    32
  0
VERTEX
  5
495A
  8
240
 10
-97.472410710411452
 20
-27.296477575979921
 30
0.0
 70
    32
  0
VERTEX
  5
495B
  8
240
 10
-97.811410710411437
 20
-27.272977575979919
 30
0.0
 70
    32
  0
VERTEX
  5
495C
  8
240
 10
-98.148510710411429
 20
-27.244377575979922
 30
0.0
 70
    32
  0
VERTEX
  5
495D
  8
240
 10
-98.483410710411434
 20
-27.210477575979919
 30
0.0
 70
    32
  0
VERTEX
  5
495E
  8
240
 10
-98.816110710411436
 20
-27.171377575979921
 30
0.0
 70
    32
  0
VERTEX
  5
495F
  8
240
 10
-99.146610710411451
 20
-27.126977575979922
 30
0.0
 70
    32
  0
VERTEX
  5
4960
  8
240
 10
-99.474810710411461
 20
-27.07717757597992
 30
0.0
 70
    32
  0
VERTEX
  5
4961
  8
240
 10
-99.800810710411426
 20
-27.021977575979921
 30
0.0
 70
    32
  0
VERTEX
  5
4962
  8
240
 10
-100.12381071041141
 20
-26.96137757597992
 30
0.0
 70
    32
  0
VERTEX
  5
4963
  8
240
 10
-100.4448107104114
 20
-26.895377575979921
 30
0.0
 70
    32
  0
VERTEX
  5
4964
  8
240
 10
-100.76381071041141
 20
-26.823777575979921
 30
0.0
 70
    32
  0
VERTEX
  5
4965
  8
240
 10
-101.0788107104114
 20
-26.74667757597992
 30
0.0
 70
    32
  0
VERTEX
  5
4966
  8
240
 10
-101.39181071041141
 20
-26.66407757597992
 30
0.0
 70
    32
  0
VERTEX
  5
4967
  8
240
 10
-101.7028107104114
 20
-26.57577757597992
 30
0.0
 70
    32
  0
VERTEX
  5
4968
  8
240
 10
-102.0098107104114
 20
-26.481877575979919
 30
0.0
 70
    32
  0
VERTEX
  5
4969
  8
240
 10
-102.31481071041139
 20
-26.38227757597992
 30
0.0
 70
    32
  0
VERTEX
  5
496A
  8
240
 10
-102.6168107104114
 20
-26.27687757597992
 30
0.0
 70
    32
  0
VERTEX
  5
496B
  8
240
 10
-102.9148107104114
 20
-26.16577757597992
 30
0.0
 70
    32
  0
VERTEX
  5
496C
  8
240
 10
-103.21081071041139
 20
-26.048977575979919
 30
0.0
 70
    32
  0
VERTEX
  5
496D
  8
240
 10
-103.5028107104114
 20
-25.926177575979921
 30
0.0
 70
    32
  0
VERTEX
  5
496E
  8
240
 10
-103.7928107104114
 20
-25.797577575979918
 30
0.0
 70
    32
  0
VERTEX
  5
496F
  8
240
 10
-104.0788107104114
 20
-25.663077575979919
 30
0.0
 70
    32
  0
VERTEX
  5
4970
  8
240
 10
-104.3608107104114
 20
-25.52267757597992
 30
0.0
 70
    32
  0
VERTEX
  5
4971
  8
240
 10
-104.6408107104114
 20
-25.37617757597992
 30
0.0
 70
    32
  0
VERTEX
  5
4972
  8
240
 10
-104.91581071041141
 20
-25.22377757597992
 30
0.0
 70
    32
  0
VERTEX
  5
4973
  8
240
 10
-105.1888107104114
 20
-25.06517757597992
 30
0.0
 70
    32
  0
VERTEX
  5
4974
  8
240
 10
-105.4568107104114
 20
-24.90067757597992
 30
0.0
 70
    32
  0
VERTEX
  5
4975
  8
240
 10
-105.72281071041139
 20
-24.730077575979919
 30
0.0
 70
    32
  0
VERTEX
  5
4976
  8
240
 10
-105.9838107104114
 20
-24.553677575979918
 30
0.0
 70
    32
  0
VERTEX
  5
4977
  8
240
 10
-106.2428107104114
 20
-24.37137757597992
 30
0.0
 70
    32
  0
VERTEX
  5
4978
  8
240
 10
-106.4968107104114
 20
-24.183377575979922
 30
0.0
 70
    32
  0
VERTEX
  5
4979
  8
240
 10
-106.7478107104114
 20
-23.989777575979922
 30
0.0
 70
    32
  0
VERTEX
  5
497A
  8
240
 10
-106.9958107104114
 20
-23.790477575979921
 30
0.0
 70
    32
  0
VERTEX
  5
497B
  8
240
 10
-107.2398107104114
 20
-23.585777575979922
 30
0.0
 70
    32
  0
VERTEX
  5
497C
  8
240
 10
-107.4798107104114
 20
-23.375477575979922
 30
0.0
 70
    32
  0
VERTEX
  5
497D
  8
240
 10
-107.71681071041139
 20
-23.159977575979919
 30
0.0
 70
    32
  0
VERTEX
  5
497E
  8
240
 10
-107.9508107104114
 20
-22.939077575979919
 30
0.0
 70
    32
  0
VERTEX
  5
497F
  8
240
 10
-108.18081071041139
 20
-22.71297757597992
 30
0.0
 70
    32
  0
VERTEX
  5
4980
  8
240
 10
-108.40681071041141
 20
-22.481677575979919
 30
0.0
 70
    32
  0
VERTEX
  5
4981
  8
240
 10
-108.62981071041141
 20
-22.245377575979919
 30
0.0
 70
    32
  0
VERTEX
  5
4982
  8
240
 10
-108.8498107104114
 20
-22.00407757597992
 30
0.0
 70
    32
  0
VERTEX
  5
4983
  8
240
 10
-109.0658107104114
 20
-21.757877575979919
 30
0.0
 70
    32
  0
VERTEX
  5
4984
  8
240
 10
-109.2778107104114
 20
-21.506777575979921
 30
0.0
 70
    32
  0
VERTEX
  5
4985
  8
240
 10
-109.4868107104114
 20
-21.25097757597992
 30
0.0
 70
    32
  0
VERTEX
  5
4986
  8
240
 10
-109.69281071041139
 20
-20.99037757597992
 30
0.0
 70
    32
  0
VERTEX
  5
4987
  8
240
 10
-109.89481071041141
 20
-20.72527757597992
 30
0.0
 70
    32
  0
VERTEX
  5
4988
  8
240
 10
-110.0938107104114
 20
-20.45557757597992
 30
0.0
 70
    32
  0
VERTEX
  5
4989
  8
240
 10
-110.2888107104114
 20
-20.181377575979919
 30
0.0
 70
    32
  0
VERTEX
  5
498A
  8
240
 10
-110.4798107104114
 20
-19.902777575979918
 30
0.0
 70
    32
  0
VERTEX
  5
498B
  8
240
 10
-110.66881071041141
 20
-19.61987757597992
 30
0.0
 70
    32
  0
VERTEX
  5
498C
  8
240
 10
-110.8528107104114
 20
-19.332777575979911
 30
0.0
 70
    32
  0
VERTEX
  5
498D
  8
240
 10
-111.03481071041141
 20
-19.041477575979918
 30
0.0
 70
    32
  0
VERTEX
  5
498E
  8
240
 10
-111.2118107104114
 20
-18.746077575979921
 30
0.0
 70
    32
  0
VERTEX
  5
498F
  8
240
 10
-111.3868107104114
 20
-18.446577575979919
 30
0.0
 70
    32
  0
VERTEX
  5
4990
  8
240
 10
-111.5578107104114
 20
-18.143277575979919
 30
0.0
 70
    32
  0
VERTEX
  5
4991
  8
240
 10
-111.7248107104114
 20
-17.835977575979911
 30
0.0
 70
    32
  0
VERTEX
  5
4992
  8
240
 10
-111.88881071041141
 20
-17.524977575979921
 30
0.0
 70
    32
  0
VERTEX
  5
4993
  8
240
 10
-112.04981071041141
 20
-17.21017757597992
 30
0.0
 70
    32
  0
VERTEX
  5
4994
  8
240
 10
-112.2068107104114
 20
-16.891777575979919
 30
0.0
 70
    32
  0
VERTEX
  5
4995
  8
240
 10
-112.3608107104114
 20
-16.56977757597992
 30
0.0
 70
    32
  0
VERTEX
  5
4996
  8
240
 10
-112.51081071041141
 20
-16.244277575979918
 30
0.0
 70
    32
  0
VERTEX
  5
4997
  8
240
 10
-112.6578107104114
 20
-15.915377575979919
 30
0.0
 70
    32
  0
VERTEX
  5
4998
  8
240
 10
-112.8018107104114
 20
-15.583177575979921
 30
0.0
 70
    32
  0
VERTEX
  5
4999
  8
240
 10
-112.9418107104114
 20
-15.247677575979919
 30
0.0
 70
    32
  0
VERTEX
  5
499A
  8
240
 10
-113.0788107104114
 20
-14.90887757597992
 30
0.0
 70
    32
  0
VERTEX
  5
499B
  8
240
 10
-113.2118107104114
 20
-14.567077575979919
 30
0.0
 70
    32
  0
VERTEX
  5
499C
  8
240
 10
-113.34181071041139
 20
-14.22217757597992
 30
0.0
 70
    32
  0
VERTEX
  5
499D
  8
240
 10
-113.4688107104114
 20
-13.874277575979921
 30
0.0
 70
    32
  0
VERTEX
  5
499E
  8
240
 10
-113.59181071041139
 20
-13.523577575979919
 30
0.0
 70
    32
  0
VERTEX
  5
499F
  8
240
 10
-113.7118107104114
 20
-13.169977575979919
 30
0.0
 70
    32
  0
VERTEX
  5
49A0
  8
240
 10
-113.8278107104114
 20
-12.81357757597992
 30
0.0
 70
    32
  0
VERTEX
  5
49A1
  8
240
 10
-113.9408107104114
 20
-12.45457757597992
 30
0.0
 70
    32
  0
VERTEX
  5
49A2
  8
240
 10
-114.0508107104114
 20
-12.092977575979919
 30
0.0
 70
    32
  0
VERTEX
  5
49A3
  8
240
 10
-114.15681071041141
 20
-11.72887757597992
 30
0.0
 70
    32
  0
VERTEX
  5
49A4
  8
240
 10
-114.2598107104114
 20
-11.36227757597991
 30
0.0
 70
    32
  0
VERTEX
  5
49A5
  8
240
 10
-114.3598107104114
 20
-10.99337757597991
 30
0.0
 70
    32
  0
VERTEX
  5
49A6
  8
240
 10
-114.4558107104114
 20
-10.622077575979921
 30
0.0
 70
    32
  0
VERTEX
  5
49A7
  8
240
 10
-114.5488107104114
 20
-10.248577575979921
 30
0.0
 70
    32
  0
VERTEX
  5
49A8
  8
240
 10
-114.6378107104114
 20
-9.8729775759799168
 30
0.0
 70
    32
  0
VERTEX
  5
49A9
  8
240
 10
-114.7248107104114
 20
-9.4952875759799191
 30
0.0
 70
    32
  0
VERTEX
  5
49AA
  8
240
 10
-114.8068107104114
 20
-9.1155775759799198
 30
0.0
 70
    32
  0
VERTEX
  5
49AB
  8
240
 10
-114.8868107104114
 20
-8.7339575759799182
 30
0.0
 70
    32
  0
VERTEX
  5
49AC
  8
240
 10
-114.9628107104114
 20
-8.3504775759799195
 30
0.0
 70
    32
  0
VERTEX
  5
49AD
  8
240
 10
-115.0358107104114
 20
-7.9652275759799167
 30
0.0
 70
    32
  0
VERTEX
  5
49AE
  8
240
 10
-115.1048107104114
 20
-7.5782775759799179
 30
0.0
 70
    32
  0
VERTEX
  5
49AF
  8
240
 10
-115.17181071041141
 20
-7.1896975759799169
 30
0.0
 70
    32
  0
VERTEX
  5
49B0
  8
240
 10
-115.2338107104114
 20
-6.7995675759799168
 30
0.0
 70
    32
  0
VERTEX
  5
49B1
  8
240
 10
-115.29381071041141
 20
-6.4079675759799182
 30
0.0
 70
    32
  0
VERTEX
  5
49B2
  8
240
 10
-115.3498107104114
 20
-6.0149575759799179
 30
0.0
 70
    32
  0
VERTEX
  5
49B3
  8
240
 10
-115.4028107104114
 20
-5.6206275759799178
 30
0.0
 70
    32
  0
VERTEX
  5
49B4
  8
240
 10
-115.4528107104114
 20
-5.2250475759799171
 30
0.0
 70
    32
  0
VERTEX
  5
49B5
  8
240
 10
-115.49881071041141
 20
-4.8282875759799184
 30
0.0
 70
    32
  0
VERTEX
  5
49B6
  8
240
 10
-115.5418107104114
 20
-4.4304275759799179
 30
0.0
 70
    32
  0
VERTEX
  5
49B7
  8
240
 10
-115.5818107104114
 20
-4.0315475759799169
 30
0.0
 70
    32
  0
VERTEX
  5
49B8
  8
240
 10
-115.6178107104114
 20
-3.631707575979918
 30
0.0
 70
    32
  0
VERTEX
  5
49B9
  8
240
 10
-115.6518107104114
 20
-3.2309975759799179
 30
0.0
 70
    32
  0
VERTEX
  5
49BA
  8
240
 10
-115.68081071041139
 20
-2.8294775759799178
 30
0.0
 70
    32
  0
VERTEX
  5
49BB
  8
240
 10
-115.70781071041139
 20
-2.4272375759799178
 30
0.0
 70
    32
  0
VERTEX
  5
49BC
  8
240
 10
-115.7308107104114
 20
-2.024337575979918
 30
0.0
 70
    32
  0
VERTEX
  5
49BD
  8
240
 10
-115.7508107104114
 20
-1.620867575979918
 30
0.0
 70
    32
  0
VERTEX
  5
49BE
  8
240
 10
-115.7678107104114
 20
-1.2168975759799181
 30
0.0
 70
    32
  0
VERTEX
  5
49BF
  8
240
 10
-115.78181071041141
 20
-0.8124975759799185
 30
0.0
 70
    32
  0
VERTEX
  5
49C0
  8
240
 10
-115.7918107104114
 20
-0.4077425759799186
 30
0.0
 70
    32
  0
VERTEX
  5
49C1
  8
240
 10
-115.7988107104114
 20
-0.0027115759799185
 30
0.0
 70
    32
  0
VERTEX
  5
49C2
  8
240
 10
-115.80281071041141
 20
0.4025224240165536
 30
0.0
 70
    32
  0
SEQEND
  5
49C3
  8
240
  0
VIEWPORT
  5
22
 67
     1
  8
0
 10
261.51769911504419
 20
148.5
 30
0.0
 40
523.0353982300885
 41
297.0
 68
     1
 69
     1
1001
ACAD
1000
MVIEW
1002
{
1070
    16
1010
0.0
1020
0.0
1030
0.0
1010
0.0
1020
0.0
1030
1.0
1040
0.0
1040
297.0
1040
261.51769911504419
1040
148.5
1040
50.0
1040
0.0
1040
0.0
1070
     0
1070
   100
1070
     1
1070
     1
1070
     0
1070
     0
1070
     0
1070
     0
1040
0.0
1040
0.0
1040
0.0
1040
1.0
1040
1.0
1040
10.0
1040
10.0
1070
     0
1002
{
1002
}
1002
}
1001
GENIUS_GENODEF_13
1002
{
1000
HIER
1070
     0
1002
}
1002
{
1000
MANEDIT
1070
     0
1002
}
1002
{
1000
NOSEL
1070
     0
1002
}
1002
{
1000
BEHIND
1070
     0
1002
}
1002
{
1000
OTHER
1070
     0
1002
}
1002
{
1000
REACTOR
1002
}
1001
GENIUS_GENOBJ-N-SDF_13
1002
{
1000
OWNER
1000
GEN
1002
}
1001
GENIUS_GENSCREG_15
1000
PF
1040
1.0
1000
DF
1040
1.0
1000
MIN
1011
0.0
1021
0.0
1031
0.0
1021
0.0
1031
0.0
1000
MAX
1011
523.0353982300885
1021
0.0
1031
0.0
1021
297.0
1031
0.0
1000
FLAGS
1070
     4
  0
ENDSEC
  0
EOF
