  0
SECTION
  2
HEADER
  9
$ACADVER
  1
AC1009
  9
$INSBASE
 10
0.0
 20
0.0
 30
0.0
  9
$EXTMIN
 10
-48.999999999999282
 20
-40.0
 30
0.0
  9
$EXTMAX
 10
141.0
 20
75.000000000000014
 30
0.0
  9
$LIMMIN
 10
0.0
 20
0.0
  9
$LIMMAX
 10
297.0
 20
210.0
  9
$ORTHOMODE
 70
     0
  9
$REGENMODE
 70
     1
  9
$FILLMODE
 70
     1
  9
$QTEXTMODE
 70
     0
  9
$MIRRTEXT
 70
     1
  9
$DRAGMODE
 70
     2
  9
$LTSCALE
 40
10.0
  9
$OSMODE
 70
    45
  9
$ATTMODE
 70
     1
  9
$TEXTSIZE
 40
3.0
  9
$TRACEWID
 40
1.0
  9
$TEXTSTYLE
  7
YOKO
  9
$CLAYER
  8
240
  9
$CELTYPE
  6
BYLAYER
  9
$CECOLOR
 62
   256
  9
$DIMSCALE
 40
1.0
  9
$DIMASZ
 40
2.2299999999999991
  9
$DIMEXO
 40
0.5
  9
$DIMDLI
 40
7.0
  9
$DIMRND
 40
0.0
  9
$DIMDLE
 40
0.0
  9
$DIMEXE
 40
1.0
  9
$DIMTP
 40
0.0
  9
$DIMTM
 40
0.01
  9
$DIMTXT
 40
2.7999999999999989
  9
$DIMCEN
 40
0.0
  9
$DIMTSZ
 40
0.0
  9
$DIMTOL
 70
     0
  9
$DIMLIM
 70
     0
  9
$DIMTIH
 70
     0
  9
$DIMTOH
 70
     0
  9
$DIMSE1
 70
     0
  9
$DIMSE2
 70
     0
  9
$DIMTAD
 70
     3
  9
$DIMZIN
 70
     9
  9
$DIMBLK
  1
OPEN
  9
$DIMASO
 70
     1
  9
$DIMSHO
 70
     1
  9
$DIMPOST
  1

  9
$DIMAPOST
  1

  9
$DIMALT
 70
     0
  9
$DIMALTD
 70
     2
  9
$DIMALTF
 40
25.399999999999999
  9
$DIMLFAC
 40
1.0
  9
$DIMTOFL
 70
     1
  9
$DIMTVP
 40
0.0
  9
$DIMTIX
 70
     1
  9
$DIMSOXD
 70
     0
  9
$DIMSAH
 70
     0
  9
$DIMBLK1
  1

  9
$DIMBLK2
  1

  9
$DIMSTYLE
  2
BIGT
  9
$DIMCLRD
 70
   256
  9
$DIMCLRE
 70
   256
  9
$DIMCLRT
 70
    40
  9
$DIMTFAC
 40
1.0
  9
$DIMGAP
 40
1.0
  9
$LUNITS
 70
     2
  9
$LUPREC
 70
     6
  9
$SKETCHINC
 40
1.0
  9
$FILLETRAD
 40
2.0
  9
$AUNITS
 70
     0
  9
$AUPREC
 70
     6
  9
$MENU
  1
.
  9
$ELEVATION
 40
0.0
  9
$PELEVATION
 40
0.0
  9
$THICKNESS
 40
0.0
  9
$LIMCHECK
 70
     0
  9
$BLIPMODE
 70
     0
  9
$CHAMFERA
 40
0.2
  9
$CHAMFERB
 40
0.2
  9
$SKPOLY
 70
     0
  9
$TDCREATE
 40
2457865.8002035422
  9
$TDUPDATE
 40
2457873.4468324999
  9
$TDINDWG
 40
0.0065797338
  9
$TDUSRTIMER
 40
0.0065797106
  9
$USRTIMER
 70
     1
  9
$ANGBASE
 50
0.0
  9
$ANGDIR
 70
     0
  9
$PDMODE
 70
     1
  9
$PDSIZE
 40
0.0
  9
$PLINEWID
 40
0.0
  9
$COORDS
 70
     1
  9
$SPLFRAME
 70
     0
  9
$SPLINETYPE
 70
     6
  9
$SPLINESEGS
 70
     4
  9
$ATTDIA
 70
     1
  9
$ATTREQ
 70
     1
  9
$HANDLING
 70
     1
  9
$HANDSEED
  5
456D
  9
$SURFTAB1
 70
     6
  9
$SURFTAB2
 70
     6
  9
$SURFTYPE
 70
     6
  9
$SURFU
 70
     6
  9
$SURFV
 70
     6
  9
$UCSNAME
  2

  9
$UCSORG
 10
0.0
 20
0.0
 30
0.0
  9
$UCSXDIR
 10
1.0
 20
0.0
 30
0.0
  9
$UCSYDIR
 10
0.0
 20
1.0
 30
0.0
  9
$PUCSNAME
  2

  9
$PUCSORG
 10
0.0
 20
0.0
 30
0.0
  9
$PUCSXDIR
 10
1.0
 20
0.0
 30
0.0
  9
$PUCSYDIR
 10
0.0
 20
1.0
 30
0.0
  9
$USERI1
 70
     1
  9
$USERI2
 70
     0
  9
$USERI3
 70
     0
  9
$USERI4
 70
     0
  9
$USERI5
 70
     0
  9
$USERR1
 40
0.0
  9
$USERR2
 40
0.0
  9
$USERR3
 40
0.0
  9
$USERR4
 40
0.0
  9
$USERR5
 40
0.0
  9
$WORLDVIEW
 70
     1
  9
$SHADEDGE
 70
     3
  9
$SHADEDIF
 70
    70
  9
$TILEMODE
 70
     1
  9
$MAXACTVP
 70
    16
  9
$PLIMCHECK
 70
     0
  9
$PEXTMIN
 10
1.0000000000000000E+020
 20
1.0000000000000000E+020
 30
1.0000000000000000E+020
  9
$PEXTMAX
 10
-1.0000000000000000E+020
 20
-1.0000000000000000E+020
 30
-1.0000000000000000E+020
  9
$PLIMMIN
 10
0.0
 20
0.0
  9
$PLIMMAX
 10
420.0
 20
297.0
  9
$UNITMODE
 70
     0
  9
$VISRETAIN
 70
     1
  9
$PLINEGEN
 70
     0
  9
$PSLTSCALE
 70
     1
  0
ENDSEC
  0
SECTION
  2
TABLES
  0
TABLE
  2
VPORT
 70
     1
  0
VPORT
  2
*ACTIVE
 70
     0
 10
0.0
 20
0.0
 11
1.0
 21
1.0
 12
62.910700085229621
 22
21.24329282454444
 13
0.0
 23
0.0
 14
7.0
 24
7.0
 15
7.0
 25
7.0
 16
0.0
 26
0.0
 36
1.0
 17
0.0
 27
0.0
 37
0.0
 40
202.1203019356501
 41
1.5102040816326521
 42
50.0
 43
0.0
 44
0.0
 50
0.0
 51
0.0
 71
     0
 72
  2000
 73
     1
 74
     0
 75
     0
 76
     1
 77
     0
 78
     0
  0
ENDTAB
  0
TABLE
  2
LTYPE
 70
    21
  0
LTYPE
  2
CONTINUOUS
 70
     0
  3
Solid line
 72
    65
 73
     0
 40
0.0
  0
LTYPE
  2
CENTER2
 70
     0
  3
___ _ ___ _ ___ _ ___ _ ___ _ ___ _ ___ _ ___ _
 72
    65
 73
     4
 40
1.125
 49
0.75
 49
-0.125
 49
0.125
 49
-0.125
  0
LTYPE
  2
HIDDEN2
 70
     0
  3
_ _ _ _ _ _ _ _ _ _ _ _ _ _ _ _ _ _ _ _ _ _ _ _
 72
    65
 73
     2
 40
0.1875
 49
0.125
 49
-0.0625
  0
LTYPE
  2
AM_ISO02W050
 70
     0
  3
__ __ __ __ __ __ __ __ __ __ __ __ __ __ __
 72
    65
 73
     2
 40
7.5
 49
6.0
 49
-1.5
  0
LTYPE
  2
AMCONSTR
 70
     0
  3
_______________________
 72
    65
 73
     2
 40
9999.0
 49
9999.0
 49
0.0
  0
LTYPE
  2
ACISOWELD
 70
     0
  3
_ _ _ _ _
 72
    65
 73
     2
 40
2.0
 49
2.0
 49
-1.0
  0
LTYPE
  2
ACISOTGB
 70
     0
  3
__ . . __ . .
 72
    65
 73
     6
 40
9.0
 49
4.0
 49
-1.0
 49
1.0
 49
-1.0
 49
1.0
 49
-1.0
  0
LTYPE
  2
ACISOTGL
 70
     0
  3
_ _ _ _ _
 72
    65
 73
     2
 40
3.0
 49
2.0
 49
-1.0
  0
LTYPE
  2
AM_ISO08W050
 70
     0
  3
____ . ____ . ____ . ____ . ____ . ____ . ____
 72
    65
 73
     4
 40
18.0
 49
12.0
 49
-1.5
 49
3.0
 49
-1.5
  0
LTYPE
  2
AM_ISO09W050
 70
     0
  3
_____ . . _____ . . _____ . . ____ .. ____
 72
    65
 73
     6
 40
22.5
 49
12.0
 49
-1.5
 49
3.0
 49
-1.5
 49
3.0
 49
-1.5
  0
LTYPE
  2
AM_ISO08W050X2
 70
     0
  3
__ . __ . __ . __ . __ . __
 72
    65
 73
     4
 40
9.0
 49
6.0
 49
-0.75
 49
1.5
 49
-0.75
  0
LTYPE
  2
AM_ISO02W050X2
 70
     0
  3
 _ _ _ _ _ _ _ _ _ _ _ _
 72
    65
 73
     2
 40
3.75
 49
3.0
 49
-0.75
  0
LTYPE
  2
AMZIGZAG
 70
     0
  3
/\/-/\/-/\/-/\/-/\/-/\/
 72
    65
 73
     2
 40
11.0001
 49
0.0001
 49
-11.0
  0
ENDTAB
  0
TABLE
  2
LAYER
 70
     9
  0
LAYER
  2
0
 70
     0
 62
     7
  6
CONTINUOUS
  0
LAYER
  2
DEFPOINTS
 70
     0
 62
     7
  6
CONTINUOUS
  0
LAYER
  2
245
 70
     0
 62
     2
  6
CENTER2
  0
LAYER
  2
240
 70
     0
 62
     4
  6
CONTINUOUS
  0
LAYER
  2
241
 70
     0
 62
   211
  6
CONTINUOUS
  0
LAYER
  2
242
 70
     0
 62
     3
  6
CONTINUOUS
  0
LAYER
  2
243
 70
     0
 62
   211
  6
HIDDEN2
  0
LAYER
  2
247
 70
     0
 62
    60
  6
CONTINUOUS
  0
LAYER
  2
250
 70
     0
 62
     3
  6
CONTINUOUS
  0
ENDTAB
  0
TABLE
  2
STYLE
 70
     8
  0
STYLE
  2
STANDARD
 70
     0
 40
0.0
 41
1.0
 50
0.0
 71
     0
 42
3.0
  3
romans.shx
  4
extfont.shx
  0
STYLE
  2
ACISOGDT
 70
     0
 40
0.0
 41
1.0
 50
0.0
 71
     0
 42
3.0
  3
amgdt.shx
  4
extfont.shx
  0
STYLE
  2
YOKO
 70
     0
 40
0.0
 41
1.0
 50
0.0
 71
     0
 42
3.0
  3
romans.shx
  4
extfont.shx
  0
STYLE
  2

 70
     1
 40
0.0
 41
1.0
 50
0.0
 71
     0
 42
3.0
  3
genltshp.shx
  4

  0
ENDTAB
  0
TABLE
  2
VIEW
 70
     0
  0
ENDTAB
  0
TABLE
  2
UCS
 70
     0
  0
ENDTAB
  0
TABLE
  2
APPID
 70
    36
  0
APPID
  2
ACAD
 70
     0
  0
APPID
  2
GLOBAL
 70
     0
  0
APPID
  2
DETAIL
 70
     0
  0
APPID
  2
GRPNAME
 70
     0
  0
APPID
  2
GPARA
 70
     0
  0
APPID
  2
MCAD_NO_VIS
 70
     0
  0
APPID
  2
ACAD_TEMP_GRAPHIC
 70
     0
  0
APPID
  2
ACATTRIBSERVICES
 70
     0
  0
APPID
  2
GENIUS_GENSCREG_15
 70
     0
  0
APPID
  2
GENIUS_GENODEF_13
 70
     0
  0
APPID
  2
GENIUS_GENOBJ-N-SDF_13
 70
     0
  0
APPID
  2
GENIUS_GENREC_14
 70
     0
  0
APPID
  2
GENIUS_GENOBJ-N-REC_13
 70
     0
  0
APPID
  2
GENIUS_GENDIMSH_14
 70
     0
  0
APPID
  2
GENIUS_GENOBJ-N-DIM_13
 70
     0
  0
APPID
  2
GENIUS_GENDIM_13
 70
     0
  0
APPID
  2
GENIUS_GENDTOL_13
 70
     0
  0
APPID
  2
GENIUS_GENOLIS_13
 70
     0
  0
APPID
  2
GENIUS_GENOENT_13
 70
     0
  0
APPID
  2
GENIUS_GENOBJ-F-FEM_13
 70
     0
  0
APPID
  2
GENIUS_GENOREF_13
 70
     0
  0
APPID
  2
GENIUS_GEFFEM_13
 70
     0
  0
APPID
  2
GENIUS_GEFFEMP_13
 70
     0
  0
APPID
  2
AD_DRAW
 70
     0
  0
APPID
  2
DESIGNERASSEMBLIES
 70
     0
  0
APPID
  2
ACADM_DIM_EDIT
 70
     0
  0
APPID
  2
AMDT_DM_ADJ
 70
     0
  0
APPID
  2
ITEMNAME
 70
     0
  0
APPID
  2
GENIUS_GENOBJ-N-FIL_13
 70
     0
  0
APPID
  2
GENIUS_GENFIL_13
 70
     0
  0
APPID
  2
GENIUS_GENOBJ-N-CHA_13
 70
     0
  0
APPID
  2
ACAECLAYERSTANDARD
 70
     0
  0
APPID
  2
ACAD_NAV_VCDISPLAY
 70
     0
  0
APPID
  2
ACAD_DSTYLE_DIMJAG
 70
     0
  0
APPID
  2
ACAD_DSTYLE_DIMBREAK
 70
     0
  0
APPID
  2
ACAD_MLEADERVER
 70
     0
  0
ENDTAB
  0
TABLE
  2
DIMSTYLE
 70
    29
  0
DIMSTYLE
  2
BIGT
 70
     0
  3

  4

  5
OPEN
  6

  7

 40
1.0
 41
2.2299999999999991
 42
0.5
 43
7.0
 44
1.0
 45
0.0
 46
0.0
 47
0.0
 48
0.01
140
2.7999999999999989
141
0.0
142
0.0
143
25.399999999999999
144
1.0
145
0.0
146
1.0
147
1.0
 71
     0
 72
     0
 73
     0
 74
     0
 75
     0
 76
     0
 77
     3
 78
     9
170
     0
171
     2
172
     1
173
     0
174
     1
175
     0
176
   256
177
   256
178
    40
  0
DIMSTYLE
  2
AM_ISO
 70
     0
  3

  4
"
  5

  6

  7

 40
1.0
 41
2.5
 42
1.0
 43
10.0
 44
1.0
 45
0.0
 46
0.0
 47
0.1
 48
0.1
140
3.5
141
0.0
142
0.0
143
0.0393701
144
1.0
145
0.0
146
0.71
147
1.5
 71
     0
 72
     0
 73
     0
 74
     0
 75
     0
 76
     0
 77
     1
 78
     8
170
     0
171
     2
172
     1
173
     0
174
     0
175
     0
176
   256
177
   256
178
     2
  0
DIMSTYLE
  2
AM_ISO$3
 70
     0
  3

  4
"
  5

  6

  7

 40
1.0
 41
2.5
 42
1.0
 43
10.0
 44
1.0
 45
0.0
 46
0.0
 47
0.1
 48
0.1
140
3.5
141
0.0
142
0.0
143
0.0393701
144
1.0
145
0.0
146
0.71
147
1.5
 71
     0
 72
     0
 73
     0
 74
     1
 75
     0
 76
     0
 77
     1
 78
     8
170
     0
171
     2
172
     0
173
     0
174
     0
175
     0
176
   256
177
   256
178
     2
  0
DIMSTYLE
  2
AM_ISO$4
 70
     0
  3

  4
"
  5

  6

  7

 40
1.0
 41
2.5
 42
1.0
 43
10.0
 44
1.0
 45
0.0
 46
0.0
 47
0.1
 48
0.1
140
3.5
141
0.0
142
0.0
143
0.0393701
144
1.0
145
0.0
146
0.71
147
1.5
 71
     0
 72
     0
 73
     0
 74
     1
 75
     0
 76
     0
 77
     1
 78
     8
170
     0
171
     2
172
     0
173
     0
174
     0
175
     0
176
   256
177
   256
178
     2
  0
DIMSTYLE
  2
AM_ISO$6
 70
     0
  3

  4
"
  5

  6

  7

 40
1.0
 41
2.5
 42
1.0
 43
10.0
 44
1.0
 45
0.0
 46
0.0
 47
0.1
 48
0.1
140
3.5
141
0.0
142
0.0
143
0.0393701
144
1.0
145
0.0
146
0.71
147
1.5
 71
     0
 72
     0
 73
     0
 74
     0
 75
     0
 76
     0
 77
     0
 78
     8
170
     0
171
     2
172
     1
173
     0
174
     0
175
     0
176
   256
177
   256
178
     2
  0
DIMSTYLE
  2
AM_ISO$7
 70
     0
  3

  4
"
  5

  6

  7

 40
1.0
 41
2.5
 42
1.0
 43
10.0
 44
1.0
 45
0.0
 46
0.0
 47
0.1
 48
0.1
140
5.0
141
0.0
142
0.0
143
0.0393701
144
1.0
145
0.0
146
0.71
147
1.5
 71
     0
 72
     0
 73
     0
 74
     0
 75
     0
 76
     0
 77
     1
 78
     8
170
     0
171
     2
172
     1
173
     0
174
     0
175
     0
176
   256
177
   256
178
     2
  0
DIMSTYLE
  2
AM_ISO$SF
 70
     0
  3

  4
"
  5

  6

  7

 40
1.0
 41
2.5
 42
1.0
 43
10.0
 44
1.0
 45
0.0
 46
0.0
 47
0.1
 48
0.1
140
3.5
141
0.0
142
0.0
143
0.0393701
144
1.0
145
0.0
146
0.71
147
1.5
 71
     0
 72
     0
 73
     0
 74
     0
 75
     1
 76
     1
 77
     1
 78
     8
170
     0
171
     2
172
     1
173
     0
174
     0
175
     0
176
   256
177
   256
178
     2
  0
DIMSTYLE
  2
AM_ISO$SH
 70
     0
  3

  4
"
  5

  6
GENAXEH
  7

 40
1.0
 41
2.5
 42
1.0
 43
10.0
 44
1.0
 45
0.0
 46
0.0
 47
0.1
 48
0.1
140
3.5
141
0.0
142
0.0
143
0.0393701
144
2.0
145
0.0
146
0.71
147
1.5
 71
     0
 72
     0
 73
     0
 74
     0
 75
     1
 76
     1
 77
     1
 78
     8
170
     0
171
     2
172
     1
173
     1
174
     0
175
     0
176
   256
177
   256
178
     2
  0
ENDTAB
  0
ENDSEC
  0
SECTION
  2
BLOCKS
  0
BLOCK
  8
0
  2
$MODEL_SPACE
 70
     0
 10
0.0
 20
0.0
 30
0.0
  3
$MODEL_SPACE
  1

  0
ENDBLK
  5
1C
  8
0
  0
BLOCK
 67
     1
  8
0
  2
$PAPER_SPACE
 70
     0
 10
0.0
 20
0.0
 30
0.0
  3
$PAPER_SPACE
  1

  0
ENDBLK
  5
19
 67
     1
  8
0
  0
BLOCK
  8
0
  2
_OPEN
 70
     0
 10
0.0
 20
0.0
 30
0.0
  3
_OPEN
  1

  0
LINE
  5
3E1A
  8
0
  6
BYBLOCK
 62
     0
 10
-1.0
 20
0.1666666666666666
 30
0.0
 11
0.0
 21
0.0
 31
0.0
  0
LINE
  5
3E1B
  8
0
  6
BYBLOCK
 62
     0
 10
-1.0
 20
-0.1666666666666666
 30
0.0
 11
0.0
 21
0.0
 31
0.0
  0
LINE
  5
3E1C
  8
0
  6
BYBLOCK
 62
     0
 10
0.0
 20
0.0
 30
0.0
 11
-1.0
 21
0.0
 31
0.0
  0
ENDBLK
  5
3E1D
  8
0
  0
BLOCK
  8
0
  2
GENAXEH
 70
     0
 10
0.0
 20
0.0
 30
0.0
  3
GENAXEH
  1

  0
LINE
  5
3E45
  8
0
 10
-1.0
 20
0.0
 30
0.0
 11
1.0
 21
0.0
 31
0.0
  0
ENDBLK
  5
3E46
  8
0
  0
ENDSEC
  0
SECTION
  2
ENTITIES
  0
LINE
  5
429E
  8
245
  6
CENTER2
 10
-48.999999999999282
 20
0.0
 30
0.0
 11
122.6005544976917
 21
0.0
 31
0.0
  0
LINE
  5
429F
  8
243
  6
HIDDEN2
 10
-39.999999999999289
 20
-4.4179999999999993
 30
0.0
 11
-39.999999999999289
 21
4.4179999999999993
 31
0.0
  0
LINE
  5
42A0
  8
243
  6
HIDDEN2
 10
-47.999999999999282
 20
-4.4179999999999993
 30
0.0
 11
-39.999999999999289
 21
-4.4179999999999993
 31
0.0
  0
LINE
  5
42A1
  8
243
  6
HIDDEN2
 10
-47.999999999999282
 20
4.4179999999999993
 30
0.0
 11
-39.999999999999289
 21
4.4179999999999993
 31
0.0
  0
LINE
  5
42A2
  8
240
  6
CONTINUOUS
 10
0.0000000000007105
 20
-40.0
 30
0.0
 11
0.0000000000007105
 21
-27.575022188355408
 31
0.0
  0
LINE
  5
42A3
  8
240
  6
CONTINUOUS
 10
0.0000000000007105
 20
40.0
 30
0.0
 11
0.0000000000007105
 21
27.57502218835522
 31
0.0
  0
LINE
  5
42A4
  8
240
  6
CONTINUOUS
 10
30.000000000000711
 20
40.0
 30
0.0
 11
30.000000000000711
 21
36.041451882492353
 31
0.0
  0
LINE
  5
42A5
  8
247
  6
CONTINUOUS
 10
6.0000000000007079
 20
-20.250000000069999
 30
0.0
 11
6.0000000000007079
 21
-13.557692308029999
 31
0.0
  0
ARC
  5
42A6
  8
247
  6
CONTINUOUS
 10
4.250000000070683
 20
-20.250000000069999
 30
0.0
 40
1.7499999999299991
 50
180.0
 51
0.0
  0
ARC
  5
42A7
  8
247
  6
CONTINUOUS
 10
4.250000000070683
 20
-13.557692308029999
 30
0.0
 40
1.7499999999299991
 50
0.0
 51
180.0
  0
LINE
  5
42A8
  8
247
  6
CONTINUOUS
 10
2.5000000001407141
 20
-19.384615384720011
 30
0.0
 11
5.5000000000207203
 21
-20.244851541962021
 31
0.0
  0
LINE
  5
42A9
  8
247
  6
CONTINUOUS
 10
3.923076923160719
 20
-18.48498381833582
 30
0.0
 11
3.923076923160719
 21
-19.792676125975809
 31
0.0
  0
ARC
  5
42AA
  8
247
  6
CONTINUOUS
 10
3.049598667703691
 20
-18.145143816089782
 30
0.0
 40
0.5538165441895349
 50
72.997889675292001
 51
172.924166218512
  0
ARC
  5
42AB
  8
247
  6
CONTINUOUS
 10
2.9360330444664831
 20
-18.566878323028789
 30
0.0
 40
0.9904354236226808
 50
4.7429368522005859
 51
73.849226273266424
1001
GENIUS_GENOBJ-N-FIL_13
1002
{
1000
OWNER
1000
GEN
1002
}
1001
GENIUS_GENODEF_13
1002
{
1000
HIER
1070
     0
1002
}
1002
{
1000
MANEDIT
1070
     0
1002
}
1002
{
1000
NOSEL
1070
     0
1002
}
1002
{
1000
BEHIND
1070
     0
1002
}
1002
{
1000
OTHER
1070
     0
1002
}
1002
{
1000
REACTOR
1002
}
  0
LINE
  5
42AC
  8
247
  6
CONTINUOUS
 10
5.5000000000207203
 20
-18.937159234321989
 30
0.0
 11
5.5000000000207203
 21
-20.244851541962021
 31
0.0
  0
LINE
  5
42AD
  8
247
  6
CONTINUOUS
 10
2.5000000001407141
 20
-19.384615384720011
 30
0.0
 11
2.5000000001407141
 21
-18.076923077079972
 31
0.0
  0
ARC
  5
42AE
  8
247
  6
CONTINUOUS
 10
4.4820242326662481
 20
-18.56091963654697
 30
0.0
 40
0.5640818586791229
 50
65.990941652528889
 51
172.26344345906909
  0
ARC
  5
42AF
  8
247
  6
CONTINUOUS
 10
4.4874290391872762
 20
-19.03826268534706
 30
0.0
 40
1.0176059446230981
 50
5.7019851642580841
 51
77.277338436822191
1001
GENIUS_GENOBJ-N-FIL_13
1002
{
1000
OWNER
1000
GEN
1002
}
1001
GENIUS_GENODEF_13
1002
{
1000
HIER
1070
     0
1002
}
1002
{
1000
MANEDIT
1070
     0
1002
}
1002
{
1000
NOSEL
1070
     0
1002
}
1002
{
1000
BEHIND
1070
     0
1002
}
1002
{
1000
OTHER
1070
     0
1002
}
1002
{
1000
REACTOR
1002
}
  0
LINE
  5
42B0
  8
247
  6
CONTINUOUS
 10
5.5000000000207203
 20
-17.283313080541991
 30
0.0
 11
2.5000000001407141
 21
-16.423076923300009
 31
0.0
  0
LINE
  5
42B1
  8
247
  6
CONTINUOUS
 10
2.5000000001407141
 20
-14.00000000032
 30
0.0
 11
2.5000000001407141
 21
-14.565736619456599
 31
0.0
  0
LINE
  5
42B2
  8
247
  6
CONTINUOUS
 10
5.5000000000207203
 20
-15.461538461799989
 30
0.0
 11
5.5000000000207203
 21
-14.846153846440011
 31
0.0
  0
ARC
  5
42B3
  8
247
  6
CONTINUOUS
 10
4.58328513597408
 20
-13.708791209122859
 30
0.0
 40
2.2526500823422122
 50
202.35948814152769
 51
254.99324854284609
  0
ARC
  5
42B4
  8
247
  6
CONTINUOUS
 10
3.3083126551952362
 20
-14.37406947921323
 30
0.0
 40
0.8906723995727782
 50
94.994589319075374
 51
155.1663289573039
1001
GENIUS_GENOBJ-N-FIL_13
1002
{
1000
OWNER
1000
GEN
1002
}
1001
GENIUS_GENODEF_13
1002
{
1000
HIER
1070
     0
1002
}
1002
{
1000
MANEDIT
1070
     0
1002
}
1002
{
1000
NOSEL
1070
     0
1002
}
1002
{
1000
BEHIND
1070
     0
1002
}
1002
{
1000
OTHER
1070
     0
1002
}
1002
{
1000
REACTOR
1002
}
  0
ARC
  5
42B5
  8
247
  6
CONTINUOUS
 10
4.1601458886684952
 20
-15.22645888621258
 30
0.0
 40
1.392781735586712
 50
15.8460965557808
 51
82.325137004169122
  0
ARC
  5
42B6
  8
247
  6
CONTINUOUS
 10
4.4592434315279919
 20
-14.64221272584035
 30
0.0
 40
1.324563662670287
 50
249.7136016704969
 51
321.78874565640928
1001
GENIUS_GENOBJ-N-FIL_13
1002
{
1000
OWNER
1000
GEN
1002
}
1001
GENIUS_GENODEF_13
1002
{
1000
HIER
1070
     0
1002
}
1002
{
1000
MANEDIT
1070
     0
1002
}
1002
{
1000
NOSEL
1070
     0
1002
}
1002
{
1000
BEHIND
1070
     0
1002
}
1002
{
1000
OTHER
1070
     0
1002
}
1002
{
1000
REACTOR
1002
}
  0
LINE
  5
42B7
  8
247
  6
CONTINUOUS
 10
4.3461538462206866
 20
-14.53846153876
 30
0.0
 11
4.3461538462206866
 21
-13.84615384648
 31
0.0
  0
LINE
  5
42B8
  8
247
  6
CONTINUOUS
 10
2.500000000140687
 20
-20.250000000069999
 30
0.0
 11
2.500000000140687
 21
-19.576923077020009
 31
0.0
  0
LINE
  5
42B9
  8
240
  6
CONTINUOUS
 10
-47.975958279723137
 20
-26.375703820393401
 30
0.0
 11
-47.975958279723137
 21
26.37570382039306
 31
0.0
1001
GRPNAME
1000
PASTMD0U
  0
LINE
  5
42BA
  8
240
  6
CONTINUOUS
 10
-0.0000000000007105
 20
-27.57502218835538
 30
0.0
 11
-47.975958279723137
 21
-26.375703820393401
 31
0.0
  0
LINE
  5
42BB
  8
240
  6
CONTINUOUS
 10
-0.0000000000007105
 20
27.575022188355039
 30
0.0
 11
-47.975958279723137
 21
26.37570382039306
 31
0.0
  0
LINE
  5
42BC
  8
241
  6
CONTINUOUS
 10
0.0000000000007105
 20
27.57502218835522
 30
0.0
 11
-0.0000000000007105
 21
-27.57502218835538
 31
0.0
  0
TEXT
  5
42BD
  8
250
  6
CONTINUOUS
 10
-38.771796381152967
 20
-36.0023988214895
 30
0.0
 40
2.799999999999998
  1
C8
  7
YOKO
1001
ITEMNAME
1000
LNSP3
  0
LINE
  5
42BE
  8
250
  6
CONTINUOUS
 10
-26.38864390603052
 20
-28.512949272158931
 30
0.0
 11
-25.099968771152959
 21
-26.94756513148949
 31
0.0
  0
LINE
  5
42BF
  8
250
  6
CONTINUOUS
 10
-25.811293636901119
 20
-28.846282605596549
 30
0.0
 11
-25.099968771152959
 21
-26.94756513148949
 31
0.0
  0
LINE
  5
42C0
  8
250
  6
CONTINUOUS
 10
-25.099968771152959
 20
-26.94756513148949
 30
0.0
 11
-26.099968771465829
 21
-28.679615938877738
 31
0.0
  0
LINE
  5
42C1
  8
250
  6
CONTINUOUS
 10
-26.099968771465829
 20
-28.679615938877738
 30
0.0
 11
-30.90512971115297
 21
-37.002398821489493
 31
0.0
1001
ACAD
1000
DSTYLE
1002
{
1070
     6
1000
OPEN
1070
    41
1040
2.0
1070
    42
1040
2.0
1070
    44
1040
2.0
1070
   140
1040
4.0
1070
   343
1005
0
1002
}
  0
LINE
  5
42C2
  8
250
  6
CONTINUOUS
 10
-30.90512971115297
 20
-37.002398821489493
 30
0.0
 11
-41.171796381152951
 21
-37.002398821489493
 31
0.0
1001
ITEMNAME
1000
LNSP2
  0
LINE
  5
42C3
  8
240
  6
CONTINUOUS
 10
0.0000000000007105
 20
40.0
 30
0.0
 11
30.000000000000711
 21
40.0
 31
0.0
  0
LINE
  5
42C4
  8
240
  6
CONTINUOUS
 10
0.0000000000007105
 20
-40.0
 30
0.0
 11
30.000000000000711
 21
-40.0
 31
0.0
  0
LINE
  5
42C5
  8
241
  6
CONTINUOUS
 10
9.9499999999999975
 20
11.77167262
 30
0.0
 11
9.9499999999999975
 21
38.22077680999999
 31
0.0
1001
GRPNAME
1000
PASTMD1I
  0
LINE
  5
42C6
  8
241
  6
CONTINUOUS
 10
14.05000000000002
 20
11.77167262
 30
0.0
 11
14.05000000000002
 21
38.22077680999999
 31
0.0
1001
GRPNAME
1000
PASTMD1I
  0
LINE
  5
42C7
  8
241
  6
CONTINUOUS
 10
9.9499999999999975
 20
11.77167262
 30
0.0
 11
14.05000000000002
 21
11.77167262
 31
0.0
1001
GRPNAME
1000
PASTMD1I
  0
LINE
  5
42C8
  8
241
  6
CONTINUOUS
 10
9.9499999999999975
 20
38.22077680999999
 30
0.0
 11
14.05000000000002
 21
38.22077680999999
 31
0.0
1001
GRPNAME
1000
PASTMD1I
  0
ARC
  5
42C9
  8
241
  6
CONTINUOUS
 10
-19.247999627147941
 20
24.996224715
 30
0.0
 40
35.82799962714796
 50
338.33912465138178
 51
21.660875348618202
  0
ARC
  5
42CA
  8
241
  6
CONTINUOUS
 10
43.247999627147912
 20
24.996224715
 30
0.0
 40
35.827999627147932
 50
158.33912465138181
 51
201.66087534861811
  0
LINE
  5
42CB
  8
241
  6
CONTINUOUS
 10
9.9499999999999975
 20
-11.77167262
 30
0.0
 11
9.9499999999999975
 21
-38.22077680999999
 31
0.0
1001
GRPNAME
1000
PASTMD1I
  0
LINE
  5
42CC
  8
241
  6
CONTINUOUS
 10
14.05000000000002
 20
-11.77167262
 30
0.0
 11
14.05000000000002
 21
-38.22077680999999
 31
0.0
1001
GRPNAME
1000
PASTMD1I
  0
LINE
  5
42CD
  8
241
  6
CONTINUOUS
 10
9.9499999999999975
 20
-11.77167262
 30
0.0
 11
14.05000000000002
 21
-11.77167262
 31
0.0
1001
GRPNAME
1000
PASTMD1I
  0
LINE
  5
42CE
  8
241
  6
CONTINUOUS
 10
9.9499999999999975
 20
-38.22077680999999
 30
0.0
 11
14.05000000000002
 21
-38.22077680999999
 31
0.0
1001
GRPNAME
1000
PASTMD1I
  0
ARC
  5
42CF
  8
241
  6
CONTINUOUS
 10
-19.247999627147941
 20
-24.996224715
 30
0.0
 40
35.82799962714796
 50
338.33912465138178
 51
21.660875348618202
  0
ARC
  5
42D0
  8
241
  6
CONTINUOUS
 10
43.247999627147912
 20
-24.996224715
 30
0.0
 40
35.827999627147932
 50
158.33912465138181
 51
201.66087534861811
  0
ARC
  5
42D1
  8
243
  6
HIDDEN2
 10
-42.788735191724271
 20
0.0
 30
0.0
 40
5.2245351917242688
 50
302.26098869277632
 51
57.739011307223699
  0
TEXT
  5
436C
  8
241
  6
CONTINUOUS
 10
-48.0
 20
70.0
 30
0.0
 40
5.0
  1
C8-BSL32-120
  7
YOKO
 11
-48.0
 21
70.0
 31
0.0
 73
     1
  0
LINE
  5
436D
  8
250
  6
CONTINUOUS
 10
32.0
 20
16.5
 30
0.0
 11
32.0
 21
50.0
 31
0.0
  0
LINE
  5
436E
  8
250
  6
CONTINUOUS
 10
120.0
 20
18.105042510000001
 30
0.0
 11
120.0
 21
50.0
 31
0.0
  0
LINE
  5
436F
  8
250
  6
CONTINUOUS
 10
34.229999999999997
 20
49.0
 30
0.0
 11
117.77
 21
49.0
 31
0.0
  0
LINE
  5
4370
  8
250
  6
CONTINUOUS
 10
34.229999999999997
 20
48.628333325900002
 30
0.0
 11
32.0
 21
49.0
 31
0.0
  0
LINE
  5
4371
  8
250
  6
CONTINUOUS
 10
34.229999999999997
 20
49.371666674099998
 30
0.0
 11
32.0
 21
49.0
 31
0.0
  0
LINE
  5
4372
  8
250
  6
CONTINUOUS
 10
32.0
 20
49.0
 30
0.0
 11
34.229999999999997
 21
49.0
 31
0.0
  0
LINE
  5
4373
  8
250
  6
CONTINUOUS
 10
117.77
 20
49.371666674099998
 30
0.0
 11
120.0
 21
49.0
 31
0.0
  0
LINE
  5
4374
  8
250
  6
CONTINUOUS
 10
117.77
 20
48.628333325900002
 30
0.0
 11
120.0
 21
49.0
 31
0.0
  0
LINE
  5
4375
  8
250
  6
CONTINUOUS
 10
120.0
 20
49.0
 30
0.0
 11
117.77
 21
49.0
 31
0.0
  0
TEXT
  5
4376
  8
250
  6
CONTINUOUS
 10
67.566703394285696
 20
50.0
 30
0.0
 40
3.0
  1
üimax.88üj
1001
ACAD
1000
MTEXTBEGIN
1070
    73
1070
     1
1070
    44
1040
1.0
1070
    74
1070
     0
1000
MTEXTEND
  0
LINE
  5
4377
  8
250
  6
CONTINUOUS
 10
0.0
 20
40.492499999999993
 30
0.0
 11
0.0
 21
57.0
 31
0.0
  0
LINE
  5
4378
  8
250
  6
CONTINUOUS
 10
120.0
 20
18.105042510000001
 30
0.0
 11
120.0
 21
57.0
 31
0.0
  0
LINE
  5
4379
  8
250
  6
CONTINUOUS
 10
2.2299999999999991
 20
56.0
 30
0.0
 11
117.77
 21
56.0
 31
0.0
  0
LINE
  5
437A
  8
250
  6
CONTINUOUS
 10
2.2299999999999991
 20
55.628333325900002
 30
0.0
 11
0.0
 21
56.0
 31
0.0
  0
LINE
  5
437B
  8
250
  6
CONTINUOUS
 10
2.2299999999999991
 20
56.371666674099991
 30
0.0
 11
0.0
 21
56.0
 31
0.0
  0
LINE
  5
437C
  8
250
  6
CONTINUOUS
 10
0.0
 20
56.0
 30
0.0
 11
2.2299999999999991
 21
56.0
 31
0.0
  0
LINE
  5
437D
  8
250
  6
CONTINUOUS
 10
117.77
 20
56.371666674099991
 30
0.0
 11
120.0
 21
56.0
 31
0.0
  0
LINE
  5
437E
  8
250
  6
CONTINUOUS
 10
117.77
 20
55.628333325900002
 30
0.0
 11
120.0
 21
56.0
 31
0.0
  0
LINE
  5
437F
  8
250
  6
CONTINUOUS
 10
120.0
 20
56.0
 30
0.0
 11
117.77
 21
56.0
 31
0.0
  0
TEXT
  5
4380
  8
250
  6
CONTINUOUS
 10
55.66594958999999
 20
57.0
 30
0.0
 40
3.0
  1
120
1001
ACAD
1000
MTEXTBEGIN
1070
    73
1070
     1
1070
    44
1040
1.0
1070
    74
1070
     0
1000
MTEXTEND
  0
LINE
  5
4381
  8
250
  6
CONTINUOUS
 10
116.76634939318539
 20
-32.0
 30
0.0
 11
141.0
 21
-32.0
 31
0.0
  0
LINE
  5
4382
  8
250
  6
CONTINUOUS
 10
116.76634939318539
 20
32.0
 30
0.0
 11
141.0
 21
32.0
 31
0.0
  0
LINE
  5
4383
  8
250
  6
CONTINUOUS
 10
140.0
 20
-29.77
 30
0.0
 11
140.0
 21
29.77
 31
0.0
  0
LINE
  5
4384
  8
250
  6
CONTINUOUS
 10
140.3716666741
 20
-29.77
 30
0.0
 11
140.0
 21
-32.0
 31
0.0
  0
LINE
  5
4385
  8
250
  6
CONTINUOUS
 10
139.6283333259
 20
-29.77
 30
0.0
 11
140.0
 21
-32.0
 31
0.0
  0
LINE
  5
4386
  8
250
  6
CONTINUOUS
 10
140.0
 20
-32.0
 30
0.0
 11
140.0
 21
-29.77
 31
0.0
  0
LINE
  5
4387
  8
250
  6
CONTINUOUS
 10
139.6283333259
 20
29.77
 30
0.0
 11
140.0
 21
32.0
 31
0.0
  0
LINE
  5
4388
  8
250
  6
CONTINUOUS
 10
140.3716666741
 20
29.77
 30
0.0
 11
140.0
 21
32.0
 31
0.0
  0
LINE
  5
4389
  8
250
  6
CONTINUOUS
 10
140.0
 20
32.0
 30
0.0
 11
140.0
 21
29.77
 31
0.0
  0
TEXT
  5
438A
  8
250
  6
CONTINUOUS
 10
139.0
 20
-4.2857142857142847
 30
0.0
 40
3.0
  1
\U+220564
 50
90.0
1001
ACAD
1000
MTEXTBEGIN
1070
    73
1070
     1
1070
    44
1040
1.0
1070
    74
1070
     0
1000
MTEXTEND
1000
MTEXTBEGIN
1070
    73
1070
     1
1070
    44
1040
1.0
1070
    74
1070
     0
1000
MTEXTEND
  0
LINE
  5
438B
  8
250
  6
CONTINUOUS
 10
120.5
 20
16.0
 30
0.0
 11
134.0
 21
16.0
 31
0.0
  0
LINE
  5
438C
  8
250
  6
CONTINUOUS
 10
133.0
 20
-16.0
 30
0.0
 11
133.0
 21
13.77
 31
0.0
  0
LINE
  5
438D
  8
250
  6
CONTINUOUS
 10
132.6283333259
 20
13.77
 30
0.0
 11
133.0
 21
16.0
 31
0.0
  0
LINE
  5
438E
  8
250
  6
CONTINUOUS
 10
133.3716666741
 20
13.77
 30
0.0
 11
133.0
 21
16.0
 31
0.0
  0
LINE
  5
438F
  8
250
  6
CONTINUOUS
 10
133.0
 20
16.0
 30
0.0
 11
133.0
 21
13.77
 31
0.0
  0
TEXT
  5
4390
  8
250
  6
CONTINUOUS
 10
132.0
 20
-4.2142857142857153
 30
0.0
 40
3.0
  1
\U+220532
 50
90.0
1001
ACAD
1000
MTEXTBEGIN
1070
    73
1070
     1
1070
    44
1040
1.0
1070
    74
1070
     0
1000
MTEXTEND
1000
MTEXTBEGIN
1070
    73
1070
     1
1070
    44
1040
1.0
1070
    74
1070
     0
1000
MTEXTEND
  0
LINE
  5
4391
  8
240
  6
CONTINUOUS
 10
34.999999990153142
 20
-32.0
 30
0.0
 11
116.2487113029474
 21
-32.0
 31
0.0
  0
CIRCLE
  5
4393
  8
242
  6
CONTINUOUS
 10
44.0
 20
0.0
 30
0.0
 40
5.375
  0
CIRCLE
  5
4394
  8
241
  6
CONTINUOUS
 10
44.0
 20
0.0
 30
0.0
 40
6.0
  0
LINE
  5
4396
  8
241
  6
CONTINUOUS
 10
35.0
 20
-32.0
 30
0.0
 11
35.0
 21
32.0
 31
0.0
  0
LINE
  5
4397
  8
240
  6
CONTINUOUS
 10
34.999999990153142
 20
-32.0
 30
0.0
 11
30.999999998750241
 21
-34.30940107564544
 31
0.0
  0
LINE
  5
439A
  8
240
  6
CONTINUOUS
 10
34.999999990153142
 20
32.0
 30
0.0
 11
30.999999998750241
 21
34.30940107564544
 31
0.0
  0
LINE
  5
43A1
  8
241
  6
CONTINUOUS
 10
85.633974599999988
 20
32.0
 30
0.0
 11
85.633974599999988
 21
-32.0
 31
0.0
  0
LINE
  5
43A2
  8
241
  6
CONTINUOUS
 10
87.366025400000012
 20
32.0
 30
0.0
 11
87.366025400000012
 21
-32.0
 31
0.0
  0
LINE
  5
43A3
  8
241
  6
CONTINUOUS
 10
90.633974599999988
 20
32.0
 30
0.0
 11
90.633974599999988
 21
-32.0
 31
0.0
  0
LINE
  5
43A4
  8
241
  6
CONTINUOUS
 10
92.366025400000012
 20
32.0
 30
0.0
 11
92.366025400000012
 21
-32.0
 31
0.0
  0
LINE
  5
43A5
  8
241
  6
CONTINUOUS
 10
116.24871131
 20
31.999999973679301
 30
0.0
 11
116.24871131
 21
-31.999999973679301
 31
0.0
  0
LINE
  5
43A6
  8
240
  6
CONTINUOUS
 10
120.0
 20
18.000000002044821
 30
0.0
 11
116.2487113029474
 21
32.0
 31
0.0
  0
LINE
  5
43AC
  8
241
  6
CONTINUOUS
 10
62.366025399999991
 20
-32.0
 30
0.0
 11
62.366025399999991
 21
32.0
 31
0.0
  0
LINE
  5
43AD
  8
241
  6
CONTINUOUS
 10
60.633974600000002
 20
-32.0
 30
0.0
 11
60.633974600000002
 21
32.0
 31
0.0
  0
LINE
  5
43AE
  8
241
  6
CONTINUOUS
 10
57.366025399999991
 20
-32.0
 30
0.0
 11
57.366025399999991
 21
32.0
 31
0.0
  0
LINE
  5
43AF
  8
241
  6
CONTINUOUS
 10
55.633974600000002
 20
-32.0
 30
0.0
 11
55.633974600000002
 21
32.0
 31
0.0
  0
LINE
  5
43BF
  8
241
  6
CONTINUOUS
 10
71.0
 20
-1.7320508100000001
 30
0.0
 11
74.0
 21
-3.4641016200000001
 31
0.0
  0
LINE
  5
43C0
  8
241
  6
CONTINUOUS
 10
74.0
 20
-3.4641016200000001
 30
0.0
 11
77.0
 21
-1.7320508100000001
 31
0.0
  0
LINE
  5
43C1
  8
241
  6
CONTINUOUS
 10
77.0
 20
-1.7320508100000001
 30
0.0
 11
77.0
 21
1.7320508100000001
 31
0.0
  0
LINE
  5
43C2
  8
241
  6
CONTINUOUS
 10
77.0
 20
1.7320508100000001
 30
0.0
 11
74.0
 21
3.4641016200000001
 31
0.0
  0
LINE
  5
43C3
  8
241
  6
CONTINUOUS
 10
74.0
 20
3.4641016200000001
 30
0.0
 11
71.0
 21
1.7320508100000001
 31
0.0
  0
LINE
  5
43C4
  8
241
  6
CONTINUOUS
 10
71.0
 20
1.7320508100000001
 30
0.0
 11
71.0
 21
-1.7320508100000001
 31
0.0
  0
CIRCLE
  5
43C5
  8
242
  6
CONTINUOUS
 10
74.0
 20
0.0
 30
0.0
 40
5.375
  0
CIRCLE
  5
43C6
  8
241
  6
CONTINUOUS
 10
74.0
 20
0.0
 30
0.0
 40
6.0
  0
LINE
  5
43C7
  8
245
  6
CENTER2
 10
74.0
 20
7.0
 30
0.0
 11
74.0
 21
-7.0
 31
0.0
  0
LINE
  5
43C8
  8
241
  6
CONTINUOUS
 10
41.0
 20
-1.7320508100000001
 30
0.0
 11
44.0
 21
-3.4641016200000001
 31
0.0
  0
LINE
  5
43C9
  8
241
  6
CONTINUOUS
 10
44.0
 20
-3.4641016200000001
 30
0.0
 11
47.0
 21
-1.7320508100000001
 31
0.0
  0
LINE
  5
43CA
  8
241
  6
CONTINUOUS
 10
47.0
 20
-1.7320508100000001
 30
0.0
 11
47.0
 21
1.7320508100000001
 31
0.0
  0
LINE
  5
43CB
  8
241
  6
CONTINUOUS
 10
47.0
 20
1.7320508100000001
 30
0.0
 11
44.0
 21
3.4641016200000001
 31
0.0
  0
LINE
  5
43CC
  8
241
  6
CONTINUOUS
 10
44.0
 20
3.4641016200000001
 30
0.0
 11
41.0
 21
1.7320508100000001
 31
0.0
  0
LINE
  5
43CD
  8
241
  6
CONTINUOUS
 10
41.0
 20
1.7320508100000001
 30
0.0
 11
41.0
 21
-1.7320508100000001
 31
0.0
  0
LINE
  5
43CE
  8
245
  6
CENTER2
 10
44.0
 20
7.0
 30
0.0
 11
44.0
 21
-7.0
 31
0.0
  0
LINE
  5
43CF
  8
245
  6
CENTER2
 10
104.0
 20
7.0
 30
0.0
 11
104.0
 21
-7.0
 31
0.0
  0
CIRCLE
  5
43D0
  8
242
  6
CONTINUOUS
 10
104.0
 20
0.0
 30
0.0
 40
5.375
  0
CIRCLE
  5
43D1
  8
241
  6
CONTINUOUS
 10
104.0
 20
0.0
 30
0.0
 40
6.0
  0
LINE
  5
43D2
  8
241
  6
CONTINUOUS
 10
101.0
 20
-1.7320508100000001
 30
0.0
 11
104.0
 21
-3.4641016200000001
 31
0.0
  0
LINE
  5
43D3
  8
241
  6
CONTINUOUS
 10
104.0
 20
-3.4641016200000001
 30
0.0
 11
107.0
 21
-1.7320508100000001
 31
0.0
  0
LINE
  5
43D4
  8
241
  6
CONTINUOUS
 10
107.0
 20
-1.7320508100000001
 30
0.0
 11
107.0
 21
1.7320508100000001
 31
0.0
  0
LINE
  5
43D5
  8
241
  6
CONTINUOUS
 10
107.0
 20
1.7320508100000001
 30
0.0
 11
104.0
 21
3.4641016200000001
 31
0.0
  0
LINE
  5
43D6
  8
241
  6
CONTINUOUS
 10
104.0
 20
3.4641016200000001
 30
0.0
 11
101.0
 21
1.7320508100000001
 31
0.0
  0
LINE
  5
43D7
  8
241
  6
CONTINUOUS
 10
101.0
 20
1.7320508100000001
 30
0.0
 11
101.0
 21
-1.7320508100000001
 31
0.0
  0
LINE
  5
43D9
  8
240
  6
CONTINUOUS
 10
120.0
 20
-18.000000002044821
 30
0.0
 11
116.2487113029474
 21
-32.0
 31
0.0
  0
LINE
  5
43DB
  8
240
  6
CONTINUOUS
 10
120.0
 20
-18.000000002044821
 30
0.0
 11
120.0
 21
18.000000002044821
 31
0.0
  0
LINE
  5
43DF
  8
240
  6
CONTINUOUS
 10
116.2487113029474
 20
32.0
 30
0.0
 11
34.999999990153142
 21
32.0
 31
0.0
  0
LINE
  5
43FE
  8
243
  6
HIDDEN2
 10
32.0
 20
16.0
 30
0.0
 11
120.0
 21
16.0
 31
0.0
  0
LINE
  5
43FF
  8
250
  6
CONTINUOUS
 10
120.5
 20
-16.0
 30
0.0
 11
134.0
 21
-16.0
 31
0.0
  0
LINE
  5
4400
  8
250
  6
CONTINUOUS
 10
132.6283333259
 20
-13.77
 30
0.0
 11
133.0
 21
-16.0
 31
0.0
  0
LINE
  5
4401
  8
250
  6
CONTINUOUS
 10
133.3716666741
 20
-13.77
 30
0.0
 11
133.0
 21
-16.0
 31
0.0
  0
LINE
  5
4402
  8
250
  6
CONTINUOUS
 10
133.0
 20
-16.0
 30
0.0
 11
133.0
 21
-13.77
 31
0.0
  0
LINE
  5
4403
  8
243
  6
HIDDEN2
 10
32.0
 20
-16.0
 30
0.0
 11
120.0
 21
-16.0
 31
0.0
  0
LINE
  5
4404
  8
240
  6
CONTINUOUS
 10
30.000000000000711
 20
-36.041451882492353
 30
0.0
 11
30.000000000000711
 21
-40.0
 31
0.0
  0
LINE
  5
4406
  8
241
  6
CONTINUOUS
 10
30.000000000000711
 20
-36.041451882492368
 30
0.0
 11
29.999999999999989
 21
36.041451882492332
 31
0.0
  0
ARC
  5
4466
  8
240
  6
CONTINUOUS
 10
32.000000000000711
 20
36.041451882492353
 30
0.0
 40
2.0
 50
180.0
 51
239.99999995863459
1001
GENIUS_GENODEF_13
1002
{
1000
HIER
1070
     0
1002
}
1002
{
1000
MANEDIT
1070
     0
1002
}
1002
{
1000
NOSEL
1070
     0
1002
}
1002
{
1000
BEHIND
1070
     0
1002
}
1002
{
1000
OTHER
1070
     0
1002
}
1002
{
1000
REACTOR
1002
}
1001
GENIUS_GENOBJ-N-FIL_13
1002
{
1000
OWNER
1000
GEN
1002
}
  0
ARC
  5
4467
  8
240
  6
CONTINUOUS
 10
32.000000000000711
 20
-36.041451882492353
 30
0.0
 40
2.0
 50
120.0000000413654
 51
180.0
1001
GENIUS_GENODEF_13
1002
{
1000
HIER
1070
     0
1002
}
1002
{
1000
MANEDIT
1070
     0
1002
}
1002
{
1000
NOSEL
1070
     0
1002
}
1002
{
1000
BEHIND
1070
     0
1002
}
1002
{
1000
OTHER
1070
     0
1002
}
1002
{
1000
REACTOR
1002
}
1001
GENIUS_GENOBJ-N-FIL_13
1002
{
1000
OWNER
1000
GEN
1002
}
  0
VIEWPORT
  5
22
 67
     1
  8
0
 10
261.51769911504419
 20
148.5
 30
0.0
 40
523.0353982300885
 41
297.0
 68
     1
 69
     1
1001
ACAD
1000
MVIEW
1002
{
1070
    16
1010
0.0
1020
0.0
1030
0.0
1010
0.0
1020
0.0
1030
1.0
1040
0.0
1040
297.0
1040
261.51769911504419
1040
148.5
1040
50.0
1040
0.0
1040
0.0
1070
     0
1070
   100
1070
     1
1070
     1
1070
     0
1070
     0
1070
     0
1070
     0
1040
0.0
1040
0.0
1040
0.0
1040
1.0
1040
1.0
1040
10.0
1040
10.0
1070
     0
1002
{
1002
}
1002
}
1001
GENIUS_GENODEF_13
1002
{
1000
HIER
1070
     0
1002
}
1002
{
1000
MANEDIT
1070
     0
1002
}
1002
{
1000
NOSEL
1070
     0
1002
}
1002
{
1000
BEHIND
1070
     0
1002
}
1002
{
1000
OTHER
1070
     0
1002
}
1002
{
1000
REACTOR
1002
}
1001
GENIUS_GENOBJ-N-SDF_13
1002
{
1000
OWNER
1000
GEN
1002
}
1001
GENIUS_GENSCREG_15
1000
PF
1040
1.0
1000
DF
1040
1.0
1000
MIN
1011
0.0
1021
0.0
1031
0.0
1021
0.0
1031
0.0
1000
MAX
1011
523.0353982300885
1021
0.0
1031
0.0
1021
297.0
1031
0.0
1000
FLAGS
1070
     4
  0
ENDSEC
  0
EOF
