  0
SECTION
  2
HEADER
  9
$ACADVER
  1
AC1009
  9
$INSBASE
 10
0.0
 20
0.0
 30
0.0
  9
$EXTMIN
 10
-123.2924015154241
 20
-49.999999999999517
 30
0.0
  9
$EXTMAX
 10
199.00000000000139
 20
82.000000000000014
 30
0.0
  9
$LIMMIN
 10
0.0
 20
0.0
  9
$LIMMAX
 10
297.0
 20
210.0
  9
$ORTHOMODE
 70
     0
  9
$REGENMODE
 70
     1
  9
$FILLMODE
 70
     1
  9
$QTEXTMODE
 70
     0
  9
$MIRRTEXT
 70
     1
  9
$DRAGMODE
 70
     2
  9
$LTSCALE
 40
10.0
  9
$OSMODE
 70
    47
  9
$ATTMODE
 70
     1
  9
$TEXTSIZE
 40
3.0
  9
$TRACEWID
 40
1.0
  9
$TEXTSTYLE
  7
YOKO
  9
$CLAYER
  8
240
  9
$CELTYPE
  6
BYLAYER
  9
$CECOLOR
 62
   256
  9
$DIMSCALE
 40
1.0
  9
$DIMASZ
 40
2.2299999999999991
  9
$DIMEXO
 40
0.5
  9
$DIMDLI
 40
7.0
  9
$DIMRND
 40
0.0
  9
$DIMDLE
 40
0.0
  9
$DIMEXE
 40
1.0
  9
$DIMTP
 40
0.0
  9
$DIMTM
 40
0.01
  9
$DIMTXT
 40
2.7999999999999989
  9
$DIMCEN
 40
0.0
  9
$DIMTSZ
 40
0.0
  9
$DIMTOL
 70
     0
  9
$DIMLIM
 70
     0
  9
$DIMTIH
 70
     0
  9
$DIMTOH
 70
     0
  9
$DIMSE1
 70
     0
  9
$DIMSE2
 70
     0
  9
$DIMTAD
 70
     3
  9
$DIMZIN
 70
     9
  9
$DIMBLK
  1
OPEN
  9
$DIMASO
 70
     1
  9
$DIMSHO
 70
     1
  9
$DIMPOST
  1

  9
$DIMAPOST
  1

  9
$DIMALT
 70
     0
  9
$DIMALTD
 70
     2
  9
$DIMALTF
 40
25.399999999999999
  9
$DIMLFAC
 40
1.0
  9
$DIMTOFL
 70
     1
  9
$DIMTVP
 40
0.0
  9
$DIMTIX
 70
     1
  9
$DIMSOXD
 70
     0
  9
$DIMSAH
 70
     0
  9
$DIMBLK1
  1

  9
$DIMBLK2
  1

  9
$DIMSTYLE
  2
BIGT
  9
$DIMCLRD
 70
   256
  9
$DIMCLRE
 70
   256
  9
$DIMCLRT
 70
    40
  9
$DIMTFAC
 40
1.0
  9
$DIMGAP
 40
1.0
  9
$LUNITS
 70
     2
  9
$LUPREC
 70
     6
  9
$SKETCHINC
 40
1.0
  9
$FILLETRAD
 40
0.0
  9
$AUNITS
 70
     0
  9
$AUPREC
 70
     6
  9
$MENU
  1
.
  9
$ELEVATION
 40
0.0
  9
$PELEVATION
 40
0.0
  9
$THICKNESS
 40
0.0
  9
$LIMCHECK
 70
     0
  9
$BLIPMODE
 70
     0
  9
$CHAMFERA
 40
0.2
  9
$CHAMFERB
 40
0.2
  9
$SKPOLY
 70
     0
  9
$TDCREATE
 40
2460245.4539434952
  9
$TDUPDATE
 40
2460245.518755313
  9
$TDINDWG
 40
0.0642568403
  9
$TDUSRTIMER
 40
0.0642567593
  9
$USRTIMER
 70
     1
  9
$ANGBASE
 50
0.0
  9
$ANGDIR
 70
     0
  9
$PDMODE
 70
     1
  9
$PDSIZE
 40
0.0
  9
$PLINEWID
 40
0.0
  9
$COORDS
 70
     1
  9
$SPLFRAME
 70
     0
  9
$SPLINETYPE
 70
     6
  9
$SPLINESEGS
 70
     4
  9
$ATTDIA
 70
     1
  9
$ATTREQ
 70
     1
  9
$HANDLING
 70
     1
  9
$HANDSEED
  5
4DF4
  9
$SURFTAB1
 70
     6
  9
$SURFTAB2
 70
     6
  9
$SURFTYPE
 70
     6
  9
$SURFU
 70
     6
  9
$SURFV
 70
     6
  9
$UCSNAME
  2

  9
$UCSORG
 10
0.0
 20
0.0
 30
0.0
  9
$UCSXDIR
 10
1.0
 20
0.0
 30
0.0
  9
$UCSYDIR
 10
0.0
 20
1.0
 30
0.0
  9
$PUCSNAME
  2

  9
$PUCSORG
 10
0.0
 20
0.0
 30
0.0
  9
$PUCSXDIR
 10
1.0
 20
0.0
 30
0.0
  9
$PUCSYDIR
 10
0.0
 20
1.0
 30
0.0
  9
$USERI1
 70
     1
  9
$USERI2
 70
     0
  9
$USERI3
 70
     0
  9
$USERI4
 70
     0
  9
$USERI5
 70
     0
  9
$USERR1
 40
0.0
  9
$USERR2
 40
0.0
  9
$USERR3
 40
0.0
  9
$USERR4
 40
0.0
  9
$USERR5
 40
0.0
  9
$WORLDVIEW
 70
     1
  9
$SHADEDGE
 70
     3
  9
$SHADEDIF
 70
    70
  9
$TILEMODE
 70
     1
  9
$MAXACTVP
 70
    16
  9
$PLIMCHECK
 70
     0
  9
$PEXTMIN
 10
1.0000000000000000E+020
 20
1.0000000000000000E+020
 30
1.0000000000000000E+020
  9
$PEXTMAX
 10
-1.0000000000000000E+020
 20
-1.0000000000000000E+020
 30
-1.0000000000000000E+020
  9
$PLIMMIN
 10
0.0
 20
0.0
  9
$PLIMMAX
 10
420.0
 20
297.0
  9
$UNITMODE
 70
     0
  9
$VISRETAIN
 70
     1
  9
$PLINEGEN
 70
     0
  9
$PSLTSCALE
 70
     1
  0
ENDSEC
  0
SECTION
  2
TABLES
  0
TABLE
  2
VPORT
 70
     1
  0
VPORT
  2
*ACTIVE
 70
     0
 10
0.0
 20
0.0
 11
1.0
 21
1.0
 12
40.815528346993908
 22
12.10773225886601
 13
0.0
 23
0.0
 14
7.0
 24
7.0
 15
7.0
 25
7.0
 16
0.0
 26
0.0
 36
1.0
 17
0.0
 27
0.0
 37
0.0
 40
214.58431713884599
 41
1.8450363196125901
 42
50.0
 43
0.0
 44
0.0
 50
0.0
 51
0.0
 71
     0
 72
  2000
 73
     1
 74
     0
 75
     1
 76
     1
 77
     0
 78
     0
  0
ENDTAB
  0
TABLE
  2
LTYPE
 70
    16
  0
LTYPE
  2
CONTINUOUS
 70
     0
  3
Solid line
 72
    65
 73
     0
 40
0.0
  0
LTYPE
  2
CENTER2
 70
     0
  3
___ _ ___ _ ___ _ ___ _ ___ _ ___ _ ___ _ ___ _
 72
    65
 73
     4
 40
1.125
 49
0.75
 49
-0.125
 49
0.125
 49
-0.125
  0
LTYPE
  2
HIDDEN2
 70
     0
  3
_ _ _ _ _ _ _ _ _ _ _ _ _ _ _ _ _ _ _ _ _ _ _ _
 72
    65
 73
     2
 40
0.1875
 49
0.125
 49
-0.0625
  0
LTYPE
  2
PHANTOM2
 70
     0
  3
___ _ _ ___ _ _ ___ _ _ ___ _ _ ___ _ _ ___ _ _
 72
    65
 73
     6
 40
1.25
 49
0.625
 49
-0.125
 49
0.125
 49
-0.125
 49
0.125
 49
-0.125
  0
LTYPE
  2
AM_ISO02W050
 70
     0
  3
__ __ __ __ __ __ __ __ __ __ __ __ __ __ __
 72
    65
 73
     2
 40
7.5
 49
6.0
 49
-1.5
  0
LTYPE
  2
AMCONSTR
 70
     0
  3
_______________________
 72
    65
 73
     2
 40
9999.0
 49
9999.0
 49
0.0
  0
LTYPE
  2
ACISOWELD
 70
     0
  3
_ _ _ _ _
 72
    65
 73
     2
 40
2.0
 49
2.0
 49
-1.0
  0
LTYPE
  2
ACISOTGB
 70
     0
  3
__ . . __ . .
 72
    65
 73
     6
 40
9.0
 49
4.0
 49
-1.0
 49
1.0
 49
-1.0
 49
1.0
 49
-1.0
  0
LTYPE
  2
ACISOTGL
 70
     0
  3
_ _ _ _ _
 72
    65
 73
     2
 40
3.0
 49
2.0
 49
-1.0
  0
LTYPE
  2
ACJISTGB
 70
     0
  3
__ . . __ . .
 72
    65
 73
     6
 40
9.0
 49
4.0
 49
-1.0
 49
1.0
 49
-1.0
 49
1.0
 49
-1.0
  0
LTYPE
  2
ACJISTGL
 70
     0
  3
_ _ _ _ _
 72
    65
 73
     2
 40
3.0
 49
2.0
 49
-1.0
  0
ENDTAB
  0
TABLE
  2
LAYER
 70
    10
  0
LAYER
  2
0
 70
     0
 62
     7
  6
CONTINUOUS
  0
LAYER
  2
DEFPOINTS
 70
     0
 62
     7
  6
CONTINUOUS
  0
LAYER
  2
245
 70
     0
 62
     2
  6
CENTER2
  0
LAYER
  2
240
 70
     0
 62
     4
  6
CONTINUOUS
  0
LAYER
  2
241
 70
     0
 62
   211
  6
CONTINUOUS
  0
LAYER
  2
242
 70
     0
 62
     3
  6
CONTINUOUS
  0
LAYER
  2
243
 70
     0
 62
   211
  6
HIDDEN2
  0
LAYER
  2
246
 70
     0
 62
     3
  6
PHANTOM2
  0
LAYER
  2
247
 70
     0
 62
    60
  6
CONTINUOUS
  0
LAYER
  2
250
 70
     0
 62
     3
  6
CONTINUOUS
  0
ENDTAB
  0
TABLE
  2
STYLE
 70
     7
  0
STYLE
  2
STANDARD
 70
     0
 40
0.0
 41
1.0
 50
0.0
 71
     0
 42
3.0
  3
romans.shx
  4
extfont.shx
  0
STYLE
  2
ACISOTS
 70
     0
 40
1.0
 41
1.0
 50
0.0
 71
     0
 42
3.0
  3
amgdt.shx
  4
extfont.shx
  0
STYLE
  2
ACISOGDT
 70
     0
 40
0.0
 41
1.0
 50
0.0
 71
     0
 42
3.0
  3
amgdt.shx
  4
extfont.shx
  0
STYLE
  2
ACJISTS
 70
     0
 40
1.0
 41
1.0
 50
0.0
 71
     0
 42
3.0
  3
amgdt.shx
  4
extfont.shx
  0
STYLE
  2
ACJISGDT
 70
     0
 40
0.0
 41
1.0
 50
0.0
 71
     0
 42
3.0
  3
amgdt.shx
  4
extfont.shx
  0
STYLE
  2
YOKO
 70
     0
 40
0.0
 41
1.0
 50
0.0
 71
     0
 42
3.0
  3
romans.shx
  4
extfont.shx
  0
ENDTAB
  0
TABLE
  2
VIEW
 70
     0
  0
ENDTAB
  0
TABLE
  2
UCS
 70
     0
  0
ENDTAB
  0
TABLE
  2
APPID
 70
    45
  0
APPID
  2
ACAD
 70
     0
  0
APPID
  2
GLOBAL
 70
     0
  0
APPID
  2
DETAIL
 70
     0
  0
APPID
  2
GRPNAME
 70
     0
  0
APPID
  2
GPARA
 70
     0
  0
APPID
  2
MCAD_NO_VIS
 70
     0
  0
APPID
  2
ACAD_TEMP_GRAPHIC
 70
     0
  0
APPID
  2
ACATTRIBSERVICES
 70
     0
  0
APPID
  2
GENIUS_GENSCREG_15
 70
     0
  0
APPID
  2
GENIUS_GENODEF_13
 70
     0
  0
APPID
  2
GENIUS_GENOBJ-N-SDF_13
 70
     0
  0
APPID
  2
GENIUS_GENREC_14
 70
     0
  0
APPID
  2
GENIUS_GENOBJ-N-REC_13
 70
     0
  0
APPID
  2
GENIUS_GENDIMSH_14
 70
     0
  0
APPID
  2
GENIUS_GENOBJ-N-DIM_13
 70
     0
  0
APPID
  2
GENIUS_GENDIM_13
 70
     0
  0
APPID
  2
GENIUS_GENDTOL_13
 70
     0
  0
APPID
  2
GENIUS_GENOLIS_13
 70
     0
  0
APPID
  2
GENIUS_GENOENT_13
 70
     0
  0
APPID
  2
GENIUS_GENOBJ-F-FEM_13
 70
     0
  0
APPID
  2
GENIUS_GENOREF_13
 70
     0
  0
APPID
  2
GENIUS_GEFFEM_13
 70
     0
  0
APPID
  2
GENIUS_GEFFEMP_13
 70
     0
  0
APPID
  2
AD_DRAW
 70
     0
  0
APPID
  2
DESIGNERASSEMBLIES
 70
     0
  0
APPID
  2
ACADM_DIM_EDIT
 70
     0
  0
APPID
  2
AMDT_DM_ADJ
 70
     0
  0
APPID
  2
ITEMNAME
 70
     0
  0
APPID
  2
GENIUS_GENOBJ-N-FIL_13
 70
     0
  0
APPID
  2
GENIUS_GENFIL_13
 70
     0
  0
APPID
  2
GENIUS_GENOBJ-N-CHA_13
 70
     0
  0
APPID
  2
ACAD_NAV_VCDISPLAY
 70
     0
  0
APPID
  2
LAYER_SCALE
 70
     0
  0
APPID
  2
ACAD_PSEXT
 70
     0
  0
APPID
  2
ACAD_DSTYLE_DIMJAG
 70
     0
  0
APPID
  2
ACAD_DSTYLE_DIMTALN
 70
     0
  0
APPID
  2
ACAD_DSTYLE_DIMBREAK
 70
     0
  0
APPID
  2
ASK_MEN_XD
 70
     0
  0
APPID
  2
GRADIENTCOLOR1ACI
 70
     0
  0
APPID
  2
GRADIENTCOLOR2ACI
 70
     0
  0
APPID
  2
ACAECLAYERSTANDARD
 70
     0
  0
APPID
  2
ACAD_DSTYLE_DIMINSPECT
 70
     0
  0
APPID
  2
ACAD_DSTYLE_DIMRADIAL_EXTENSION
 70
     0
  0
APPID
  2
ACAD_EXEMPT_FROM_CAD_STANDARDS
 70
     0
  0
APPID
  2
ACAD_MLEADERVER
 70
     0
  0
ENDTAB
  0
TABLE
  2
DIMSTYLE
 70
    30
  0
DIMSTYLE
  2
BIGT
 70
     0
  3

  4

  5
OPEN
  6

  7

 40
1.0
 41
2.2299999999999991
 42
0.5
 43
7.0
 44
1.0
 45
0.0
 46
0.0
 47
0.0
 48
0.01
140
2.7999999999999989
141
0.0
142
0.0
143
25.399999999999999
144
1.0
145
0.0
146
1.0
147
1.0
 71
     0
 72
     0
 73
     0
 74
     0
 75
     0
 76
     0
 77
     3
 78
     9
170
     0
171
     2
172
     1
173
     0
174
     1
175
     0
176
   256
177
   256
178
    40
  0
DIMSTYLE
  2
AM_ISO
 70
     0
  3

  4
"
  5

  6

  7

 40
1.0
 41
2.5
 42
1.0
 43
10.0
 44
1.0
 45
0.0
 46
0.0
 47
0.1
 48
0.1
140
3.5
141
0.0
142
0.0
143
0.0393701
144
1.0
145
0.0
146
0.71
147
1.5
 71
     0
 72
     0
 73
     0
 74
     0
 75
     0
 76
     0
 77
     1
 78
     8
170
     0
171
     2
172
     1
173
     0
174
     0
175
     0
176
   256
177
   256
178
     2
  0
DIMSTYLE
  2
AM_ISO$3
 70
     0
  3

  4
"
  5

  6

  7

 40
1.0
 41
2.5
 42
1.0
 43
10.0
 44
1.0
 45
0.0
 46
0.0
 47
0.1
 48
0.1
140
3.5
141
0.0
142
0.0
143
0.0393701
144
1.0
145
0.0
146
0.71
147
1.5
 71
     0
 72
     0
 73
     0
 74
     1
 75
     0
 76
     0
 77
     1
 78
     8
170
     0
171
     2
172
     0
173
     0
174
     0
175
     0
176
   256
177
   256
178
     2
  0
DIMSTYLE
  2
AM_ISO$4
 70
     0
  3

  4
"
  5

  6

  7

 40
1.0
 41
2.5
 42
1.0
 43
10.0
 44
1.0
 45
0.0
 46
0.0
 47
0.1
 48
0.1
140
3.5
141
0.0
142
0.0
143
0.0393701
144
1.0
145
0.0
146
0.71
147
1.5
 71
     0
 72
     0
 73
     0
 74
     1
 75
     0
 76
     0
 77
     1
 78
     8
170
     0
171
     2
172
     0
173
     0
174
     0
175
     0
176
   256
177
   256
178
     2
  0
DIMSTYLE
  2
AM_ISO$6
 70
     0
  3

  4
"
  5

  6

  7

 40
1.0
 41
2.5
 42
1.0
 43
10.0
 44
1.0
 45
0.0
 46
0.0
 47
0.1
 48
0.1
140
3.5
141
0.0
142
0.0
143
0.0393701
144
1.0
145
0.0
146
0.71
147
1.5
 71
     0
 72
     0
 73
     0
 74
     0
 75
     0
 76
     0
 77
     0
 78
     8
170
     0
171
     2
172
     1
173
     0
174
     0
175
     0
176
   256
177
   256
178
     2
  0
DIMSTYLE
  2
AM_ISO$7
 70
     0
  3

  4
"
  5

  6

  7

 40
1.0
 41
2.5
 42
1.0
 43
10.0
 44
1.0
 45
0.0
 46
0.0
 47
0.1
 48
0.1
140
5.0
141
0.0
142
0.0
143
0.0393701
144
1.0
145
0.0
146
0.71
147
1.5
 71
     0
 72
     0
 73
     0
 74
     0
 75
     0
 76
     0
 77
     1
 78
     8
170
     0
171
     2
172
     1
173
     0
174
     0
175
     0
176
   256
177
   256
178
     2
  0
DIMSTYLE
  2
AM_ISO$SF
 70
     0
  3

  4
"
  5

  6

  7

 40
1.0
 41
2.5
 42
1.0
 43
10.0
 44
1.0
 45
0.0
 46
0.0
 47
0.1
 48
0.1
140
3.5
141
0.0
142
0.0
143
0.0393701
144
1.0
145
0.0
146
0.71
147
1.5
 71
     0
 72
     0
 73
     0
 74
     0
 75
     1
 76
     1
 77
     1
 78
     8
170
     0
171
     2
172
     1
173
     0
174
     0
175
     0
176
   256
177
   256
178
     2
  0
DIMSTYLE
  2
AM_ISO$SH
 70
     0
  3

  4
"
  5

  6
GENAXEH
  7

 40
1.0
 41
2.5
 42
1.0
 43
10.0
 44
1.0
 45
0.0
 46
0.0
 47
0.1
 48
0.1
140
3.5
141
0.0
142
0.0
143
0.0393701
144
2.0
145
0.0
146
0.71
147
1.5
 71
     0
 72
     0
 73
     0
 74
     0
 75
     1
 76
     1
 77
     1
 78
     8
170
     0
171
     2
172
     1
173
     1
174
     0
175
     0
176
   256
177
   256
178
     2
  0
DIMSTYLE
  2
BIGT$2
 70
     0
  3

  4

  5
OPEN
  6

  7

 40
1.0
 41
2.2299999999999991
 42
0.5
 43
7.0
 44
1.0
 45
0.0
 46
0.0
 47
0.0
 48
0.01
140
2.7999999999999989
141
0.0
142
0.0
143
25.399999999999999
144
1.0
145
0.0
146
1.0
147
1.0
 71
     0
 72
     0
 73
     0
 74
     0
 75
     0
 76
     0
 77
     3
 78
     9
170
     0
171
     2
172
     1
173
     0
174
     0
175
     0
176
   256
177
   256
178
    40
  0
DIMSTYLE
  2
BIGT$3
 70
     0
  3

  4

  5
OPEN
  6

  7

 40
1.0
 41
2.2299999999999991
 42
0.5
 43
2.5
 44
1.0
 45
0.0
 46
0.0
 47
0.0
 48
0.01
140
2.7999999999999989
141
0.0
142
0.0
143
25.399999999999999
144
1.0
145
0.0
146
1.0
147
1.0
 71
     0
 72
     0
 73
     0
 74
     0
 75
     0
 76
     0
 77
     3
 78
     9
170
     0
171
     2
172
     1
173
     0
174
     0
175
     0
176
   256
177
   256
178
    40
  0
DIMSTYLE
  2
BIGT$7
 70
     0
  3

  4

  5
OPEN
  6

  7

 40
0.0
 41
2.2299999999999991
 42
0.5
 43
7.0
 44
1.0
 45
0.0
 46
0.0
 47
0.0
 48
0.01
140
2.7999999999999989
141
0.0
142
0.0
143
25.399999999999999
144
1.0
145
0.0
146
1.0
147
1.0
 71
     0
 72
     0
 73
     0
 74
     0
 75
     0
 76
     0
 77
     3
 78
     9
170
     0
171
     2
172
     0
173
     0
174
     0
175
     0
176
   256
177
   256
178
    40
  0
DIMSTYLE
  2
BIGT$6
 70
     0
  3

  4

  5
OPEN
  6

  7

 40
1.0
 41
2.2299999999999991
 42
0.5
 43
2.5
 44
1.0
 45
0.0
 46
0.0
 47
0.0
 48
0.01
140
2.7999999999999989
141
0.0
142
0.0
143
25.399999999999999
144
1.0
145
0.0
146
1.0
147
1.0
 71
     0
 72
     0
 73
     0
 74
     0
 75
     0
 76
     0
 77
     3
 78
     9
170
     0
171
     2
172
     1
173
     0
174
     0
175
     0
176
   256
177
   256
178
    40
  0
DIMSTYLE
  2
BIGT$0
 70
     0
  3

  4

  5
OPEN
  6

  7

 40
1.0
 41
2.2299999999999991
 42
0.5
 43
7.0
 44
1.0
 45
0.0
 46
0.0
 47
0.0
 48
0.01
140
2.7999999999999989
141
0.0
142
0.0
143
25.399999999999999
144
1.0
145
0.0
146
1.0
147
1.0
 71
     0
 72
     0
 73
     0
 74
     0
 75
     0
 76
     0
 77
     3
 78
     9
170
     0
171
     2
172
     1
173
     0
174
     1
175
     0
176
   256
177
   256
178
    40
  0
DIMSTYLE
  2
BIGT$4
 70
     0
  3

  4

  5
OPEN
  6

  7

 40
1.0
 41
2.2299999999999991
 42
0.5
 43
2.5
 44
1.0
 45
0.0
 46
0.0
 47
0.0
 48
0.01
140
2.7999999999999989
141
0.0
142
0.0
143
25.399999999999999
144
1.0
145
0.0
146
1.0
147
1.0
 71
     0
 72
     0
 73
     0
 74
     0
 75
     0
 76
     0
 77
     3
 78
     9
170
     0
171
     2
172
     1
173
     0
174
     0
175
     0
176
   256
177
   256
178
    40
  0
DIMSTYLE
  2
BIGT$SH
 70
     0
  3

  4

  5
OPEN
  6

  7

 40
1.0
 41
2.2299999999999991
 42
0.5
 43
7.0
 44
1.0
 45
0.0
 46
0.0
 47
0.0
 48
0.0
140
2.7999999999999989
141
0.0
142
0.0
143
25.399999999999999
144
1.0
145
0.0
146
1.0
147
1.0
 71
     0
 72
     0
 73
     0
 74
     0
 75
     0
 76
     0
 77
     3
 78
     9
170
     0
171
     2
172
     1
173
     0
174
     0
175
     0
176
   256
177
   256
178
    40
  0
DIMSTYLE
  2
BIGT$SF
 70
     0
  3

  4

  5
OPEN
  6

  7

 40
1.0
 41
2.2299999999999991
 42
0.5
 43
7.0
 44
1.0
 45
0.0
 46
0.0
 47
0.0
 48
0.0
140
2.7999999999999989
141
0.0
142
0.0
143
25.399999999999999
144
1.0
145
0.0
146
1.0
147
1.0
 71
     0
 72
     0
 73
     0
 74
     0
 75
     0
 76
     0
 77
     3
 78
     9
170
     0
171
     2
172
     1
173
     0
174
     0
175
     0
176
   256
177
   256
178
    40
  0
DIMSTYLE
  2
TECHNICAL_OSAKA
 70
     0
  3

  4
"
  5
OPEN30
  6

  7

 40
1.0
 41
2.5
 42
1.0
 43
10.0
 44
1.0
 45
0.0
 46
0.0
 47
0.1
 48
0.1
140
2.7999999999999989
141
0.0
142
0.0
143
0.0393701
144
1.0
145
0.0
146
0.71
147
1.5
 71
     0
 72
     0
 73
     0
 74
     0
 75
     0
 76
     0
 77
     3
 78
     8
170
     0
171
     2
172
     1
173
     0
174
     0
175
     0
176
   256
177
   256
178
    40
  0
DIMSTYLE
  2
TECHNICAL_OSAKA$3
 70
     0
  3

  4
"
  5
OPEN30
  6

  7

 40
1.0
 41
2.5
 42
1.0
 43
10.0
 44
1.0
 45
0.0
 46
0.0
 47
0.1
 48
0.1
140
2.7999999999999989
141
0.0
142
0.0
143
0.0393701
144
1.0
145
0.0
146
0.71
147
1.5
 71
     0
 72
     0
 73
     0
 74
     1
 75
     0
 76
     0
 77
     3
 78
     8
170
     0
171
     2
172
     0
173
     0
174
     0
175
     0
176
   256
177
   256
178
    40
  0
DIMSTYLE
  2
TECHNICAL_OSAKA$4
 70
     0
  3

  4
"
  5
OPEN30
  6

  7

 40
1.0
 41
2.5
 42
1.0
 43
10.0
 44
1.0
 45
0.0
 46
0.0
 47
0.1
 48
0.1
140
2.7999999999999989
141
0.0
142
0.0
143
0.0393701
144
1.0
145
0.0
146
0.71
147
1.5
 71
     0
 72
     0
 73
     0
 74
     1
 75
     0
 76
     0
 77
     3
 78
     8
170
     0
171
     2
172
     0
173
     0
174
     0
175
     0
176
   256
177
   256
178
    40
  0
DIMSTYLE
  2
TECHNICAL_OSAKA$6
 70
     0
  3

  4
"
  5
OPEN30
  6

  7

 40
1.0
 41
2.5
 42
1.0
 43
10.0
 44
1.0
 45
0.0
 46
0.0
 47
0.1
 48
0.1
140
2.7999999999999989
141
0.0
142
0.0
143
0.0393701
144
1.0
145
0.0
146
0.71
147
1.5
 71
     0
 72
     0
 73
     0
 74
     0
 75
     0
 76
     0
 77
     0
 78
     8
170
     0
171
     2
172
     1
173
     0
174
     0
175
     0
176
   256
177
   256
178
    40
  0
DIMSTYLE
  2
TECHNICAL_OSAKA$7
 70
     0
  3

  4
"
  5
OPEN30
  6

  7

 40
1.0
 41
2.5
 42
1.0
 43
10.0
 44
1.0
 45
0.0
 46
0.0
 47
0.1
 48
0.1
140
2.7999999999999989
141
0.0
142
0.0
143
0.0393701
144
1.0
145
0.0
146
0.71
147
1.5
 71
     0
 72
     0
 73
     0
 74
     0
 75
     0
 76
     0
 77
     3
 78
     8
170
     0
171
     2
172
     1
173
     0
174
     0
175
     0
176
   256
177
   256
178
    40
  0
DIMSTYLE
  2
TECHNICAL_OSAKA$SF
 70
     0
  3

  4
"
  5
OPEN30
  6
OPEN30
  7
OPEN30
 40
1.0
 41
2.5
 42
1.0
 43
10.0
 44
1.0
 45
0.0
 46
0.0
 47
0.1
 48
0.1
140
3.5
141
0.0
142
0.0
143
0.0393701
144
1.0
145
0.0
146
0.71
147
1.5
 71
     0
 72
     0
 73
     0
 74
     0
 75
     1
 76
     1
 77
     3
 78
     8
170
     0
171
     2
172
     1
173
     0
174
     0
175
     0
176
   256
177
   256
178
    40
  0
DIMSTYLE
  2
TECHNICAL_OSAKA$SH
 70
     0
  3

  4
"
  5
OPEN30
  6
GENAXEH
  7
OPEN30
 40
1.0
 41
2.5
 42
1.0
 43
10.0
 44
1.0
 45
0.0
 46
0.0
 47
0.1
 48
0.1
140
3.5
141
0.0
142
0.0
143
0.0393701
144
2.0
145
0.0
146
0.71
147
1.5
 71
     0
 72
     0
 73
     0
 74
     0
 75
     1
 76
     1
 77
     3
 78
     8
170
     0
171
     2
172
     1
173
     1
174
     0
175
     0
176
   256
177
   256
178
    40
  0
DIMSTYLE
  2
STANDARD
 70
     0
  3

  4

  5

  6

  7

 40
1.0
 41
0.18
 42
0.0625
 43
0.38
 44
0.18
 45
0.0
 46
0.0
 47
0.0
 48
0.0
140
0.18
141
0.09
142
0.0
143
25.399999999999999
144
1.0
145
0.0
146
1.0
147
0.09
 71
     0
 72
     0
 73
     1
 74
     1
 75
     0
 76
     0
 77
     0
 78
     0
170
     0
171
     2
172
     0
173
     0
174
     0
175
     0
176
     0
177
     0
178
     0
  0
ENDTAB
  0
ENDSEC
  0
SECTION
  2
BLOCKS
  0
BLOCK
  8
0
  2
$MODEL_SPACE
 70
     0
 10
0.0
 20
0.0
 30
0.0
  3
$MODEL_SPACE
  1

  0
ENDBLK
  5
1C
  8
0
  0
BLOCK
 67
     1
  8
0
  2
$PAPER_SPACE
 70
     0
 10
0.0
 20
0.0
 30
0.0
  3
$PAPER_SPACE
  1

  0
ENDBLK
  5
19
 67
     1
  8
0
  0
BLOCK
  8
0
  2
_OPEN
 70
     0
 10
0.0
 20
0.0
 30
0.0
  3
_OPEN
  1

  0
LINE
  5
4CF2
  8
0
  6
BYBLOCK
 62
     0
 10
-1.0
 20
0.1666666666666666
 30
0.0
 11
0.0
 21
0.0
 31
0.0
  0
LINE
  5
4CF3
  8
0
  6
BYBLOCK
 62
     0
 10
-1.0
 20
-0.1666666666666666
 30
0.0
 11
0.0
 21
0.0
 31
0.0
  0
LINE
  5
4CF4
  8
0
  6
BYBLOCK
 62
     0
 10
0.0
 20
0.0
 30
0.0
 11
-1.0
 21
0.0
 31
0.0
  0
ENDBLK
  5
4CF5
  8
0
  0
BLOCK
  8
0
  2
GENAXEH
 70
     0
 10
0.0
 20
0.0
 30
0.0
  3
GENAXEH
  1

  0
LINE
  5
4D2D
  8
0
 10
-1.0
 20
0.0
 30
0.0
 11
1.0
 21
0.0
 31
0.0
  0
ENDBLK
  5
4D2E
  8
0
  0
BLOCK
  8
0
  2
_OPEN30
 70
     0
 10
0.0
 20
0.0
 30
0.0
  3
_OPEN30
  1

  0
LINE
  5
4D69
  8
0
  6
BYBLOCK
 62
     0
 10
-1.0
 20
0.26794919
 30
0.0
 11
0.0
 21
0.0
 31
0.0
  0
LINE
  5
4D6A
  8
0
  6
BYBLOCK
 62
     0
 10
0.0
 20
0.0
 30
0.0
 11
-1.0
 21
-0.26794919
 31
0.0
  0
LINE
  5
4D6B
  8
0
  6
BYBLOCK
 62
     0
 10
0.0
 20
0.0
 30
0.0
 11
-1.0
 21
0.0
 31
0.0
  0
ENDBLK
  5
4D6C
  8
0
  0
BLOCK
  8
0
  2
*U6
 70
     1
 10
0.0
 20
0.0
 30
0.0
  3
*U6
  1

  0
TEXT
  5
4DEC
  8
250
 10
86.739784520331341
 20
31.32333889370917
 30
0.0
 40
2.7999999999999989
  1
\U+2205100
 50
333.37820039830132
  0
ENDBLK
  5
4DEE
  8
0
  0
ENDSEC
  0
SECTION
  2
ENTITIES
  0
LINE
  5
42F6
  8
245
  6
CENTER2
 10
-50.37638536360555
 20
0.0000000000000568
 30
0.0
 11
74.508575173522672
 21
-0.0000000000001065
 31
0.0
  0
LINE
  5
4386
  8
245
  6
CENTER2
 10
147.00000000000131
 20
-42.000000000000881
 30
0.0
 11
147.00000000000139
 21
41.999999999999119
 31
0.0
  0
LINE
  5
4387
  8
245
  6
CENTER2
 10
93.709396882634664
 20
-0.0000000000008811
 30
0.0
 11
199.00000000000139
 21
-0.0000000000008811
 31
0.0
  0
LINE
  5
4388
  8
240
  6
CONTINUOUS
 10
123.00000000000119
 20
-40.000000000000867
 30
0.0
 11
175.28427124746219
 21
-40.000000000000867
 31
0.0
  0
LINE
  5
438A
  8
240
  6
CONTINUOUS
 10
123.00000000000119
 20
39.999999999999119
 30
0.0
 11
175.28427124746449
 21
39.999999999999119
 31
0.0
  0
ARC
  5
438B
  8
240
  6
CONTINUOUS
 10
123.00000000000119
 20
23.999999999999119
 30
0.0
 40
16.0
 50
90.0
 51
180.0
  0
LINE
  5
438D
  8
240
  6
CONTINUOUS
 10
107.00000000000119
 20
-24.000000000000881
 30
0.0
 11
107.00000000000119
 21
23.999999999999119
 31
0.0
  0
ARC
  5
438E
  8
240
  6
CONTINUOUS
 10
123.00000000000119
 20
-24.000000000000881
 30
0.0
 40
16.0
 50
180.0
 51
270.0
  0
LINE
  5
438F
  8
241
  6
CONTINUOUS
 10
147.00000000000131
 20
-40.000000000000867
 30
0.0
 11
147.00000000000151
 21
39.999999999999112
 31
0.0
  0
LINE
  5
4390
  8
241
  6
CONTINUOUS
 10
172.00000000000151
 20
-40.000000000000867
 30
0.0
 11
172.00000000000151
 21
39.999999999999133
 31
0.0
  0
ARC
  5
4392
  8
240
  6
CONTINUOUS
 10
147.00000000000131
 20
0.0000000000000284
 30
0.0
 40
50.0
 50
308.94244126897752
 51
51.057558731013188
  0
ARC
  5
4393
  8
240
  6
CONTINUOUS
 10
175.28427124746449
 20
34.999999999999119
 30
0.0
 40
5.0
 50
51.057558731013188
 51
90.0
  0
ARC
  5
4394
  8
240
  6
CONTINUOUS
 10
175.28427124746219
 20
-35.000000000000767
 30
0.0
 40
5.0
 50
270.0
 51
308.94244126897752
  0
ARC
  5
43AC
  8
246
  6
PHANTOM2
 10
147.00000000000131
 20
0.0000000000004832
 30
0.0
 40
50.0
 50
53.130102354154339
 51
306.86989764583751
  0
LINE
  5
43B5
  8
240
  6
CONTINUOUS
 10
71.0
 20
-40.0
 30
0.0
 11
71.0
 21
40.00000000001608
 31
0.0
  0
LINE
  5
43B8
  8
240
  6
CONTINUOUS
 10
71.0
 20
40.00000000001608
 30
0.0
 11
0.0000000000007248
 21
40.000000000015767
 31
0.0
  0
LINE
  5
43BD
  8
245
  6
CENTER2
 10
58.5
 20
32.2500000000162
 30
0.0
 11
58.5
 21
-32.249999999984027
 31
0.0
  0
LINE
  5
43BE
  8
243
  6
HIDDEN2
 10
46.0
 20
40.00000000001608
 30
0.0
 11
46.000000000000107
 21
-39.99999999998392
 31
0.0
  0
ARC
  5
43C7
  8
246
  6
PHANTOM2
 10
37.999898384849082
 20
44.99999999979007
 30
0.0
 40
5.0
 50
90.0
 51
180.0
  0
LINE
  5
43C8
  8
246
  6
PHANTOM2
 10
37.999898384849082
 20
50.000000000016087
 30
0.0
 11
65.999898384849303
 21
50.000000000015973
 31
0.0
  0
ARC
  5
43C9
  8
246
  6
PHANTOM2
 10
65.999898384849303
 20
45.000000000015973
 30
0.0
 40
5.0
 50
0.0
 51
90.0
  0
LINE
  5
43CA
  8
246
  6
PHANTOM2
 10
37.999898384849097
 20
-49.999999999983793
 30
0.0
 11
65.999898384849416
 21
-49.999999999983693
 31
0.0
  0
ARC
  5
43CB
  8
246
  6
PHANTOM2
 10
37.999898384849082
 20
-44.999999999983459
 30
0.0
 40
5.0
 50
180.0
 51
270.0
  0
ARC
  5
43CC
  8
246
  6
PHANTOM2
 10
65.999898384849416
 20
-44.999999999983679
 30
0.0
 40
5.0
 50
270.0
 51
0.0
  0
LINE
  5
441C
  8
241
  6
CONTINUOUS
 10
32.999999999997428
 20
-40.0
 30
0.0
 11
33.000000000001521
 21
40.000000000015902
 31
0.0
  0
TEXT
  5
46CD
  8
241
  6
CONTINUOUS
 10
-49.0
 20
77.0
 30
0.0
 40
5.0
  1
C8-90-BH25N-40071
  7
YOKO
 11
-49.0
 21
77.0
 31
0.0
 73
     1
  0
LINE
  5
46CE
  8
241
  6
CONTINUOUS
 10
-39.75
 20
-4.4180000000000073
 30
0.0
 11
-39.75
 21
4.4179999999999886
 31
0.0
  0
LINE
  5
46CF
  8
241
  6
CONTINUOUS
 10
-48.024041720276138
 20
-4.4180000000000073
 30
0.0
 11
-39.75
 21
-4.4180000000000073
 31
0.0
  0
LINE
  5
46D0
  8
241
  6
CONTINUOUS
 10
-48.024041720276138
 20
4.4179999999999886
 30
0.0
 11
-39.75
 21
4.4179999999999886
 31
0.0
  0
LINE
  5
46D1
  8
240
  6
CONTINUOUS
 10
0.0000000000007105
 20
-40.0
 30
0.0
 11
0.0000000000007105
 21
-27.575623190977559
 31
0.0
  0
LINE
  5
46D2
  8
240
  6
CONTINUOUS
 10
0.0000000000007105
 20
40.0
 30
0.0
 11
0.0000000000007105
 21
27.5756231909772
 31
0.0
  0
LINE
  5
46D3
  8
247
  6
CONTINUOUS
 10
6.0000000000007052
 20
-20.25000000007001
 30
0.0
 11
6.0000000000007052
 21
-13.55769230803001
 31
0.0
  0
ARC
  5
46D4
  8
247
  6
CONTINUOUS
 10
4.250000000070683
 20
-20.25000000007001
 30
0.0
 40
1.7499999999299991
 50
180.0
 51
0.0
  0
ARC
  5
46D5
  8
247
  6
CONTINUOUS
 10
4.250000000070683
 20
-13.55769230803001
 30
0.0
 40
1.7499999999299991
 50
0.0
 51
180.0
  0
LINE
  5
46D6
  8
247
  6
CONTINUOUS
 10
2.500000000140711
 20
-19.384615384720021
 30
0.0
 11
5.5000000000207168
 21
-20.244851541962031
 31
0.0
  0
LINE
  5
46D7
  8
247
  6
CONTINUOUS
 10
3.9230769231607181
 20
-18.484983818335831
 30
0.0
 11
3.9230769231607181
 21
-19.79267612597582
 31
0.0
  0
ARC
  5
46D8
  8
247
  6
CONTINUOUS
 10
3.049598667703691
 20
-18.145143816089789
 30
0.0
 40
0.5538165441895349
 50
72.997889675292001
 51
172.924166218512
  0
ARC
  5
46D9
  8
247
  6
CONTINUOUS
 10
2.9360330444664831
 20
-18.566878323028799
 30
0.0
 40
0.9904354236226808
 50
4.742936852200585
 51
73.849226273266424
1001
GENIUS_GENOBJ-N-FIL_13
1002
{
1000
OWNER
1000
GEN
1002
}
1001
GENIUS_GENODEF_13
1002
{
1000
HIER
1070
     0
1002
}
1002
{
1000
MANEDIT
1070
     0
1002
}
1002
{
1000
NOSEL
1070
     0
1002
}
1002
{
1000
BEHIND
1070
     0
1002
}
1002
{
1000
OTHER
1070
     0
1002
}
1002
{
1000
REACTOR
1002
}
  0
LINE
  5
46DA
  8
247
  6
CONTINUOUS
 10
5.5000000000207168
 20
-18.937159234321999
 30
0.0
 11
5.5000000000207168
 21
-20.244851541962031
 31
0.0
  0
LINE
  5
46DB
  8
247
  6
CONTINUOUS
 10
2.500000000140711
 20
-19.384615384720021
 30
0.0
 11
2.500000000140711
 21
-18.076923077079979
 31
0.0
  0
ARC
  5
46DC
  8
247
  6
CONTINUOUS
 10
4.4820242326662481
 20
-18.560919636546981
 30
0.0
 40
0.5640818586791229
 50
65.990941652528889
 51
172.26344345906909
  0
ARC
  5
46DD
  8
247
  6
CONTINUOUS
 10
4.4874290391872762
 20
-19.038262685347071
 30
0.0
 40
1.0176059446230981
 50
5.7019851642580841
 51
77.277338436822191
1001
GENIUS_GENOBJ-N-FIL_13
1002
{
1000
OWNER
1000
GEN
1002
}
1001
GENIUS_GENODEF_13
1002
{
1000
HIER
1070
     0
1002
}
1002
{
1000
MANEDIT
1070
     0
1002
}
1002
{
1000
NOSEL
1070
     0
1002
}
1002
{
1000
BEHIND
1070
     0
1002
}
1002
{
1000
OTHER
1070
     0
1002
}
1002
{
1000
REACTOR
1002
}
  0
LINE
  5
46DE
  8
247
  6
CONTINUOUS
 10
5.5000000000207168
 20
-17.283313080542001
 30
0.0
 11
2.500000000140711
 21
-16.42307692330002
 31
0.0
  0
LINE
  5
46DF
  8
247
  6
CONTINUOUS
 10
2.500000000140711
 20
-14.000000000320011
 30
0.0
 11
2.500000000140711
 21
-14.56573661945661
 31
0.0
  0
LINE
  5
46E0
  8
247
  6
CONTINUOUS
 10
5.5000000000207168
 20
-15.4615384618
 30
0.0
 11
5.5000000000207168
 21
-14.84615384644002
 31
0.0
  0
ARC
  5
46E1
  8
247
  6
CONTINUOUS
 10
4.58328513597408
 20
-13.70879120912287
 30
0.0
 40
2.2526500823422091
 50
202.35948814152769
 51
254.99324854284609
  0
ARC
  5
46E2
  8
247
  6
CONTINUOUS
 10
3.3083126551952362
 20
-14.37406947921324
 30
0.0
 40
0.8906723995727782
 50
94.994589319075374
 51
155.1663289573039
1001
GENIUS_GENOBJ-N-FIL_13
1002
{
1000
OWNER
1000
GEN
1002
}
1001
GENIUS_GENODEF_13
1002
{
1000
HIER
1070
     0
1002
}
1002
{
1000
MANEDIT
1070
     0
1002
}
1002
{
1000
NOSEL
1070
     0
1002
}
1002
{
1000
BEHIND
1070
     0
1002
}
1002
{
1000
OTHER
1070
     0
1002
}
1002
{
1000
REACTOR
1002
}
  0
ARC
  5
46E3
  8
247
  6
CONTINUOUS
 10
4.1601458886684952
 20
-15.22645888621259
 30
0.0
 40
1.392781735586712
 50
15.8460965557808
 51
82.325137004169122
  0
ARC
  5
46E4
  8
247
  6
CONTINUOUS
 10
4.4592434315279901
 20
-14.642212725840359
 30
0.0
 40
1.324563662670287
 50
249.7136016704969
 51
321.78874565640928
1001
GENIUS_GENOBJ-N-FIL_13
1002
{
1000
OWNER
1000
GEN
1002
}
1001
GENIUS_GENODEF_13
1002
{
1000
HIER
1070
     0
1002
}
1002
{
1000
MANEDIT
1070
     0
1002
}
1002
{
1000
NOSEL
1070
     0
1002
}
1002
{
1000
BEHIND
1070
     0
1002
}
1002
{
1000
OTHER
1070
     0
1002
}
1002
{
1000
REACTOR
1002
}
  0
LINE
  5
46E5
  8
247
  6
CONTINUOUS
 10
4.3461538462206866
 20
-14.538461538760011
 30
0.0
 11
4.3461538462206866
 21
-13.84615384648
 31
0.0
  0
LINE
  5
46E6
  8
247
  6
CONTINUOUS
 10
2.500000000140687
 20
-20.25000000007001
 30
0.0
 11
2.500000000140687
 21
-19.57692307702002
 31
0.0
  0
LINE
  5
46E7
  8
240
  6
CONTINUOUS
 10
-48.0
 20
-26.375703820393412
 30
0.0
 11
-48.0
 21
26.375703820393049
 31
0.0
1001
GRPNAME
1000
PASTMD0U
  0
LINE
  5
46E8
  8
240
  6
CONTINUOUS
 10
-0.0000000000007105
 20
-27.575623190977531
 30
0.0
 11
-48.0
 21
-26.375703820393412
 31
0.0
  0
LINE
  5
46E9
  8
240
  6
CONTINUOUS
 10
0.0000000000007105
 20
27.5756231909772
 30
0.0
 11
-48.0
 21
26.375703820393049
 31
0.0
  0
LINE
  5
46EA
  8
241
  6
CONTINUOUS
 10
0.0000000000007105
 20
27.5756231909772
 30
0.0
 11
-0.0000000000007105
 21
-27.575623190977531
 31
0.0
  0
TEXT
  5
46EB
  8
250
  6
CONTINUOUS
 10
-38.79583810142983
 20
-36.002398821489507
 30
0.0
 40
2.799999999999998
  1
C8
  7
YOKO
1001
ITEMNAME
1000
LNSP3
  0
LINE
  5
46EC
  8
250
  6
CONTINUOUS
 10
-26.41268562630739
 20
-28.512949272158941
 30
0.0
 11
-25.124010491429821
 21
-26.947565131489501
 31
0.0
  0
LINE
  5
46ED
  8
250
  6
CONTINUOUS
 10
-25.835335357177978
 20
-28.846282605596571
 30
0.0
 11
-25.124010491429821
 21
-26.947565131489501
 31
0.0
  0
LINE
  5
46EE
  8
250
  6
CONTINUOUS
 10
-25.124010491429821
 20
-26.947565131489501
 30
0.0
 11
-26.124010491742691
 21
-28.679615938877749
 31
0.0
  0
LINE
  5
46EF
  8
250
  6
CONTINUOUS
 10
-26.124010491742691
 20
-28.679615938877749
 30
0.0
 11
-30.92917143142984
 21
-37.0023988214895
 31
0.0
1001
ACAD
1000
DSTYLE
1002
{
1070
     6
1000
OPEN
1070
    41
1040
2.0
1070
    42
1040
2.0
1070
    44
1040
2.0
1070
   140
1040
4.0
1070
   343
1005
0
1002
}
  0
LINE
  5
46F0
  8
250
  6
CONTINUOUS
 10
-30.92917143142984
 20
-37.0023988214895
 30
0.0
 11
-41.195838101429828
 21
-37.0023988214895
 31
0.0
1001
ITEMNAME
1000
LNSP2
  0
LINE
  5
46F2
  8
240
  6
CONTINUOUS
 10
0.0000000000007105
 20
-40.0
 30
0.0
 11
71.0
 21
-40.0
 31
0.0
  0
LINE
  5
46F3
  8
241
  6
CONTINUOUS
 10
9.9499999999999975
 20
11.77167261999999
 30
0.0
 11
9.9499999999999975
 21
38.220776809999983
 31
0.0
1001
GRPNAME
1000
PASTMD1I
  0
LINE
  5
46F4
  8
241
  6
CONTINUOUS
 10
14.05000000000002
 20
11.77167261999999
 30
0.0
 11
14.05000000000002
 21
38.220776809999983
 31
0.0
1001
GRPNAME
1000
PASTMD1I
  0
LINE
  5
46F5
  8
241
  6
CONTINUOUS
 10
9.9499999999999975
 20
11.77167261999999
 30
0.0
 11
14.05000000000002
 21
11.77167261999999
 31
0.0
1001
GRPNAME
1000
PASTMD1I
  0
LINE
  5
46F6
  8
241
  6
CONTINUOUS
 10
9.9499999999999975
 20
38.220776809999983
 30
0.0
 11
14.05000000000002
 21
38.220776809999983
 31
0.0
1001
GRPNAME
1000
PASTMD1I
  0
ARC
  5
46F7
  8
241
  6
CONTINUOUS
 10
-19.247999627147941
 20
24.99622471499999
 30
0.0
 40
35.82799962714796
 50
338.33912465138178
 51
21.660875348618202
  0
ARC
  5
46F8
  8
241
  6
CONTINUOUS
 10
43.247999627147912
 20
24.99622471499999
 30
0.0
 40
35.827999627147932
 50
158.33912465138181
 51
201.66087534861811
  0
LINE
  5
46F9
  8
241
  6
CONTINUOUS
 10
9.9499999999999975
 20
-11.771672620000009
 30
0.0
 11
9.9499999999999975
 21
-38.220776809999997
 31
0.0
1001
GRPNAME
1000
PASTMD1I
  0
LINE
  5
46FA
  8
241
  6
CONTINUOUS
 10
14.05000000000002
 20
-11.771672620000009
 30
0.0
 11
14.05000000000002
 21
-38.220776809999997
 31
0.0
1001
GRPNAME
1000
PASTMD1I
  0
LINE
  5
46FB
  8
241
  6
CONTINUOUS
 10
9.9499999999999975
 20
-11.771672620000009
 30
0.0
 11
14.05000000000002
 21
-11.771672620000009
 31
0.0
1001
GRPNAME
1000
PASTMD1I
  0
LINE
  5
46FC
  8
241
  6
CONTINUOUS
 10
9.9499999999999975
 20
-38.220776809999997
 30
0.0
 11
14.05000000000002
 21
-38.220776809999997
 31
0.0
1001
GRPNAME
1000
PASTMD1I
  0
ARC
  5
46FD
  8
241
  6
CONTINUOUS
 10
-19.247999627147941
 20
-24.996224715000011
 30
0.0
 40
35.82799962714796
 50
338.33912465138178
 51
21.660875348618202
  0
ARC
  5
46FE
  8
241
  6
CONTINUOUS
 10
43.247999627147912
 20
-24.996224715000011
 30
0.0
 40
35.827999627147932
 50
158.33912465138181
 51
201.66087534861811
  0
ARC
  5
46FF
  8
241
  6
CONTINUOUS
 10
-42.538735191724967
 20
-0.000000000000009
 30
0.0
 40
5.2245351917242671
 50
302.26098869277632
 51
57.739011307223699
  0
LINE
  5
4700
  8
245
  6
CENTER2
 10
-90.999999999999986
 20
29.500000000000089
 30
0.0
 11
-91.0
 21
-29.499999999999911
 31
0.0
  0
LINE
  5
4701
  8
245
  6
CENTER2
 10
-123.2924015154241
 20
0.0000000000000905
 30
0.0
 11
-59.073013977967022
 21
0.0000000000000905
 31
0.0
  0
ARC
  5
4702
  8
241
  6
CONTINUOUS
 10
-120.2
 20
0.0000000000000905
 30
0.0
 40
7.0
 50
305.4441780804321
 51
55.022492573911741
  0
ARC
  5
4703
  8
241
  6
CONTINUOUS
 10
-57.789999999999992
 20
0.0000000000000621
 30
0.0
 40
7.0
 50
131.38246406869931
 51
228.29366482707141
  0
CIRCLE
  5
4704
  8
241
  6
CONTINUOUS
 10
-91.000000000000881
 20
0.0000000000006021
 30
0.0
 40
9.0500000000000007
  0
CIRCLE
  5
4705
  8
241
  6
CONTINUOUS
 10
-91.000000000000881
 20
0.0000000000006021
 30
0.0
 40
16.0
  0
CIRCLE
  5
4706
  8
242
  6
CONTINUOUS
 10
-91.000000000000881
 20
0.0000000000006021
 30
0.0
 40
10.0
  0
POLYLINE
  5
4707
  8
240
  6
CONTINUOUS
 66
     1
 10
0.0
 20
0.0
 30
0.0
 70
     8
  0
VERTEX
  5
4708
  8
240
  6
CONTINUOUS
 10
-78.25
 20
22.08359999999999
 30
0.0
 70
    32
  0
VERTEX
  5
4709
  8
240
  6
CONTINUOUS
 10
-77.896500000000003
 20
21.880499999999991
 30
0.0
 70
    32
  0
VERTEX
  5
470A
  8
240
  6
CONTINUOUS
 10
-77.545000000000002
 20
21.674399999999991
 30
0.0
 70
    32
  0
VERTEX
  5
470B
  8
240
  6
CONTINUOUS
 10
-77.195499999999981
 20
21.465599999999991
 30
0.0
 70
    32
  0
VERTEX
  5
470C
  8
240
  6
CONTINUOUS
 10
-76.848200000000006
 20
21.253999999999991
 30
0.0
 70
    32
  0
VERTEX
  5
470D
  8
240
  6
CONTINUOUS
 10
-76.502899999999983
 20
21.039599999999989
 30
0.0
 70
    32
  0
VERTEX
  5
470E
  8
240
  6
CONTINUOUS
 10
-76.159999999999982
 20
20.822499999999991
 30
0.0
 70
    32
  0
VERTEX
  5
470F
  8
240
  6
CONTINUOUS
 10
-75.819299999999984
 20
20.602799999999991
 30
0.0
 70
    32
  0
VERTEX
  5
4710
  8
240
  6
CONTINUOUS
 10
-75.480900000000005
 20
20.380399999999991
 30
0.0
 70
    32
  0
VERTEX
  5
4711
  8
240
  6
CONTINUOUS
 10
-75.144999999999982
 20
20.155499999999989
 30
0.0
 70
    32
  0
VERTEX
  5
4712
  8
240
  6
CONTINUOUS
 10
-74.811599999999999
 20
19.92799999999999
 30
0.0
 70
    32
  0
VERTEX
  5
4713
  8
240
  6
CONTINUOUS
 10
-74.480699999999999
 20
19.69799999999999
 30
0.0
 70
    32
  0
VERTEX
  5
4714
  8
240
  6
CONTINUOUS
 10
-74.1524
 20
19.465399999999988
 30
0.0
 70
    32
  0
VERTEX
  5
4715
  8
240
  6
CONTINUOUS
 10
-73.826800000000006
 20
19.230499999999989
 30
0.0
 70
    32
  0
VERTEX
  5
4716
  8
240
  6
CONTINUOUS
 10
-73.504000000000005
 20
18.993099999999991
 30
0.0
 70
    32
  0
VERTEX
  5
4717
  8
240
  6
CONTINUOUS
 10
-73.18389999999998
 20
18.753399999999989
 30
0.0
 70
    32
  0
VERTEX
  5
4718
  8
240
  6
CONTINUOUS
 10
-72.866799999999998
 20
18.511299999999991
 30
0.0
 70
    32
  0
VERTEX
  5
4719
  8
240
  6
CONTINUOUS
 10
-72.552499999999981
 20
18.266899999999989
 30
0.0
 70
    32
  0
VERTEX
  5
471A
  8
240
  6
CONTINUOUS
 10
-72.241299999999981
 20
18.020299999999992
 30
0.0
 70
    32
  0
VERTEX
  5
471B
  8
240
  6
CONTINUOUS
 10
-71.933099999999996
 20
17.771399999999989
 30
0.0
 70
    32
  0
VERTEX
  5
471C
  8
240
  6
CONTINUOUS
 10
-71.628100000000003
 20
17.520399999999992
 30
0.0
 70
    32
  0
VERTEX
  5
471D
  8
240
  6
CONTINUOUS
 10
-71.326300000000003
 20
17.267199999999988
 30
0.0
 70
    32
  0
VERTEX
  5
471E
  8
240
  6
CONTINUOUS
 10
-71.027699999999996
 20
17.01189999999999
 30
0.0
 70
    32
  0
VERTEX
  5
471F
  8
240
  6
CONTINUOUS
 10
-70.732500000000002
 20
16.75449999999999
 30
0.0
 70
    32
  0
VERTEX
  5
4720
  8
240
  6
CONTINUOUS
 10
-70.440600000000003
 20
16.49499999999999
 30
0.0
 70
    32
  0
VERTEX
  5
4721
  8
240
  6
CONTINUOUS
 10
-70.152199999999993
 20
16.233599999999988
 30
0.0
 70
    32
  0
VERTEX
  5
4722
  8
240
  6
CONTINUOUS
 10
-69.8673
 20
15.97019999999999
 30
0.0
 70
    32
  0
VERTEX
  5
4723
  8
240
  6
CONTINUOUS
 10
-69.585999999999999
 20
15.70479999999999
 30
0.0
 70
    32
  0
VERTEX
  5
4724
  8
240
  6
CONTINUOUS
 10
-69.308400000000006
 20
15.437599999999991
 30
0.0
 70
    32
  0
VERTEX
  5
4725
  8
240
  6
CONTINUOUS
 10
-69.034499999999994
 20
15.168499999999989
 30
0.0
 70
    32
  0
VERTEX
  5
4726
  8
240
  6
CONTINUOUS
 10
-68.764300000000006
 20
14.89759999999999
 30
0.0
 70
    32
  0
VERTEX
  5
4727
  8
240
  6
CONTINUOUS
 10
-68.498000000000005
 20
14.62489999999999
 30
0.0
 70
    32
  0
VERTEX
  5
4728
  8
240
  6
CONTINUOUS
 10
-68.235600000000005
 20
14.35049999999999
 30
0.0
 70
    32
  0
VERTEX
  5
4729
  8
240
  6
CONTINUOUS
 10
-67.977099999999993
 20
14.07429999999999
 30
0.0
 70
    32
  0
VERTEX
  5
472A
  8
240
  6
CONTINUOUS
 10
-67.722700000000003
 20
13.796499999999989
 30
0.0
 70
    32
  0
VERTEX
  5
472B
  8
240
  6
CONTINUOUS
 10
-67.472399999999993
 20
13.516999999999991
 30
0.0
 70
    32
  0
VERTEX
  5
472C
  8
240
  6
CONTINUOUS
 10
-67.226299999999995
 20
13.23589999999999
 30
0.0
 70
    32
  0
VERTEX
  5
472D
  8
240
  6
CONTINUOUS
 10
-66.984399999999994
 20
12.95329999999999
 30
0.0
 70
    32
  0
VERTEX
  5
472E
  8
240
  6
CONTINUOUS
 10
-66.746799999999993
 20
12.669199999999989
 30
0.0
 70
    32
  0
VERTEX
  5
472F
  8
240
  6
CONTINUOUS
 10
-66.513599999999997
 20
12.383499999999991
 30
0.0
 70
    32
  0
VERTEX
  5
4730
  8
240
  6
CONTINUOUS
 10
-66.284700000000001
 20
12.09639999999999
 30
0.0
 70
    32
  0
VERTEX
  5
4731
  8
240
  6
CONTINUOUS
 10
-66.060400000000001
 20
11.807899999999989
 30
0.0
 70
    32
  0
VERTEX
  5
4732
  8
240
  6
CONTINUOUS
 10
-65.840599999999995
 20
11.51799999999999
 30
0.0
 70
    32
  0
VERTEX
  5
4733
  8
240
  6
CONTINUOUS
 10
-65.625500000000002
 20
11.22669999999999
 30
0.0
 70
    32
  0
VERTEX
  5
4734
  8
240
  6
CONTINUOUS
 10
-65.415000000000006
 20
10.93419999999999
 30
0.0
 70
    32
  0
VERTEX
  5
4735
  8
240
  6
CONTINUOUS
 10
-65.209199999999996
 20
10.640399999999991
 30
0.0
 70
    32
  0
VERTEX
  5
4736
  8
240
  6
CONTINUOUS
 10
-65.008300000000006
 20
10.345299999999989
 30
0.0
 70
    32
  0
VERTEX
  5
4737
  8
240
  6
CONTINUOUS
 10
-64.812299999999993
 20
10.04909999999999
 30
0.0
 70
    32
  0
VERTEX
  5
4738
  8
240
  6
CONTINUOUS
 10
-64.621200000000002
 20
9.7516699999999883
 30
0.0
 70
    32
  0
VERTEX
  5
4739
  8
240
  6
CONTINUOUS
 10
-64.435100000000006
 20
9.4531499999999902
 30
0.0
 70
    32
  0
VERTEX
  5
473A
  8
240
  6
CONTINUOUS
 10
-64.254000000000005
 20
9.1535299999999893
 30
0.0
 70
    32
  0
VERTEX
  5
473B
  8
240
  6
CONTINUOUS
 10
-64.078199999999995
 20
8.8528699999999887
 30
0.0
 70
    32
  0
VERTEX
  5
473C
  8
240
  6
CONTINUOUS
 10
-63.907499999999999
 20
8.5511899999999912
 30
0.0
 70
    32
  0
VERTEX
  5
473D
  8
240
  6
CONTINUOUS
 10
-63.741999999999997
 20
8.2485399999999913
 30
0.0
 70
    32
  0
VERTEX
  5
473E
  8
240
  6
CONTINUOUS
 10
-63.581899999999997
 20
7.9449499999999906
 30
0.0
 70
    32
  0
VERTEX
  5
473F
  8
240
  6
CONTINUOUS
 10
-63.427199999999992
 20
7.640459999999992
 30
0.0
 70
    32
  0
VERTEX
  5
4740
  8
240
  6
CONTINUOUS
 10
-63.277999999999992
 20
7.33509999999999
 30
0.0
 70
    32
  0
VERTEX
  5
4741
  8
240
  6
CONTINUOUS
 10
-63.1342
 20
7.02890999999999
 30
0.0
 70
    32
  0
VERTEX
  5
4742
  8
240
  6
CONTINUOUS
 10
-62.996099999999998
 20
6.7219299999999906
 30
0.0
 70
    32
  0
VERTEX
  5
4743
  8
240
  6
CONTINUOUS
 10
-62.863599999999998
 20
6.4141999999999912
 30
0.0
 70
    32
  0
VERTEX
  5
4744
  8
240
  6
CONTINUOUS
 10
-62.736899999999999
 20
6.1057499999999898
 30
0.0
 70
    32
  0
VERTEX
  5
4745
  8
240
  6
CONTINUOUS
 10
-62.615900000000003
 20
5.7966099999999914
 30
0.0
 70
    32
  0
VERTEX
  5
4746
  8
240
  6
CONTINUOUS
 10
-62.500700000000002
 20
5.4868299999999914
 30
0.0
 70
    32
  0
VERTEX
  5
4747
  8
240
  6
CONTINUOUS
 10
-62.391500000000001
 20
5.1764499999999902
 30
0.0
 70
    32
  0
VERTEX
  5
4748
  8
240
  6
CONTINUOUS
 10
-62.288200000000003
 20
4.8654899999999914
 30
0.0
 70
    32
  0
VERTEX
  5
4749
  8
240
  6
CONTINUOUS
 10
-62.191000000000003
 20
4.5539999999999914
 30
0.0
 70
    32
  0
VERTEX
  5
474A
  8
240
  6
CONTINUOUS
 10
-62.099899999999998
 20
4.2420099999999898
 30
0.0
 70
    32
  0
VERTEX
  5
474B
  8
240
  6
CONTINUOUS
 10
-62.015000000000001
 20
3.9295599999999911
 30
0.0
 70
    32
  0
VERTEX
  5
474C
  8
240
  6
CONTINUOUS
 10
-61.936199999999999
 20
3.6166799999999908
 30
0.0
 70
    32
  0
VERTEX
  5
474D
  8
240
  6
CONTINUOUS
 10
-61.863799999999991
 20
3.3034199999999898
 30
0.0
 70
    32
  0
VERTEX
  5
474E
  8
240
  6
CONTINUOUS
 10
-61.797800000000002
 20
2.98979999999999
 30
0.0
 70
    32
  0
VERTEX
  5
474F
  8
240
  6
CONTINUOUS
 10
-61.738199999999999
 20
2.6758699999999909
 30
0.0
 70
    32
  0
VERTEX
  5
4750
  8
240
  6
CONTINUOUS
 10
-61.685000000000002
 20
2.3616699999999908
 30
0.0
 70
    32
  0
VERTEX
  5
4751
  8
240
  6
CONTINUOUS
 10
-61.638399999999997
 20
2.04721999999999
 30
0.0
 70
    32
  0
VERTEX
  5
4752
  8
240
  6
CONTINUOUS
 10
-61.598500000000001
 20
1.73256999999999
 30
0.0
 70
    32
  0
VERTEX
  5
4753
  8
240
  6
CONTINUOUS
 10
-61.565199999999997
 20
1.4177599999999899
 30
0.0
 70
    32
  0
VERTEX
  5
4754
  8
240
  6
CONTINUOUS
 10
-61.538699999999999
 20
1.1028099999999901
 30
0.0
 70
    32
  0
VERTEX
  5
4755
  8
240
  6
CONTINUOUS
 10
-61.518999999999998
 20
0.7877689999999911
 30
0.0
 70
    32
  0
VERTEX
  5
4756
  8
240
  6
CONTINUOUS
 10
-61.506199999999993
 20
0.4726719999999911
 30
0.0
 70
    32
  0
VERTEX
  5
4757
  8
240
  6
CONTINUOUS
 10
-61.500300000000003
 20
0.157554999999991
 30
0.0
 70
    32
  0
VERTEX
  5
4758
  8
240
  6
CONTINUOUS
 10
-61.501399999999997
 20
-0.157546000000009
 30
0.0
 70
    32
  0
VERTEX
  5
4759
  8
240
  6
CONTINUOUS
 10
-61.509599999999999
 20
-0.4725950000000091
 30
0.0
 70
    32
  0
VERTEX
  5
475A
  8
240
  6
CONTINUOUS
 10
-61.524700000000003
 20
-0.7875570000000091
 30
0.0
 70
    32
  0
VERTEX
  5
475B
  8
240
  6
CONTINUOUS
 10
-61.546599999999991
 20
-1.1024000000000089
 30
0.0
 70
    32
  0
VERTEX
  5
475C
  8
240
  6
CONTINUOUS
 10
-61.575400000000002
 20
-1.417090000000008
 30
0.0
 70
    32
  0
VERTEX
  5
475D
  8
240
  6
CONTINUOUS
 10
-61.610900000000001
 20
-1.7315900000000091
 30
0.0
 70
    32
  0
VERTEX
  5
475E
  8
240
  6
CONTINUOUS
 10
-61.652999999999999
 20
-2.0458600000000069
 30
0.0
 70
    32
  0
VERTEX
  5
475F
  8
240
  6
CONTINUOUS
 10
-61.701799999999999
 20
-2.3598800000000071
 30
0.0
 70
    32
  0
VERTEX
  5
4760
  8
240
  6
CONTINUOUS
 10
-61.757100000000001
 20
-2.673610000000008
 30
0.0
 70
    32
  0
VERTEX
  5
4761
  8
240
  6
CONTINUOUS
 10
-61.818899999999999
 20
-2.9870100000000068
 30
0.0
 70
    32
  0
VERTEX
  5
4762
  8
240
  6
CONTINUOUS
 10
-61.887099999999997
 20
-3.3000600000000069
 30
0.0
 70
    32
  0
VERTEX
  5
4763
  8
240
  6
CONTINUOUS
 10
-61.9617
 20
-3.612710000000007
 30
0.0
 70
    32
  0
VERTEX
  5
4764
  8
240
  6
CONTINUOUS
 10
-62.042499999999997
 20
-3.9249300000000078
 30
0.0
 70
    32
  0
VERTEX
  5
4765
  8
240
  6
CONTINUOUS
 10
-62.1295
 20
-4.2366900000000092
 30
0.0
 70
    32
  0
VERTEX
  5
4766
  8
240
  6
CONTINUOUS
 10
-62.222700000000003
 20
-4.5479600000000069
 30
0.0
 70
    32
  0
VERTEX
  5
4767
  8
240
  6
CONTINUOUS
 10
-62.321899999999999
 20
-4.8587000000000069
 30
0.0
 70
    32
  0
VERTEX
  5
4768
  8
240
  6
CONTINUOUS
 10
-62.427199999999999
 20
-5.1688700000000081
 30
0.0
 70
    32
  0
VERTEX
  5
4769
  8
240
  6
CONTINUOUS
 10
-62.5383
 20
-5.4784500000000076
 30
0.0
 70
    32
  0
VERTEX
  5
476A
  8
240
  6
CONTINUOUS
 10
-62.6554
 20
-5.7873900000000091
 30
0.0
 70
    32
  0
VERTEX
  5
476B
  8
240
  6
CONTINUOUS
 10
-62.778199999999998
 20
-6.095670000000009
 30
0.0
 70
    32
  0
VERTEX
  5
476C
  8
240
  6
CONTINUOUS
 10
-62.906799999999997
 20
-6.403250000000007
 30
0.0
 70
    32
  0
VERTEX
  5
476D
  8
240
  6
CONTINUOUS
 10
-63.0411
 20
-6.7100900000000081
 30
0.0
 70
    32
  0
VERTEX
  5
476E
  8
240
  6
CONTINUOUS
 10
-63.180999999999997
 20
-7.0161700000000069
 30
0.0
 70
    32
  0
VERTEX
  5
476F
  8
240
  6
CONTINUOUS
 10
-63.3264
 20
-7.3214400000000071
 30
0.0
 70
    32
  0
VERTEX
  5
4770
  8
240
  6
CONTINUOUS
 10
-63.4773
 20
-7.625870000000007
 30
0.0
 70
    32
  0
VERTEX
  5
4771
  8
240
  6
CONTINUOUS
 10
-63.633600000000001
 20
-7.9294400000000067
 30
0.0
 70
    32
  0
VERTEX
  5
4772
  8
240
  6
CONTINUOUS
 10
-63.795200000000001
 20
-8.2321000000000097
 30
0.0
 70
    32
  0
VERTEX
  5
4773
  8
240
  6
CONTINUOUS
 10
-63.962099999999992
 20
-8.5338200000000093
 30
0.0
 70
    32
  0
VERTEX
  5
4774
  8
240
  6
CONTINUOUS
 10
-64.134299999999996
 20
-8.8345700000000065
 30
0.0
 70
    32
  0
VERTEX
  5
4775
  8
240
  6
CONTINUOUS
 10
-64.311499999999995
 20
-9.1343100000000081
 30
0.0
 70
    32
  0
VERTEX
  5
4776
  8
240
  6
CONTINUOUS
 10
-64.493799999999993
 20
-9.4330100000000083
 30
0.0
 70
    32
  0
VERTEX
  5
4777
  8
240
  6
CONTINUOUS
 10
-64.681200000000004
 20
-9.7306400000000082
 30
0.0
 70
    32
  0
VERTEX
  5
4778
  8
240
  6
CONTINUOUS
 10
-64.873400000000004
 20
-10.027200000000009
 30
0.0
 70
    32
  0
VERTEX
  5
4779
  8
240
  6
CONTINUOUS
 10
-65.070599999999999
 20
-10.32250000000001
 30
0.0
 70
    32
  0
VERTEX
  5
477A
  8
240
  6
CONTINUOUS
 10
-65.272499999999994
 20
-10.61670000000001
 30
0.0
 70
    32
  0
VERTEX
  5
477B
  8
240
  6
CONTINUOUS
 10
-65.479200000000006
 20
-10.90970000000001
 30
0.0
 70
    32
  0
VERTEX
  5
477C
  8
240
  6
CONTINUOUS
 10
-65.6905
 20
-11.20140000000001
 30
0.0
 70
    32
  0
VERTEX
  5
477D
  8
240
  6
CONTINUOUS
 10
-65.906499999999994
 20
-11.49190000000001
 30
0.0
 70
    32
  0
VERTEX
  5
477E
  8
240
  6
CONTINUOUS
 10
-66.126999999999995
 20
-11.781000000000009
 30
0.0
 70
    32
  0
VERTEX
  5
477F
  8
240
  6
CONTINUOUS
 10
-66.351900000000001
 20
-12.06880000000001
 30
0.0
 70
    32
  0
VERTEX
  5
4780
  8
240
  6
CONTINUOUS
 10
-66.581299999999985
 20
-12.355200000000011
 30
0.0
 70
    32
  0
VERTEX
  5
4781
  8
240
  6
CONTINUOUS
 10
-66.814999999999984
 20
-12.640200000000011
 30
0.0
 70
    32
  0
VERTEX
  5
4782
  8
240
  6
CONTINUOUS
 10
-67.052999999999997
 20
-12.923800000000011
 30
0.0
 70
    32
  0
VERTEX
  5
4783
  8
240
  6
CONTINUOUS
 10
-67.295199999999994
 20
-13.20590000000001
 30
0.0
 70
    32
  0
VERTEX
  5
4784
  8
240
  6
CONTINUOUS
 10
-67.541499999999999
 20
-13.48640000000001
 30
0.0
 70
    32
  0
VERTEX
  5
4785
  8
240
  6
CONTINUOUS
 10
-67.791899999999984
 20
-13.76540000000001
 30
0.0
 70
    32
  0
VERTEX
  5
4786
  8
240
  6
CONTINUOUS
 10
-68.046199999999985
 20
-14.04280000000001
 30
0.0
 70
    32
  0
VERTEX
  5
4787
  8
240
  6
CONTINUOUS
 10
-68.304599999999994
 20
-14.318600000000011
 30
0.0
 70
    32
  0
VERTEX
  5
4788
  8
240
  6
CONTINUOUS
 10
-68.566800000000001
 20
-14.59270000000001
 30
0.0
 70
    32
  0
VERTEX
  5
4789
  8
240
  6
CONTINUOUS
 10
-68.832800000000006
 20
-14.865100000000011
 30
0.0
 70
    32
  0
VERTEX
  5
478A
  8
240
  6
CONTINUOUS
 10
-69.102500000000006
 20
-15.13580000000001
 30
0.0
 70
    32
  0
VERTEX
  5
478B
  8
240
  6
CONTINUOUS
 10
-69.375900000000001
 20
-15.40480000000001
 30
0.0
 70
    32
  0
VERTEX
  5
478C
  8
240
  6
CONTINUOUS
 10
-69.652900000000002
 20
-15.672000000000009
 30
0.0
 70
    32
  0
VERTEX
  5
478D
  8
240
  6
CONTINUOUS
 10
-69.933499999999995
 20
-15.937300000000009
 30
0.0
 70
    32
  0
VERTEX
  5
478E
  8
240
  6
CONTINUOUS
 10
-70.217500000000001
 20
-16.200800000000012
 30
0.0
 70
    32
  0
VERTEX
  5
478F
  8
240
  6
CONTINUOUS
 10
-70.504900000000021
 20
-16.462400000000009
 30
0.0
 70
    32
  0
VERTEX
  5
4790
  8
240
  6
CONTINUOUS
 10
-70.795599999999979
 20
-16.722000000000008
 30
0.0
 70
    32
  0
VERTEX
  5
4791
  8
240
  6
CONTINUOUS
 10
-71.089699999999979
 20
-16.979700000000008
 30
0.0
 70
    32
  0
VERTEX
  5
4792
  8
240
  6
CONTINUOUS
 10
-71.386899999999997
 20
-17.235400000000009
 30
0.0
 70
    32
  0
VERTEX
  5
4793
  8
240
  6
CONTINUOUS
 10
-71.687200000000004
 20
-17.489100000000011
 30
0.0
 70
    32
  0
VERTEX
  5
4794
  8
240
  6
CONTINUOUS
 10
-71.990700000000004
 20
-17.740700000000011
 30
0.0
 70
    32
  0
VERTEX
  5
4795
  8
240
  6
CONTINUOUS
 10
-72.2971
 20
-17.990200000000009
 30
0.0
 70
    32
  0
VERTEX
  5
4796
  8
240
  6
CONTINUOUS
 10
-72.606399999999979
 20
-18.237600000000011
 30
0.0
 70
    32
  0
VERTEX
  5
4797
  8
240
  6
CONTINUOUS
 10
-72.918700000000001
 20
-18.482800000000012
 30
0.0
 70
    32
  0
VERTEX
  5
4798
  8
240
  6
CONTINUOUS
 10
-73.233699999999999
 20
-18.72580000000001
 30
0.0
 70
    32
  0
VERTEX
  5
4799
  8
240
  6
CONTINUOUS
 10
-73.551500000000004
 20
-18.96660000000001
 30
0.0
 70
    32
  0
VERTEX
  5
479A
  8
240
  6
CONTINUOUS
 10
-73.871899999999982
 20
-19.205100000000009
 30
0.0
 70
    32
  0
VERTEX
  5
479B
  8
240
  6
CONTINUOUS
 10
-74.194999999999979
 20
-19.441300000000009
 30
0.0
 70
    32
  0
VERTEX
  5
479C
  8
240
  6
CONTINUOUS
 10
-74.520499999999984
 20
-19.675200000000011
 30
0.0
 70
    32
  0
VERTEX
  5
479D
  8
240
  6
CONTINUOUS
 10
-74.848600000000005
 20
-19.906600000000012
 30
0.0
 70
    32
  0
VERTEX
  5
479E
  8
240
  6
CONTINUOUS
 10
-75.179000000000002
 20
-20.135700000000011
 30
0.0
 70
    32
  0
VERTEX
  5
479F
  8
240
  6
CONTINUOUS
 10
-75.51179999999998
 20
-20.362400000000012
 30
0.0
 70
    32
  0
VERTEX
  5
47A0
  8
240
  6
CONTINUOUS
 10
-75.846800000000002
 20
-20.586600000000011
 30
0.0
 70
    32
  0
VERTEX
  5
47A1
  8
240
  6
CONTINUOUS
 10
-76.184100000000001
 20
-20.80820000000001
 30
0.0
 70
    32
  0
VERTEX
  5
47A2
  8
240
  6
CONTINUOUS
 10
-76.523399999999981
 20
-21.027300000000011
 30
0.0
 70
    32
  0
VERTEX
  5
47A3
  8
240
  6
CONTINUOUS
 10
-76.864900000000006
 20
-21.243900000000011
 30
0.0
 70
    32
  0
VERTEX
  5
47A4
  8
240
  6
CONTINUOUS
 10
-77.20829999999998
 20
-21.45780000000001
 30
0.0
 70
    32
  0
VERTEX
  5
47A5
  8
240
  6
CONTINUOUS
 10
-77.553700000000006
 20
-21.669100000000011
 30
0.0
 70
    32
  0
VERTEX
  5
47A6
  8
240
  6
CONTINUOUS
 10
-77.900999999999982
 20
-21.877700000000011
 30
0.0
 70
    32
  0
VERTEX
  5
47A7
  8
240
  6
CONTINUOUS
 10
-78.25
 20
-22.083600000000011
 30
0.0
 70
    32
  0
SEQEND
  5
47A8
  8
240
  6
CONTINUOUS
  0
POLYLINE
  5
47A9
  8
240
  6
CONTINUOUS
 66
     1
 10
0.0
 20
0.0
 30
0.0
 70
     8
  0
VERTEX
  5
47AA
  8
240
  6
CONTINUOUS
 10
-116.5
 20
0.000000003068881
 30
0.0
 70
    32
  0
VERTEX
  5
47AB
  8
240
  6
CONTINUOUS
 10
-116.501
 20
0.407711999999991
 30
0.0
 70
    32
  0
VERTEX
  5
47AC
  8
240
  6
CONTINUOUS
 10
-116.498
 20
0.8151439999999908
 30
0.0
 70
    32
  0
VERTEX
  5
47AD
  8
240
  6
CONTINUOUS
 10
-116.492
 20
1.2222199999999901
 30
0.0
 70
    32
  0
VERTEX
  5
47AE
  8
240
  6
CONTINUOUS
 10
-116.482
 20
1.62886999999999
 30
0.0
 70
    32
  0
VERTEX
  5
47AF
  8
240
  6
CONTINUOUS
 10
-116.46899999999999
 20
2.0350199999999901
 30
0.0
 70
    32
  0
VERTEX
  5
47B0
  8
240
  6
CONTINUOUS
 10
-116.453
 20
2.44058999999999
 30
0.0
 70
    32
  0
VERTEX
  5
47B1
  8
240
  6
CONTINUOUS
 10
-116.43300000000001
 20
2.8455099999999902
 30
0.0
 70
    32
  0
VERTEX
  5
47B2
  8
240
  6
CONTINUOUS
 10
-116.41
 20
3.24969999999999
 30
0.0
 70
    32
  0
VERTEX
  5
47B3
  8
240
  6
CONTINUOUS
 10
-116.383
 20
3.65309999999999
 30
0.0
 70
    32
  0
VERTEX
  5
47B4
  8
240
  6
CONTINUOUS
 10
-116.352
 20
4.0556099999999891
 30
0.0
 70
    32
  0
VERTEX
  5
47B5
  8
240
  6
CONTINUOUS
 10
-116.319
 20
4.4571799999999913
 30
0.0
 70
    32
  0
VERTEX
  5
47B6
  8
240
  6
CONTINUOUS
 10
-116.28100000000001
 20
4.8577299999999912
 30
0.0
 70
    32
  0
VERTEX
  5
47B7
  8
240
  6
CONTINUOUS
 10
-116.241
 20
5.2571799999999902
 30
0.0
 70
    32
  0
VERTEX
  5
47B8
  8
240
  6
CONTINUOUS
 10
-116.197
 20
5.6554599999999891
 30
0.0
 70
    32
  0
VERTEX
  5
47B9
  8
240
  6
CONTINUOUS
 10
-116.149
 20
6.052489999999989
 30
0.0
 70
    32
  0
VERTEX
  5
47BA
  8
240
  6
CONTINUOUS
 10
-116.098
 20
6.4481999999999902
 30
0.0
 70
    32
  0
VERTEX
  5
47BB
  8
240
  6
CONTINUOUS
 10
-116.04300000000001
 20
6.8425199999999897
 30
0.0
 70
    32
  0
VERTEX
  5
47BC
  8
240
  6
CONTINUOUS
 10
-115.985
 20
7.235369999999989
 30
0.0
 70
    32
  0
VERTEX
  5
47BD
  8
240
  6
CONTINUOUS
 10
-115.92400000000001
 20
7.6266699999999901
 30
0.0
 70
    32
  0
VERTEX
  5
47BE
  8
240
  6
CONTINUOUS
 10
-115.85899999999999
 20
8.0163599999999917
 30
0.0
 70
    32
  0
VERTEX
  5
47BF
  8
240
  6
CONTINUOUS
 10
-115.791
 20
8.4043499999999902
 30
0.0
 70
    32
  0
VERTEX
  5
47C0
  8
240
  6
CONTINUOUS
 10
-115.71899999999999
 20
8.7905799999999914
 30
0.0
 70
    32
  0
VERTEX
  5
47C1
  8
240
  6
CONTINUOUS
 10
-115.64400000000001
 20
9.1749599999999916
 30
0.0
 70
    32
  0
VERTEX
  5
47C2
  8
240
  6
CONTINUOUS
 10
-115.565
 20
9.5574299999999912
 30
0.0
 70
    32
  0
VERTEX
  5
47C3
  8
240
  6
CONTINUOUS
 10
-115.483
 20
9.9379199999999912
 30
0.0
 70
    32
  0
VERTEX
  5
47C4
  8
240
  6
CONTINUOUS
 10
-115.39700000000001
 20
10.316299999999989
 30
0.0
 70
    32
  0
VERTEX
  5
47C5
  8
240
  6
CONTINUOUS
 10
-115.30800000000001
 20
10.69259999999999
 30
0.0
 70
    32
  0
VERTEX
  5
47C6
  8
240
  6
CONTINUOUS
 10
-115.215
 20
11.06669999999999
 30
0.0
 70
    32
  0
VERTEX
  5
47C7
  8
240
  6
CONTINUOUS
 10
-115.119
 20
11.438499999999991
 30
0.0
 70
    32
  0
VERTEX
  5
47C8
  8
240
  6
CONTINUOUS
 10
-115.02
 20
11.807899999999989
 30
0.0
 70
    32
  0
VERTEX
  5
47C9
  8
240
  6
CONTINUOUS
 10
-114.917
 20
12.17489999999999
 30
0.0
 70
    32
  0
VERTEX
  5
47CA
  8
240
  6
CONTINUOUS
 10
-114.81
 20
12.53929999999999
 30
0.0
 70
    32
  0
VERTEX
  5
47CB
  8
240
  6
CONTINUOUS
 10
-114.7
 20
12.90119999999999
 30
0.0
 70
    32
  0
VERTEX
  5
47CC
  8
240
  6
CONTINUOUS
 10
-114.587
 20
13.26049999999999
 30
0.0
 70
    32
  0
VERTEX
  5
47CD
  8
240
  6
CONTINUOUS
 10
-114.47
 20
13.61699999999999
 30
0.0
 70
    32
  0
VERTEX
  5
47CE
  8
240
  6
CONTINUOUS
 10
-114.34999999999999
 20
13.97059999999999
 30
0.0
 70
    32
  0
VERTEX
  5
47CF
  8
240
  6
CONTINUOUS
 10
-114.226
 20
14.32149999999999
 30
0.0
 70
    32
  0
VERTEX
  5
47D0
  8
240
  6
CONTINUOUS
 10
-114.098
 20
14.669299999999989
 30
0.0
 70
    32
  0
VERTEX
  5
47D1
  8
240
  6
CONTINUOUS
 10
-113.968
 20
15.01409999999999
 30
0.0
 70
    32
  0
VERTEX
  5
47D2
  8
240
  6
CONTINUOUS
 10
-113.833
 20
15.35579999999999
 30
0.0
 70
    32
  0
VERTEX
  5
47D3
  8
240
  6
CONTINUOUS
 10
-113.696
 20
15.694399999999989
 30
0.0
 70
    32
  0
VERTEX
  5
47D4
  8
240
  6
CONTINUOUS
 10
-113.55500000000001
 20
16.029699999999991
 30
0.0
 70
    32
  0
VERTEX
  5
47D5
  8
240
  6
CONTINUOUS
 10
-113.41
 20
16.361599999999989
 30
0.0
 70
    32
  0
VERTEX
  5
47D6
  8
240
  6
CONTINUOUS
 10
-113.262
 20
16.69019999999999
 30
0.0
 70
    32
  0
VERTEX
  5
47D7
  8
240
  6
CONTINUOUS
 10
-113.11
 20
17.015299999999989
 30
0.0
 70
    32
  0
VERTEX
  5
47D8
  8
240
  6
CONTINUOUS
 10
-112.955
 20
17.33679999999999
 30
0.0
 70
    32
  0
VERTEX
  5
47D9
  8
240
  6
CONTINUOUS
 10
-112.797
 20
17.654699999999981
 30
0.0
 70
    32
  0
VERTEX
  5
47DA
  8
240
  6
CONTINUOUS
 10
-112.63500000000001
 20
17.968899999999991
 30
0.0
 70
    32
  0
VERTEX
  5
47DB
  8
240
  6
CONTINUOUS
 10
-112.46899999999999
 20
18.279299999999989
 30
0.0
 70
    32
  0
VERTEX
  5
47DC
  8
240
  6
CONTINUOUS
 10
-112.3
 20
18.585899999999992
 30
0.0
 70
    32
  0
VERTEX
  5
47DD
  8
240
  6
CONTINUOUS
 10
-112.128
 20
18.88859999999999
 30
0.0
 70
    32
  0
VERTEX
  5
47DE
  8
240
  6
CONTINUOUS
 10
-111.952
 20
19.18719999999999
 30
0.0
 70
    32
  0
VERTEX
  5
47DF
  8
240
  6
CONTINUOUS
 10
-111.77200000000001
 20
19.481799999999989
 30
0.0
 70
    32
  0
VERTEX
  5
47E0
  8
240
  6
CONTINUOUS
 10
-111.59
 20
19.772299999999991
 30
0.0
 70
    32
  0
VERTEX
  5
47E1
  8
240
  6
CONTINUOUS
 10
-111.40300000000001
 20
20.058499999999992
 30
0.0
 70
    32
  0
VERTEX
  5
47E2
  8
240
  6
CONTINUOUS
 10
-111.21299999999999
 20
20.340399999999988
 30
0.0
 70
    32
  0
VERTEX
  5
47E3
  8
240
  6
CONTINUOUS
 10
-111.02
 20
20.617999999999991
 30
0.0
 70
    32
  0
VERTEX
  5
47E4
  8
240
  6
CONTINUOUS
 10
-110.82299999999999
 20
20.891099999999991
 30
0.0
 70
    32
  0
VERTEX
  5
47E5
  8
240
  6
CONTINUOUS
 10
-110.623
 20
21.15969999999999
 30
0.0
 70
    32
  0
VERTEX
  5
47E6
  8
240
  6
CONTINUOUS
 10
-110.419
 20
21.42369999999999
 30
0.0
 70
    32
  0
VERTEX
  5
47E7
  8
240
  6
CONTINUOUS
 10
-110.212
 20
21.683099999999989
 30
0.0
 70
    32
  0
VERTEX
  5
47E8
  8
240
  6
CONTINUOUS
 10
-110.001
 20
21.937699999999989
 30
0.0
 70
    32
  0
VERTEX
  5
47E9
  8
240
  6
CONTINUOUS
 10
-109.78700000000001
 20
22.187499999999989
 30
0.0
 70
    32
  0
VERTEX
  5
47EA
  8
240
  6
CONTINUOUS
 10
-109.56999999999999
 20
22.432399999999991
 30
0.0
 70
    32
  0
VERTEX
  5
47EB
  8
240
  6
CONTINUOUS
 10
-109.348
 20
22.672299999999989
 30
0.0
 70
    32
  0
VERTEX
  5
47EC
  8
240
  6
CONTINUOUS
 10
-109.124
 20
22.907199999999989
 30
0.0
 70
    32
  0
VERTEX
  5
47ED
  8
240
  6
CONTINUOUS
 10
-108.896
 20
23.136999999999979
 30
0.0
 70
    32
  0
VERTEX
  5
47EE
  8
240
  6
CONTINUOUS
 10
-108.664
 20
23.361599999999989
 30
0.0
 70
    32
  0
VERTEX
  5
47EF
  8
240
  6
CONTINUOUS
 10
-108.429
 20
23.580999999999989
 30
0.0
 70
    32
  0
VERTEX
  5
47F0
  8
240
  6
CONTINUOUS
 10
-108.19
 20
23.794999999999991
 30
0.0
 70
    32
  0
VERTEX
  5
47F1
  8
240
  6
CONTINUOUS
 10
-107.94799999999999
 20
24.003599999999992
 30
0.0
 70
    32
  0
VERTEX
  5
47F2
  8
240
  6
CONTINUOUS
 10
-107.703
 20
24.206699999999991
 30
0.0
 70
    32
  0
VERTEX
  5
47F3
  8
240
  6
CONTINUOUS
 10
-107.45399999999999
 20
24.404199999999989
 30
0.0
 70
    32
  0
VERTEX
  5
47F4
  8
240
  6
CONTINUOUS
 10
-107.20099999999999
 20
24.596199999999989
 30
0.0
 70
    32
  0
VERTEX
  5
47F5
  8
240
  6
CONTINUOUS
 10
-106.94499999999999
 20
24.782399999999988
 30
0.0
 70
    32
  0
VERTEX
  5
47F6
  8
240
  6
CONTINUOUS
 10
-106.68600000000001
 20
24.962799999999991
 30
0.0
 70
    32
  0
VERTEX
  5
47F7
  8
240
  6
CONTINUOUS
 10
-106.423
 20
25.137399999999989
 30
0.0
 70
    32
  0
VERTEX
  5
47F8
  8
240
  6
CONTINUOUS
 10
-106.15600000000001
 20
25.30609999999999
 30
0.0
 70
    32
  0
VERTEX
  5
47F9
  8
240
  6
CONTINUOUS
 10
-105.886
 20
25.468699999999991
 30
0.0
 70
    32
  0
VERTEX
  5
47FA
  8
240
  6
CONTINUOUS
 10
-105.613
 20
25.625299999999989
 30
0.0
 70
    32
  0
VERTEX
  5
47FB
  8
240
  6
CONTINUOUS
 10
-105.336
 20
25.77579999999999
 30
0.0
 70
    32
  0
VERTEX
  5
47FC
  8
240
  6
CONTINUOUS
 10
-105.056
 20
25.920199999999991
 30
0.0
 70
    32
  0
VERTEX
  5
47FD
  8
240
  6
CONTINUOUS
 10
-104.77200000000001
 20
26.058599999999991
 30
0.0
 70
    32
  0
VERTEX
  5
47FE
  8
240
  6
CONTINUOUS
 10
-104.485
 20
26.190999999999988
 30
0.0
 70
    32
  0
VERTEX
  5
47FF
  8
240
  6
CONTINUOUS
 10
-104.19499999999999
 20
26.317499999999988
 30
0.0
 70
    32
  0
VERTEX
  5
4800
  8
240
  6
CONTINUOUS
 10
-103.902
 20
26.438099999999991
 30
0.0
 70
    32
  0
VERTEX
  5
4801
  8
240
  6
CONTINUOUS
 10
-103.605
 20
26.55289999999999
 30
0.0
 70
    32
  0
VERTEX
  5
4802
  8
240
  6
CONTINUOUS
 10
-103.306
 20
26.661899999999989
 30
0.0
 70
    32
  0
VERTEX
  5
4803
  8
240
  6
CONTINUOUS
 10
-103.004
 20
26.76509999999999
 30
0.0
 70
    32
  0
VERTEX
  5
4804
  8
240
  6
CONTINUOUS
 10
-102.699
 20
26.86249999999999
 30
0.0
 70
    32
  0
VERTEX
  5
4805
  8
240
  6
CONTINUOUS
 10
-102.39
 20
26.954299999999989
 30
0.0
 70
    32
  0
VERTEX
  5
4806
  8
240
  6
CONTINUOUS
 10
-102.08
 20
27.040399999999991
 30
0.0
 70
    32
  0
VERTEX
  5
4807
  8
240
  6
CONTINUOUS
 10
-101.76600000000001
 20
27.120899999999988
 30
0.0
 70
    32
  0
VERTEX
  5
4808
  8
240
  6
CONTINUOUS
 10
-101.45
 20
27.195899999999991
 30
0.0
 70
    32
  0
VERTEX
  5
4809
  8
240
  6
CONTINUOUS
 10
-101.131
 20
27.265299999999989
 30
0.0
 70
    32
  0
VERTEX
  5
480A
  8
240
  6
CONTINUOUS
 10
-100.81
 20
27.32919999999999
 30
0.0
 70
    32
  0
VERTEX
  5
480B
  8
240
  6
CONTINUOUS
 10
-100.486
 20
27.387799999999991
 30
0.0
 70
    32
  0
VERTEX
  5
480C
  8
240
  6
CONTINUOUS
 10
-100.16
 20
27.440899999999989
 30
0.0
 70
    32
  0
VERTEX
  5
480D
  8
240
  6
CONTINUOUS
 10
-99.831900000000005
 20
27.488599999999991
 30
0.0
 70
    32
  0
VERTEX
  5
480E
  8
240
  6
CONTINUOUS
 10
-99.501199999999997
 20
27.530999999999992
 30
0.0
 70
    32
  0
VERTEX
  5
480F
  8
240
  6
CONTINUOUS
 10
-99.168300000000002
 20
27.568099999999991
 30
0.0
 70
    32
  0
VERTEX
  5
4810
  8
240
  6
CONTINUOUS
 10
-98.833299999999994
 20
27.599999999999991
 30
0.0
 70
    32
  0
VERTEX
  5
4811
  8
240
  6
CONTINUOUS
 10
-98.496200000000016
 20
27.626699999999989
 30
0.0
 70
    32
  0
VERTEX
  5
4812
  8
240
  6
CONTINUOUS
 10
-98.157100000000014
 20
27.648299999999988
 30
0.0
 70
    32
  0
VERTEX
  5
4813
  8
240
  6
CONTINUOUS
 10
-97.816100000000006
 20
27.664699999999989
 30
0.0
 70
    32
  0
VERTEX
  5
4814
  8
240
  6
CONTINUOUS
 10
-97.473200000000006
 20
27.676099999999991
 30
0.0
 70
    32
  0
VERTEX
  5
4815
  8
240
  6
CONTINUOUS
 10
-97.128399999999985
 20
27.682399999999991
 30
0.0
 70
    32
  0
VERTEX
  5
4816
  8
240
  6
CONTINUOUS
 10
-96.781899999999993
 20
27.683699999999991
 30
0.0
 70
    32
  0
VERTEX
  5
4817
  8
240
  6
CONTINUOUS
 10
-96.433700000000002
 20
27.680099999999989
 30
0.0
 70
    32
  0
VERTEX
  5
4818
  8
240
  6
CONTINUOUS
 10
-96.083899999999986
 20
27.671499999999991
 30
0.0
 70
    32
  0
VERTEX
  5
4819
  8
240
  6
CONTINUOUS
 10
-95.732399999999998
 20
27.65809999999999
 30
0.0
 70
    32
  0
VERTEX
  5
481A
  8
240
  6
CONTINUOUS
 10
-95.379499999999993
 20
27.63989999999999
 30
0.0
 70
    32
  0
VERTEX
  5
481B
  8
240
  6
CONTINUOUS
 10
-95.025199999999998
 20
27.616799999999991
 30
0.0
 70
    32
  0
VERTEX
  5
481C
  8
240
  6
CONTINUOUS
 10
-94.669399999999996
 20
27.588999999999992
 30
0.0
 70
    32
  0
VERTEX
  5
481D
  8
240
  6
CONTINUOUS
 10
-94.312299999999993
 20
27.556499999999989
 30
0.0
 70
    32
  0
VERTEX
  5
481E
  8
240
  6
CONTINUOUS
 10
-93.953999999999994
 20
27.51939999999999
 30
0.0
 70
    32
  0
VERTEX
  5
481F
  8
240
  6
CONTINUOUS
 10
-93.594499999999996
 20
27.477599999999988
 30
0.0
 70
    32
  0
VERTEX
  5
4820
  8
240
  6
CONTINUOUS
 10
-93.233800000000002
 20
27.43119999999999
 30
0.0
 70
    32
  0
VERTEX
  5
4821
  8
240
  6
CONTINUOUS
 10
-92.872099999999989
 20
27.380299999999991
 30
0.0
 70
    32
  0
VERTEX
  5
4822
  8
240
  6
CONTINUOUS
 10
-92.509399999999985
 20
27.324799999999989
 30
0.0
 70
    32
  0
VERTEX
  5
4823
  8
240
  6
CONTINUOUS
 10
-92.145700000000005
 20
27.26489999999999
 30
0.0
 70
    32
  0
VERTEX
  5
4824
  8
240
  6
CONTINUOUS
 10
-91.781199999999984
 20
27.200599999999991
 30
0.0
 70
    32
  0
VERTEX
  5
4825
  8
240
  6
CONTINUOUS
 10
-91.415800000000004
 20
27.131899999999991
 30
0.0
 70
    32
  0
VERTEX
  5
4826
  8
240
  6
CONTINUOUS
 10
-91.049699999999987
 20
27.058899999999991
 30
0.0
 70
    32
  0
VERTEX
  5
4827
  8
240
  6
CONTINUOUS
 10
-90.682900000000004
 20
26.98149999999999
 30
0.0
 70
    32
  0
VERTEX
  5
4828
  8
240
  6
CONTINUOUS
 10
-90.315500000000014
 20
26.899899999999992
 30
0.0
 70
    32
  0
VERTEX
  5
4829
  8
240
  6
CONTINUOUS
 10
-89.947500000000005
 20
26.814099999999989
 30
0.0
 70
    32
  0
VERTEX
  5
482A
  8
240
  6
CONTINUOUS
 10
-89.578999999999979
 20
26.724099999999989
 30
0.0
 70
    32
  0
VERTEX
  5
482B
  8
240
  6
CONTINUOUS
 10
-89.209999999999965
 20
26.629999999999988
 30
0.0
 70
    32
  0
VERTEX
  5
482C
  8
240
  6
CONTINUOUS
 10
-88.840699999999984
 20
26.53169999999999
 30
0.0
 70
    32
  0
VERTEX
  5
482D
  8
240
  6
CONTINUOUS
 10
-88.471100000000007
 20
26.42939999999999
 30
0.0
 70
    32
  0
VERTEX
  5
482E
  8
240
  6
CONTINUOUS
 10
-88.101200000000006
 20
26.32309999999999
 30
0.0
 70
    32
  0
VERTEX
  5
482F
  8
240
  6
CONTINUOUS
 10
-87.731200000000001
 20
26.212799999999991
 30
0.0
 70
    32
  0
VERTEX
  5
4830
  8
240
  6
CONTINUOUS
 10
-87.361000000000004
 20
26.09859999999999
 30
0.0
 70
    32
  0
VERTEX
  5
4831
  8
240
  6
CONTINUOUS
 10
-86.990700000000004
 20
25.980499999999989
 30
0.0
 70
    32
  0
VERTEX
  5
4832
  8
240
  6
CONTINUOUS
 10
-86.620500000000007
 20
25.858499999999989
 30
0.0
 70
    32
  0
VERTEX
  5
4833
  8
240
  6
CONTINUOUS
 10
-86.250299999999982
 20
25.732699999999991
 30
0.0
 70
    32
  0
VERTEX
  5
4834
  8
240
  6
CONTINUOUS
 10
-85.880200000000002
 20
25.60319999999999
 30
0.0
 70
    32
  0
VERTEX
  5
4835
  8
240
  6
CONTINUOUS
 10
-85.510400000000004
 20
25.469899999999988
 30
0.0
 70
    32
  0
VERTEX
  5
4836
  8
240
  6
CONTINUOUS
 10
-85.140799999999984
 20
25.332899999999992
 30
0.0
 70
    32
  0
VERTEX
  5
4837
  8
240
  6
CONTINUOUS
 10
-84.771499999999989
 20
25.192299999999989
 30
0.0
 70
    32
  0
VERTEX
  5
4838
  8
240
  6
CONTINUOUS
 10
-84.402600000000007
 20
25.048099999999991
 30
0.0
 70
    32
  0
VERTEX
  5
4839
  8
240
  6
CONTINUOUS
 10
-84.034099999999995
 20
24.900299999999991
 30
0.0
 70
    32
  0
VERTEX
  5
483A
  8
240
  6
CONTINUOUS
 10
-83.666099999999986
 20
24.748999999999992
 30
0.0
 70
    32
  0
VERTEX
  5
483B
  8
240
  6
CONTINUOUS
 10
-83.298699999999968
 20
24.59419999999999
 30
0.0
 70
    32
  0
VERTEX
  5
483C
  8
240
  6
CONTINUOUS
 10
-82.931899999999999
 20
24.43589999999999
 30
0.0
 70
    32
  0
VERTEX
  5
483D
  8
240
  6
CONTINUOUS
 10
-82.565899999999999
 20
24.27419999999999
 30
0.0
 70
    32
  0
VERTEX
  5
483E
  8
240
  6
CONTINUOUS
 10
-82.20059999999998
 20
24.109199999999991
 30
0.0
 70
    32
  0
VERTEX
  5
483F
  8
240
  6
CONTINUOUS
 10
-81.836099999999988
 20
23.940899999999989
 30
0.0
 70
    32
  0
VERTEX
  5
4840
  8
240
  6
CONTINUOUS
 10
-81.472399999999979
 20
23.769199999999991
 30
0.0
 70
    32
  0
VERTEX
  5
4841
  8
240
  6
CONTINUOUS
 10
-81.109800000000007
 20
23.59439999999999
 30
0.0
 70
    32
  0
VERTEX
  5
4842
  8
240
  6
CONTINUOUS
 10
-80.748099999999965
 20
23.416299999999989
 30
0.0
 70
    32
  0
VERTEX
  5
4843
  8
240
  6
CONTINUOUS
 10
-80.387500000000003
 20
23.235099999999989
 30
0.0
 70
    32
  0
VERTEX
  5
4844
  8
240
  6
CONTINUOUS
 10
-80.028099999999981
 20
23.050699999999988
 30
0.0
 70
    32
  0
VERTEX
  5
4845
  8
240
  6
CONTINUOUS
 10
-79.669799999999981
 20
22.863299999999992
 30
0.0
 70
    32
  0
VERTEX
  5
4846
  8
240
  6
CONTINUOUS
 10
-79.312799999999982
 20
22.672899999999991
 30
0.0
 70
    32
  0
VERTEX
  5
4847
  8
240
  6
CONTINUOUS
 10
-78.957099999999983
 20
22.479399999999991
 30
0.0
 70
    32
  0
VERTEX
  5
4848
  8
240
  6
CONTINUOUS
 10
-78.602800000000002
 20
22.282999999999991
 30
0.0
 70
    32
  0
VERTEX
  5
4849
  8
240
  6
CONTINUOUS
 10
-78.25
 20
22.08359999999999
 30
0.0
 70
    32
  0
SEQEND
  5
484A
  8
240
  6
CONTINUOUS
  0
POLYLINE
  5
484B
  8
240
  6
CONTINUOUS
 66
     1
 10
0.0
 20
0.0
 30
0.0
 70
     8
  0
VERTEX
  5
484C
  8
240
  6
CONTINUOUS
 10
-78.25
 20
-22.083600000000011
 30
0.0
 70
    32
  0
VERTEX
  5
484D
  8
240
  6
CONTINUOUS
 10
-78.602699999999984
 20
-22.28820000000001
 30
0.0
 70
    32
  0
VERTEX
  5
484E
  8
240
  6
CONTINUOUS
 10
-78.956900000000005
 20
-22.48960000000001
 30
0.0
 70
    32
  0
VERTEX
  5
484F
  8
240
  6
CONTINUOUS
 10
-79.3125
 20
-22.68780000000001
 30
0.0
 70
    32
  0
VERTEX
  5
4850
  8
240
  6
CONTINUOUS
 10
-79.669399999999982
 20
-22.88280000000001
 30
0.0
 70
    32
  0
VERTEX
  5
4851
  8
240
  6
CONTINUOUS
 10
-80.027699999999982
 20
-23.074600000000011
 30
0.0
 70
    32
  0
VERTEX
  5
4852
  8
240
  6
CONTINUOUS
 10
-80.387200000000007
 20
-23.263100000000009
 30
0.0
 70
    32
  0
VERTEX
  5
4853
  8
240
  6
CONTINUOUS
 10
-80.747799999999998
 20
-23.44830000000001
 30
0.0
 70
    32
  0
VERTEX
  5
4854
  8
240
  6
CONTINUOUS
 10
-81.1096
 20
-23.630100000000009
 30
0.0
 70
    32
  0
VERTEX
  5
4855
  8
240
  6
CONTINUOUS
 10
-81.472300000000004
 20
-23.808600000000009
 30
0.0
 70
    32
  0
VERTEX
  5
4856
  8
240
  6
CONTINUOUS
 10
-81.836099999999988
 20
-23.98360000000001
 30
0.0
 70
    32
  0
VERTEX
  5
4857
  8
240
  6
CONTINUOUS
 10
-82.200699999999969
 20
-24.155100000000012
 30
0.0
 70
    32
  0
VERTEX
  5
4858
  8
240
  6
CONTINUOUS
 10
-82.566199999999981
 20
-24.323200000000011
 30
0.0
 70
    32
  0
VERTEX
  5
4859
  8
240
  6
CONTINUOUS
 10
-82.932500000000005
 20
-24.487700000000011
 30
0.0
 70
    32
  0
VERTEX
  5
485A
  8
240
  6
CONTINUOUS
 10
-83.299499999999981
 20
-24.648600000000009
 30
0.0
 70
    32
  0
VERTEX
  5
485B
  8
240
  6
CONTINUOUS
 10
-83.667100000000005
 20
-24.805900000000008
 30
0.0
 70
    32
  0
VERTEX
  5
485C
  8
240
  6
CONTINUOUS
 10
-84.035399999999967
 20
-24.959500000000009
 30
0.0
 70
    32
  0
VERTEX
  5
485D
  8
240
  6
CONTINUOUS
 10
-84.404099999999985
 20
-25.109400000000011
 30
0.0
 70
    32
  0
VERTEX
  5
485E
  8
240
  6
CONTINUOUS
 10
-84.773300000000006
 20
-25.255700000000012
 30
0.0
 70
    32
  0
VERTEX
  5
485F
  8
240
  6
CONTINUOUS
 10
-85.142899999999983
 20
-25.39810000000001
 30
0.0
 70
    32
  0
VERTEX
  5
4860
  8
240
  6
CONTINUOUS
 10
-85.512799999999999
 20
-25.53670000000001
 30
0.0
 70
    32
  0
VERTEX
  5
4861
  8
240
  6
CONTINUOUS
 10
-85.882999999999981
 20
-25.67150000000002
 30
0.0
 70
    32
  0
VERTEX
  5
4862
  8
240
  6
CONTINUOUS
 10
-86.253399999999985
 20
-25.802400000000009
 30
0.0
 70
    32
  0
VERTEX
  5
4863
  8
240
  6
CONTINUOUS
 10
-86.623999999999981
 20
-25.929400000000012
 30
0.0
 70
    32
  0
VERTEX
  5
4864
  8
240
  6
CONTINUOUS
 10
-86.994600000000005
 20
-26.052500000000009
 30
0.0
 70
    32
  0
VERTEX
  5
4865
  8
240
  6
CONTINUOUS
 10
-87.365200000000002
 20
-26.171500000000009
 30
0.0
 70
    32
  0
VERTEX
  5
4866
  8
240
  6
CONTINUOUS
 10
-87.735699999999966
 20
-26.286500000000011
 30
0.0
 70
    32
  0
VERTEX
  5
4867
  8
240
  6
CONTINUOUS
 10
-88.106200000000001
 20
-26.397500000000012
 30
0.0
 70
    32
  0
VERTEX
  5
4868
  8
240
  6
CONTINUOUS
 10
-88.476399999999998
 20
-26.504300000000011
 30
0.0
 70
    32
  0
VERTEX
  5
4869
  8
240
  6
CONTINUOUS
 10
-88.846500000000006
 20
-26.60700000000001
 30
0.0
 70
    32
  0
VERTEX
  5
486A
  8
240
  6
CONTINUOUS
 10
-89.216099999999983
 20
-26.705500000000011
 30
0.0
 70
    32
  0
VERTEX
  5
486B
  8
240
  6
CONTINUOUS
 10
-89.585499999999982
 20
-26.799800000000008
 30
0.0
 70
    32
  0
VERTEX
  5
486C
  8
240
  6
CONTINUOUS
 10
-89.954300000000003
 20
-26.889800000000012
 30
0.0
 70
    32
  0
VERTEX
  5
486D
  8
240
  6
CONTINUOUS
 10
-90.322699999999998
 20
-26.975500000000011
 30
0.0
 70
    32
  0
VERTEX
  5
486E
  8
240
  6
CONTINUOUS
 10
-90.6905
 20
-27.056900000000009
 30
0.0
 70
    32
  0
VERTEX
  5
486F
  8
240
  6
CONTINUOUS
 10
-91.057699999999997
 20
-27.134000000000011
 30
0.0
 70
    32
  0
VERTEX
  5
4870
  8
240
  6
CONTINUOUS
 10
-91.424199999999985
 20
-27.206600000000009
 30
0.0
 70
    32
  0
VERTEX
  5
4871
  8
240
  6
CONTINUOUS
 10
-91.789900000000003
 20
-27.27480000000001
 30
0.0
 70
    32
  0
VERTEX
  5
4872
  8
240
  6
CONTINUOUS
 10
-92.154799999999994
 20
-27.33850000000001
 30
0.0
 70
    32
  0
VERTEX
  5
4873
  8
240
  6
CONTINUOUS
 10
-92.518799999999985
 20
-27.397600000000011
 30
0.0
 70
    32
  0
VERTEX
  5
4874
  8
240
  6
CONTINUOUS
 10
-92.881799999999998
 20
-27.452200000000008
 30
0.0
 70
    32
  0
VERTEX
  5
4875
  8
240
  6
CONTINUOUS
 10
-93.243899999999996
 20
-27.502300000000009
 30
0.0
 70
    32
  0
VERTEX
  5
4876
  8
240
  6
CONTINUOUS
 10
-93.604799999999997
 20
-27.54770000000001
 30
0.0
 70
    32
  0
VERTEX
  5
4877
  8
240
  6
CONTINUOUS
 10
-93.964600000000004
 20
-27.588400000000011
 30
0.0
 70
    32
  0
VERTEX
  5
4878
  8
240
  6
CONTINUOUS
 10
-94.3232
 20
-27.624400000000019
 30
0.0
 70
    32
  0
VERTEX
  5
4879
  8
240
  6
CONTINUOUS
 10
-94.680499999999995
 20
-27.65560000000001
 30
0.0
 70
    32
  0
VERTEX
  5
487A
  8
240
  6
CONTINUOUS
 10
-95.036500000000004
 20
-27.682100000000009
 30
0.0
 70
    32
  0
VERTEX
  5
487B
  8
240
  6
CONTINUOUS
 10
-95.391099999999994
 20
-27.703800000000012
 30
0.0
 70
    32
  0
VERTEX
  5
487C
  8
240
  6
CONTINUOUS
 10
-95.744200000000006
 20
-27.720600000000012
 30
0.0
 70
    32
  0
VERTEX
  5
487D
  8
240
  6
CONTINUOUS
 10
-96.095800000000011
 20
-27.732500000000009
 30
0.0
 70
    32
  0
VERTEX
  5
487E
  8
240
  6
CONTINUOUS
 10
-96.445800000000006
 20
-27.73940000000001
 30
0.0
 70
    32
  0
VERTEX
  5
487F
  8
240
  6
CONTINUOUS
 10
-96.7941
 20
-27.741400000000009
 30
0.0
 70
    32
  0
VERTEX
  5
4880
  8
240
  6
CONTINUOUS
 10
-97.140699999999995
 20
-27.738400000000009
 30
0.0
 70
    32
  0
VERTEX
  5
4881
  8
240
  6
CONTINUOUS
 10
-97.485500000000016
 20
-27.73040000000001
 30
0.0
 70
    32
  0
VERTEX
  5
4882
  8
240
  6
CONTINUOUS
 10
-97.828500000000005
 20
-27.717200000000009
 30
0.0
 70
    32
  0
VERTEX
  5
4883
  8
240
  6
CONTINUOUS
 10
-98.169600000000017
 20
-27.699000000000019
 30
0.0
 70
    32
  0
VERTEX
  5
4884
  8
240
  6
CONTINUOUS
 10
-98.508600000000001
 20
-27.67550000000001
 30
0.0
 70
    32
  0
VERTEX
  5
4885
  8
240
  6
CONTINUOUS
 10
-98.845699999999994
 20
-27.646900000000009
 30
0.0
 70
    32
  0
VERTEX
  5
4886
  8
240
  6
CONTINUOUS
 10
-99.180599999999998
 20
-27.613000000000021
 30
0.0
 70
    32
  0
VERTEX
  5
4887
  8
240
  6
CONTINUOUS
 10
-99.513300000000001
 20
-27.573900000000009
 30
0.0
 70
    32
  0
VERTEX
  5
4888
  8
240
  6
CONTINUOUS
 10
-99.843800000000016
 20
-27.529500000000009
 30
0.0
 70
    32
  0
VERTEX
  5
4889
  8
240
  6
CONTINUOUS
 10
-100.172
 20
-27.479700000000008
 30
0.0
 70
    32
  0
VERTEX
  5
488A
  8
240
  6
CONTINUOUS
 10
-100.498
 20
-27.424500000000009
 30
0.0
 70
    32
  0
VERTEX
  5
488B
  8
240
  6
CONTINUOUS
 10
-100.821
 20
-27.363900000000012
 30
0.0
 70
    32
  0
VERTEX
  5
488C
  8
240
  6
CONTINUOUS
 10
-101.142
 20
-27.297900000000009
 30
0.0
 70
    32
  0
VERTEX
  5
488D
  8
240
  6
CONTINUOUS
 10
-101.461
 20
-27.226300000000009
 30
0.0
 70
    32
  0
VERTEX
  5
488E
  8
240
  6
CONTINUOUS
 10
-101.776
 20
-27.149200000000011
 30
0.0
 70
    32
  0
VERTEX
  5
488F
  8
240
  6
CONTINUOUS
 10
-102.089
 20
-27.066600000000012
 30
0.0
 70
    32
  0
VERTEX
  5
4890
  8
240
  6
CONTINUOUS
 10
-102.40000000000001
 20
-26.978300000000011
 30
0.0
 70
    32
  0
VERTEX
  5
4891
  8
240
  6
CONTINUOUS
 10
-102.70699999999999
 20
-26.88440000000001
 30
0.0
 70
    32
  0
VERTEX
  5
4892
  8
240
  6
CONTINUOUS
 10
-103.012
 20
-26.784800000000011
 30
0.0
 70
    32
  0
VERTEX
  5
4893
  8
240
  6
CONTINUOUS
 10
-103.31399999999999
 20
-26.679400000000012
 30
0.0
 70
    32
  0
VERTEX
  5
4894
  8
240
  6
CONTINUOUS
 10
-103.61199999999999
 20
-26.568300000000011
 30
0.0
 70
    32
  0
VERTEX
  5
4895
  8
240
  6
CONTINUOUS
 10
-103.908
 20
-26.45150000000001
 30
0.0
 70
    32
  0
VERTEX
  5
4896
  8
240
  6
CONTINUOUS
 10
-104.2
 20
-26.328700000000008
 30
0.0
 70
    32
  0
VERTEX
  5
4897
  8
240
  6
CONTINUOUS
 10
-104.48999999999999
 20
-26.20010000000001
 30
0.0
 70
    32
  0
VERTEX
  5
4898
  8
240
  6
CONTINUOUS
 10
-104.776
 20
-26.065600000000011
 30
0.0
 70
    32
  0
VERTEX
  5
4899
  8
240
  6
CONTINUOUS
 10
-105.05800000000001
 20
-25.925200000000011
 30
0.0
 70
    32
  0
VERTEX
  5
489A
  8
240
  6
CONTINUOUS
 10
-105.33799999999999
 20
-25.778700000000011
 30
0.0
 70
    32
  0
VERTEX
  5
489B
  8
240
  6
CONTINUOUS
 10
-105.613
 20
-25.626300000000011
 30
0.0
 70
    32
  0
VERTEX
  5
489C
  8
240
  6
CONTINUOUS
 10
-105.886
 20
-25.467700000000011
 30
0.0
 70
    32
  0
VERTEX
  5
489D
  8
240
  6
CONTINUOUS
 10
-106.154
 20
-25.303200000000011
 30
0.0
 70
    32
  0
VERTEX
  5
489E
  8
240
  6
CONTINUOUS
 10
-106.42
 20
-25.132600000000011
 30
0.0
 70
    32
  0
VERTEX
  5
489F
  8
240
  6
CONTINUOUS
 10
-106.681
 20
-24.95620000000001
 30
0.0
 70
    32
  0
VERTEX
  5
48A0
  8
240
  6
CONTINUOUS
 10
-106.94
 20
-24.773900000000008
 30
0.0
 70
    32
  0
VERTEX
  5
48A1
  8
240
  6
CONTINUOUS
 10
-107.194
 20
-24.585900000000009
 30
0.0
 70
    32
  0
VERTEX
  5
48A2
  8
240
  6
CONTINUOUS
 10
-107.44499999999999
 20
-24.392300000000009
 30
0.0
 70
    32
  0
VERTEX
  5
48A3
  8
240
  6
CONTINUOUS
 10
-107.693
 20
-24.193000000000019
 30
0.0
 70
    32
  0
VERTEX
  5
48A4
  8
240
  6
CONTINUOUS
 10
-107.937
 20
-23.98830000000001
 30
0.0
 70
    32
  0
VERTEX
  5
48A5
  8
240
  6
CONTINUOUS
 10
-108.17700000000001
 20
-23.778000000000009
 30
0.0
 70
    32
  0
VERTEX
  5
48A6
  8
240
  6
CONTINUOUS
 10
-108.414
 20
-23.562500000000011
 30
0.0
 70
    32
  0
VERTEX
  5
48A7
  8
240
  6
CONTINUOUS
 10
-108.648
 20
-23.34160000000001
 30
0.0
 70
    32
  0
VERTEX
  5
48A8
  8
240
  6
CONTINUOUS
 10
-108.878
 20
-23.115500000000011
 30
0.0
 70
    32
  0
VERTEX
  5
48A9
  8
240
  6
CONTINUOUS
 10
-109.104
 20
-22.884200000000011
 30
0.0
 70
    32
  0
VERTEX
  5
48AA
  8
240
  6
CONTINUOUS
 10
-109.327
 20
-22.647900000000011
 30
0.0
 70
    32
  0
VERTEX
  5
48AB
  8
240
  6
CONTINUOUS
 10
-109.547
 20
-22.406600000000012
 30
0.0
 70
    32
  0
VERTEX
  5
48AC
  8
240
  6
CONTINUOUS
 10
-109.76300000000001
 20
-22.16040000000001
 30
0.0
 70
    32
  0
VERTEX
  5
48AD
  8
240
  6
CONTINUOUS
 10
-109.97499999999999
 20
-21.909300000000009
 30
0.0
 70
    32
  0
VERTEX
  5
48AE
  8
240
  6
CONTINUOUS
 10
-110.184
 20
-21.653500000000012
 30
0.0
 70
    32
  0
VERTEX
  5
48AF
  8
240
  6
CONTINUOUS
 10
-110.39
 20
-21.392900000000012
 30
0.0
 70
    32
  0
VERTEX
  5
48B0
  8
240
  6
CONTINUOUS
 10
-110.592
 20
-21.127800000000011
 30
0.0
 70
    32
  0
VERTEX
  5
48B1
  8
240
  6
CONTINUOUS
 10
-110.791
 20
-20.858100000000011
 30
0.0
 70
    32
  0
VERTEX
  5
48B2
  8
240
  6
CONTINUOUS
 10
-110.986
 20
-20.583900000000011
 30
0.0
 70
    32
  0
VERTEX
  5
48B3
  8
240
  6
CONTINUOUS
 10
-111.17700000000001
 20
-20.30530000000001
 30
0.0
 70
    32
  0
VERTEX
  5
48B4
  8
240
  6
CONTINUOUS
 10
-111.366
 20
-20.022400000000012
 30
0.0
 70
    32
  0
VERTEX
  5
48B5
  8
240
  6
CONTINUOUS
 10
-111.55
 20
-19.735300000000009
 30
0.0
 70
    32
  0
VERTEX
  5
48B6
  8
240
  6
CONTINUOUS
 10
-111.732
 20
-19.44400000000001
 30
0.0
 70
    32
  0
VERTEX
  5
48B7
  8
240
  6
CONTINUOUS
 10
-111.90900000000001
 20
-19.148600000000009
 30
0.0
 70
    32
  0
VERTEX
  5
48B8
  8
240
  6
CONTINUOUS
 10
-112.084
 20
-18.849100000000011
 30
0.0
 70
    32
  0
VERTEX
  5
48B9
  8
240
  6
CONTINUOUS
 10
-112.255
 20
-18.54580000000001
 30
0.0
 70
    32
  0
VERTEX
  5
48BA
  8
240
  6
CONTINUOUS
 10
-112.422
 20
-18.238500000000009
 30
0.0
 70
    32
  0
VERTEX
  5
48BB
  8
240
  6
CONTINUOUS
 10
-112.586
 20
-17.927499999999998
 30
0.0
 70
    32
  0
VERTEX
  5
48BC
  8
240
  6
CONTINUOUS
 10
-112.747
 20
-17.612700000000011
 30
0.0
 70
    32
  0
VERTEX
  5
48BD
  8
240
  6
CONTINUOUS
 10
-112.904
 20
-17.29430000000001
 30
0.0
 70
    32
  0
VERTEX
  5
48BE
  8
240
  6
CONTINUOUS
 10
-113.05800000000001
 20
-16.972300000000011
 30
0.0
 70
    32
  0
VERTEX
  5
48BF
  8
240
  6
CONTINUOUS
 10
-113.208
 20
-16.64680000000001
 30
0.0
 70
    32
  0
VERTEX
  5
48C0
  8
240
  6
CONTINUOUS
 10
-113.355
 20
-16.317900000000009
 30
0.0
 70
    32
  0
VERTEX
  5
48C1
  8
240
  6
CONTINUOUS
 10
-113.499
 20
-15.98570000000001
 30
0.0
 70
    32
  0
VERTEX
  5
48C2
  8
240
  6
CONTINUOUS
 10
-113.639
 20
-15.650200000000011
 30
0.0
 70
    32
  0
VERTEX
  5
48C3
  8
240
  6
CONTINUOUS
 10
-113.776
 20
-15.31140000000001
 30
0.0
 70
    32
  0
VERTEX
  5
48C4
  8
240
  6
CONTINUOUS
 10
-113.90900000000001
 20
-14.96960000000001
 30
0.0
 70
    32
  0
VERTEX
  5
48C5
  8
240
  6
CONTINUOUS
 10
-114.039
 20
-14.62470000000001
 30
0.0
 70
    32
  0
VERTEX
  5
48C6
  8
240
  6
CONTINUOUS
 10
-114.166
 20
-14.27680000000001
 30
0.0
 70
    32
  0
VERTEX
  5
48C7
  8
240
  6
CONTINUOUS
 10
-114.289
 20
-13.926100000000011
 30
0.0
 70
    32
  0
VERTEX
  5
48C8
  8
240
  6
CONTINUOUS
 10
-114.40900000000001
 20
-13.57250000000001
 30
0.0
 70
    32
  0
VERTEX
  5
48C9
  8
240
  6
CONTINUOUS
 10
-114.52500000000001
 20
-13.21610000000001
 30
0.0
 70
    32
  0
VERTEX
  5
48CA
  8
240
  6
CONTINUOUS
 10
-114.63800000000001
 20
-12.85710000000001
 30
0.0
 70
    32
  0
VERTEX
  5
48CB
  8
240
  6
CONTINUOUS
 10
-114.748
 20
-12.49550000000001
 30
0.0
 70
    32
  0
VERTEX
  5
48CC
  8
240
  6
CONTINUOUS
 10
-114.854
 20
-12.13140000000001
 30
0.0
 70
    32
  0
VERTEX
  5
48CD
  8
240
  6
CONTINUOUS
 10
-114.95699999999999
 20
-11.76480000000001
 30
0.0
 70
    32
  0
VERTEX
  5
48CE
  8
240
  6
CONTINUOUS
 10
-115.057
 20
-11.395899999999999
 30
0.0
 70
    32
  0
VERTEX
  5
48CF
  8
240
  6
CONTINUOUS
 10
-115.15300000000001
 20
-11.02460000000001
 30
0.0
 70
    32
  0
VERTEX
  5
48D0
  8
240
  6
CONTINUOUS
 10
-115.246
 20
-10.65110000000001
 30
0.0
 70
    32
  0
VERTEX
  5
48D1
  8
240
  6
CONTINUOUS
 10
-115.33499999999999
 20
-10.27550000000001
 30
0.0
 70
    32
  0
VERTEX
  5
48D2
  8
240
  6
CONTINUOUS
 10
-115.422
 20
-9.8978100000000087
 30
0.0
 70
    32
  0
VERTEX
  5
48D3
  8
240
  6
CONTINUOUS
 10
-115.504
 20
-9.5181000000000093
 30
0.0
 70
    32
  0
VERTEX
  5
48D4
  8
240
  6
CONTINUOUS
 10
-115.584
 20
-9.1364800000000095
 30
0.0
 70
    32
  0
VERTEX
  5
48D5
  8
240
  6
CONTINUOUS
 10
-115.66
 20
-8.7530000000000072
 30
0.0
 70
    32
  0
VERTEX
  5
48D6
  8
240
  6
CONTINUOUS
 10
-115.733
 20
-8.367750000000008
 30
0.0
 70
    32
  0
VERTEX
  5
48D7
  8
240
  6
CONTINUOUS
 10
-115.80200000000001
 20
-7.9808000000000092
 30
0.0
 70
    32
  0
VERTEX
  5
48D8
  8
240
  6
CONTINUOUS
 10
-115.869
 20
-7.5922200000000073
 30
0.0
 70
    32
  0
VERTEX
  5
48D9
  8
240
  6
CONTINUOUS
 10
-115.931
 20
-7.2020900000000081
 30
0.0
 70
    32
  0
VERTEX
  5
48DA
  8
240
  6
CONTINUOUS
 10
-115.991
 20
-6.8104900000000068
 30
0.0
 70
    32
  0
VERTEX
  5
48DB
  8
240
  6
CONTINUOUS
 10
-116.047
 20
-6.4174800000000092
 30
0.0
 70
    32
  0
VERTEX
  5
48DC
  8
240
  6
CONTINUOUS
 10
-116.09999999999999
 20
-6.0231500000000091
 30
0.0
 70
    32
  0
VERTEX
  5
48DD
  8
240
  6
CONTINUOUS
 10
-116.15000000000001
 20
-5.6275700000000084
 30
0.0
 70
    32
  0
VERTEX
  5
48DE
  8
240
  6
CONTINUOUS
 10
-116.196
 20
-5.2308100000000071
 30
0.0
 70
    32
  0
VERTEX
  5
48DF
  8
240
  6
CONTINUOUS
 10
-116.239
 20
-4.8329500000000092
 30
0.0
 70
    32
  0
VERTEX
  5
48E0
  8
240
  6
CONTINUOUS
 10
-116.279
 20
-4.4340700000000082
 30
0.0
 70
    32
  0
VERTEX
  5
48E1
  8
240
  6
CONTINUOUS
 10
-116.315
 20
-4.0342300000000071
 30
0.0
 70
    32
  0
VERTEX
  5
48E2
  8
240
  6
CONTINUOUS
 10
-116.349
 20
-3.633520000000007
 30
0.0
 70
    32
  0
VERTEX
  5
48E3
  8
240
  6
CONTINUOUS
 10
-116.378
 20
-3.2320000000000091
 30
0.0
 70
    32
  0
VERTEX
  5
48E4
  8
240
  6
CONTINUOUS
 10
-116.405
 20
-2.8297600000000069
 30
0.0
 70
    32
  0
VERTEX
  5
48E5
  8
240
  6
CONTINUOUS
 10
-116.428
 20
-2.426860000000008
 30
0.0
 70
    32
  0
VERTEX
  5
48E6
  8
240
  6
CONTINUOUS
 10
-116.44799999999999
 20
-2.023390000000008
 30
0.0
 70
    32
  0
VERTEX
  5
48E7
  8
240
  6
CONTINUOUS
 10
-116.465
 20
-1.619420000000009
 30
0.0
 70
    32
  0
VERTEX
  5
48E8
  8
240
  6
CONTINUOUS
 10
-116.479
 20
-1.215020000000008
 30
0.0
 70
    32
  0
VERTEX
  5
48E9
  8
240
  6
CONTINUOUS
 10
-116.489
 20
-0.8102650000000089
 30
0.0
 70
    32
  0
VERTEX
  5
48EA
  8
240
  6
CONTINUOUS
 10
-116.496
 20
-0.4052340000000091
 30
0.0
 70
    32
  0
VERTEX
  5
48EB
  8
240
  6
CONTINUOUS
 10
-116.5
 20
-0.000000000003537
 30
0.0
 70
    32
  0
SEQEND
  5
48EC
  8
240
  6
CONTINUOUS
  0
CIRCLE
  5
4A2A
  8
241
  6
CONTINUOUS
 10
58.5
 20
25.0000000000162
 30
0.0
 40
6.0
  0
LINE
  5
4A2B
  8
245
  6
CENTER2
 10
65.5
 20
25.0000000000162
 30
0.0
 11
51.5
 21
25.0000000000162
 31
0.0
  0
CIRCLE
  5
4A2C
  8
242
  6
CONTINUOUS
 10
58.5
 20
25.0000000000162
 30
0.0
 40
5.125
  0
POLYLINE
  5
4A2D
  8
241
  6
CONTINUOUS
 66
     1
 10
0.0
 20
0.0
 30
0.0
 70
     1
  0
VERTEX
  5
4A2E
  8
241
  6
CONTINUOUS
 10
55.5
 20
23.2679491900162
 30
0.0
  0
VERTEX
  5
4A2F
  8
241
  6
CONTINUOUS
 10
58.5
 20
21.535898380016199
 30
0.0
  0
VERTEX
  5
4A30
  8
241
  6
CONTINUOUS
 10
61.5
 20
23.2679491900162
 30
0.0
  0
VERTEX
  5
4A31
  8
241
  6
CONTINUOUS
 10
61.5
 20
26.732050810016201
 30
0.0
  0
VERTEX
  5
4A32
  8
241
  6
CONTINUOUS
 10
58.5
 20
28.464101620016201
 30
0.0
  0
VERTEX
  5
4A33
  8
241
  6
CONTINUOUS
 10
55.5
 20
26.732050810016201
 30
0.0
  0
SEQEND
  5
4A34
  8
241
  6
CONTINUOUS
  0
CIRCLE
  5
4A36
  8
241
  6
CONTINUOUS
 10
58.5
 20
-24.999999999984031
 30
0.0
 40
6.0
  0
LINE
  5
4A37
  8
245
  6
CENTER2
 10
65.5
 20
-24.999999999984031
 30
0.0
 11
51.5
 21
-24.999999999984031
 31
0.0
  0
CIRCLE
  5
4A38
  8
242
  6
CONTINUOUS
 10
58.5
 20
-24.999999999984031
 30
0.0
 40
5.125
  0
POLYLINE
  5
4A39
  8
241
  6
CONTINUOUS
 66
     1
 10
0.0
 20
0.0
 30
0.0
 70
     1
  0
VERTEX
  5
4A3A
  8
241
  6
CONTINUOUS
 10
55.5
 20
-26.732050809984031
 30
0.0
  0
VERTEX
  5
4A3B
  8
241
  6
CONTINUOUS
 10
58.5
 20
-28.464101619984032
 30
0.0
  0
VERTEX
  5
4A3C
  8
241
  6
CONTINUOUS
 10
61.5
 20
-26.732050809984031
 30
0.0
  0
VERTEX
  5
4A3D
  8
241
  6
CONTINUOUS
 10
61.5
 20
-23.26794918998403
 30
0.0
  0
VERTEX
  5
4A3E
  8
241
  6
CONTINUOUS
 10
58.5
 20
-21.53589837998403
 30
0.0
  0
VERTEX
  5
4A3F
  8
241
  6
CONTINUOUS
 10
55.5
 20
-23.26794918998403
 30
0.0
  0
SEQEND
  5
4A40
  8
241
  6
CONTINUOUS
  0
CIRCLE
  5
4A42
  8
241
  6
CONTINUOUS
 10
58.5
 20
-0.0000000000000853
 30
0.0
 40
6.0
  0
CIRCLE
  5
4A44
  8
242
  6
CONTINUOUS
 10
58.5
 20
-0.0000000000000853
 30
0.0
 40
5.125
  0
POLYLINE
  5
4A45
  8
241
  6
CONTINUOUS
 66
     1
 10
0.0
 20
0.0
 30
0.0
 70
     1
  0
VERTEX
  5
4A46
  8
241
  6
CONTINUOUS
 10
55.5
 20
-1.7320508100000851
 30
0.0
  0
VERTEX
  5
4A47
  8
241
  6
CONTINUOUS
 10
58.5
 20
-3.4641016200000858
 30
0.0
  0
VERTEX
  5
4A48
  8
241
  6
CONTINUOUS
 10
61.5
 20
-1.7320508100000851
 30
0.0
  0
VERTEX
  5
4A49
  8
241
  6
CONTINUOUS
 10
61.5
 20
1.732050809999915
 30
0.0
  0
VERTEX
  5
4A4A
  8
241
  6
CONTINUOUS
 10
58.5
 20
3.4641016199999148
 30
0.0
  0
VERTEX
  5
4A4B
  8
241
  6
CONTINUOUS
 10
55.5
 20
1.732050809999915
 30
0.0
  0
SEQEND
  5
4A4C
  8
241
  6
CONTINUOUS
  0
LINE
  5
4A56
  8
250
  6
CONTINUOUS
 10
147.00000000000139
 20
42.499999999999119
 30
0.0
 11
147.00000000000139
 21
64.0
 31
0.0
  0
LINE
  5
4A57
  8
250
  6
CONTINUOUS
 10
172.00000000000151
 20
40.499999999999112
 30
0.0
 11
172.00000000000151
 21
64.0
 31
0.0
  0
LINE
  5
4A58
  8
250
  6
CONTINUOUS
 10
149.23000000000141
 20
63.0
 30
0.0
 11
169.77000000000149
 21
63.0
 31
0.0
  0
LINE
  5
4A5C
  8
250
  6
CONTINUOUS
 10
0.0000000000007105
 20
40.500000000015767
 30
0.0
 11
0.000000000000712
 21
64.0
 31
0.0
  0
LINE
  5
4A5D
  8
250
  6
CONTINUOUS
 10
71.0
 20
40.50000000001608
 30
0.0
 11
71.0
 21
64.0
 31
0.0
  0
LINE
  5
4A5E
  8
250
  6
CONTINUOUS
 10
2.230000000000711
 20
63.0
 30
0.0
 11
68.769999999999996
 21
63.0
 31
0.0
  0
LINE
  5
4A62
  8
250
  6
CONTINUOUS
 10
189.70560665449989
 20
-21.405701583251719
 30
0.0
 11
104.2943933455027
 21
21.405701583252529
 31
0.0
  0
LINE
  5
4A63
  8
250
  6
CONTINUOUS
 10
102.30080944683129
 20
22.404962929927251
 30
0.0
 11
85.755294975094756
 21
30.698214637804931
 31
0.0
  0
INSERT
  5
4A66
  8
240
  2
*U6
 10
0.0
 20
0.0
 30
0.0
  0
LINE
  5
4A67
  8
250
  6
CONTINUOUS
 10
104.1278497877236
 20
21.073437600140611
 30
0.0
 11
102.30080944683129
 21
22.404962929927251
 31
0.0
  0
LINE
  5
4A68
  8
250
  6
CONTINUOUS
 10
104.46093690328181
 20
21.737965566364402
 30
0.0
 11
102.30080944683129
 21
22.404962929927251
 31
0.0
  0
LINE
  5
4A69
  8
250
  6
CONTINUOUS
 10
102.30080944683129
 20
22.404962929927251
 30
0.0
 11
104.2943933455027
 21
21.405701583252501
 31
0.0
  0
LINE
  5
4A6A
  8
250
  6
CONTINUOUS
 10
189.872150212279
 20
-21.073437600139808
 30
0.0
 11
191.69919055317129
 21
-22.404962929926452
 31
0.0
  0
LINE
  5
4A6B
  8
250
  6
CONTINUOUS
 10
189.53906309672081
 20
-21.737965566363609
 30
0.0
 11
191.69919055317129
 21
-22.404962929926452
 31
0.0
  0
LINE
  5
4A6C
  8
250
  6
CONTINUOUS
 10
191.69919055317129
 20
-22.404962929926452
 30
0.0
 11
189.70560665449989
 21
-21.405701583251709
 31
0.0
  0
TEXT
  5
4A6E
  8
250
  6
CONTINUOUS
 10
158.56666666666811
 20
64.000000000000014
 30
0.0
 40
2.7999999999999989
  1
25
  0
LINE
  5
4A6F
  8
250
  6
CONTINUOUS
 10
169.77000000000149
 20
63.37166666666667
 30
0.0
 11
172.00000000000151
 21
63.0
 31
0.0
  0
LINE
  5
4A70
  8
250
  6
CONTINUOUS
 10
169.77000000000149
 20
62.62833333333333
 30
0.0
 11
172.00000000000151
 21
63.0
 31
0.0
  0
LINE
  5
4A71
  8
250
  6
CONTINUOUS
 10
172.00000000000151
 20
63.0
 30
0.0
 11
169.77000000000149
 21
63.0
 31
0.0
  0
LINE
  5
4A72
  8
250
  6
CONTINUOUS
 10
149.23000000000141
 20
62.62833333333333
 30
0.0
 11
147.00000000000139
 21
63.0
 31
0.0
  0
LINE
  5
4A73
  8
250
  6
CONTINUOUS
 10
149.23000000000141
 20
63.37166666666667
 30
0.0
 11
147.00000000000139
 21
63.0
 31
0.0
  0
LINE
  5
4A74
  8
250
  6
CONTINUOUS
 10
147.00000000000139
 20
63.0
 30
0.0
 11
149.23000000000141
 21
63.0
 31
0.0
  0
TEXT
  5
4A75
  8
250
  6
CONTINUOUS
 10
33.23333333333369
 20
64.000000000000014
 30
0.0
 40
2.7999999999999989
  1
71
  0
LINE
  5
4A76
  8
250
  6
CONTINUOUS
 10
68.769999999999996
 20
63.37166666666667
 30
0.0
 11
71.0
 21
63.0
 31
0.0
  0
LINE
  5
4A77
  8
250
  6
CONTINUOUS
 10
68.769999999999996
 20
62.62833333333333
 30
0.0
 11
71.0
 21
63.0
 31
0.0
  0
LINE
  5
4A78
  8
250
  6
CONTINUOUS
 10
71.0
 20
63.0
 30
0.0
 11
68.769999999999996
 21
63.0
 31
0.0
  0
LINE
  5
4A79
  8
250
  6
CONTINUOUS
 10
2.230000000000711
 20
62.62833333333333
 30
0.0
 11
0.0000000000007119
 21
63.0
 31
0.0
  0
LINE
  5
4A7A
  8
250
  6
CONTINUOUS
 10
2.230000000000711
 20
63.37166666666667
 30
0.0
 11
0.0000000000007119
 21
63.0
 31
0.0
  0
LINE
  5
4A7B
  8
250
  6
CONTINUOUS
 10
0.0000000000007119
 20
63.0
 30
0.0
 11
2.230000000000711
 21
63.0
 31
0.0
  0
POLYLINE
  5
4A82
  8
250
  6
CONTINUOUS
 66
     1
 10
0.0
 20
0.0
 30
0.0
 70
     1
1001
GENIUS_GENREC_14
1002
{
1000
PYDIR
1011
155.60346365611551
1021
0.0
1031
0.0
1021
66.444764225187271
1031
0.0
1002
}
1002
{
1000
PXDIR
1011
157.93596474294279
1021
0.0
1031
0.0
1021
63.970827563594241
1031
0.0
1002
}
1002
{
1000
PORI
1011
155.60346365611551
1021
0.0
1031
0.0
1021
63.970827563594241
1031
0.0
1002
}
1002
{
1000
PINS
1011
155.60346365611551
1021
0.0
1031
0.0
1021
63.970827563594241
1031
0.0
1002
}
1002
{
1000
PINS2
1011
157.93596474294279
1021
0.0
1031
0.0
1021
66.444764225187271
1031
0.0
1002
}
1002
{
1000
C
1070
     1
1002
}
1001
GENIUS_GENOBJ-N-REC_13
1002
{
1000
OWNER
1000
GEN
1002
}
1001
GENIUS_GENODEF_13
1002
{
1000
HIER
1070
     0
1002
}
1002
{
1000
MANEDIT
1070
     0
1002
}
1002
{
1000
NOSEL
1070
     0
1002
}
1002
{
1000
BEHIND
1070
     0
1002
}
1002
{
1000
OTHER
1070
     0
1002
}
1002
{
1000
REACTOR
1002
}
  0
VERTEX
  5
4DEF
  8
250
  6
CONTINUOUS
 10
155.60346365611551
 20
63.970827563594241
 30
0.0
  0
VERTEX
  5
4DF0
  8
250
  6
CONTINUOUS
 10
157.93596474294279
 20
63.970827563594241
 30
0.0
  0
VERTEX
  5
4DF1
  8
250
  6
CONTINUOUS
 10
157.93596474294279
 20
66.444764225187271
 30
0.0
  0
VERTEX
  5
4DF2
  8
250
  6
CONTINUOUS
 10
155.60346365611551
 20
66.444764225187271
 30
0.0
  0
SEQEND
  5
4DF3
  8
250
  6
CONTINUOUS
  0
VIEWPORT
  5
22
 67
     1
  8
0
 10
261.51769911504419
 20
148.5
 30
0.0
 40
523.0353982300885
 41
297.0
 68
     1
 69
     1
1001
ACAD
1000
MVIEW
1002
{
1070
    16
1010
0.0
1020
0.0
1030
0.0
1010
0.0
1020
0.0
1030
1.0
1040
0.0
1040
297.0
1040
261.51769911504419
1040
148.5
1040
50.0
1040
0.0
1040
0.0
1070
     0
1070
   100
1070
     1
1070
     1
1070
     0
1070
     0
1070
     0
1070
     0
1040
0.0
1040
0.0
1040
0.0
1040
1.0
1040
1.0
1040
10.0
1040
10.0
1070
     0
1002
{
1002
}
1002
}
1001
GENIUS_GENODEF_13
1002
{
1000
HIER
1070
     0
1002
}
1002
{
1000
MANEDIT
1070
     0
1002
}
1002
{
1000
NOSEL
1070
     0
1002
}
1002
{
1000
BEHIND
1070
     0
1002
}
1002
{
1000
OTHER
1070
     0
1002
}
1002
{
1000
REACTOR
1002
}
1001
GENIUS_GENOBJ-N-SDF_13
1002
{
1000
OWNER
1000
GEN
1002
}
1001
GENIUS_GENSCREG_15
1000
PF
1040
1.0
1000
DF
1040
1.0
1000
MIN
1011
0.0
1021
0.0
1031
0.0
1021
0.0
1031
0.0
1000
MAX
1011
523.0353982300885
1021
0.0
1031
0.0
1021
297.0
1031
0.0
1000
FLAGS
1070
     4
  0
ENDSEC
  0
EOF
