  0
SECTION
  2
HEADER
  9
$ACADVER
  1
AC1009
  9
$INSBASE
 10
0.0
 20
0.0
 30
0.0
  9
$EXTMIN
 10
-126.2924015154229
 20
-63.999999999999758
 30
0.0
  9
$EXTMAX
 10
252.0
 20
74.999999999999986
 30
0.0
  9
$LIMMIN
 10
0.0
 20
0.0
  9
$LIMMAX
 10
297.0
 20
210.0
  9
$ORTHOMODE
 70
     1
  9
$REGENMODE
 70
     1
  9
$FILLMODE
 70
     1
  9
$QTEXTMODE
 70
     0
  9
$MIRRTEXT
 70
     1
  9
$DRAGMODE
 70
     2
  9
$LTSCALE
 40
10.0
  9
$OSMODE
 70
    47
  9
$ATTMODE
 70
     1
  9
$TEXTSIZE
 40
3.0
  9
$TRACEWID
 40
1.0
  9
$TEXTSTYLE
  7
YOKO
  9
$CLAYER
  8
240
  9
$CELTYPE
  6
BYLAYER
  9
$CECOLOR
 62
   256
  9
$DIMSCALE
 40
1.0
  9
$DIMASZ
 40
2.2299999999999991
  9
$DIMEXO
 40
0.5
  9
$DIMDLI
 40
7.0
  9
$DIMRND
 40
0.0
  9
$DIMDLE
 40
0.0
  9
$DIMEXE
 40
1.0
  9
$DIMTP
 40
0.0
  9
$DIMTM
 40
0.01
  9
$DIMTXT
 40
2.7999999999999989
  9
$DIMCEN
 40
0.0
  9
$DIMTSZ
 40
0.0
  9
$DIMTOL
 70
     0
  9
$DIMLIM
 70
     0
  9
$DIMTIH
 70
     0
  9
$DIMTOH
 70
     0
  9
$DIMSE1
 70
     0
  9
$DIMSE2
 70
     0
  9
$DIMTAD
 70
     3
  9
$DIMZIN
 70
     9
  9
$DIMBLK
  1
OPEN
  9
$DIMASO
 70
     1
  9
$DIMSHO
 70
     1
  9
$DIMPOST
  1

  9
$DIMAPOST
  1

  9
$DIMALT
 70
     0
  9
$DIMALTD
 70
     2
  9
$DIMALTF
 40
25.399999999999999
  9
$DIMLFAC
 40
1.0
  9
$DIMTOFL
 70
     1
  9
$DIMTVP
 40
0.0
  9
$DIMTIX
 70
     1
  9
$DIMSOXD
 70
     0
  9
$DIMSAH
 70
     0
  9
$DIMBLK1
  1

  9
$DIMBLK2
  1

  9
$DIMSTYLE
  2
BIGT
  9
$DIMCLRD
 70
   256
  9
$DIMCLRE
 70
   256
  9
$DIMCLRT
 70
    40
  9
$DIMTFAC
 40
1.0
  9
$DIMGAP
 40
1.0
  9
$LUNITS
 70
     2
  9
$LUPREC
 70
     6
  9
$SKETCHINC
 40
1.0
  9
$FILLETRAD
 40
0.0
  9
$AUNITS
 70
     0
  9
$AUPREC
 70
     6
  9
$MENU
  1
.
  9
$ELEVATION
 40
0.0
  9
$PELEVATION
 40
0.0
  9
$THICKNESS
 40
0.0
  9
$LIMCHECK
 70
     0
  9
$BLIPMODE
 70
     0
  9
$CHAMFERA
 40
0.2
  9
$CHAMFERB
 40
0.2
  9
$SKPOLY
 70
     0
  9
$TDCREATE
 40
2460245.3968972228
  9
$TDUPDATE
 40
2460245.4434390399
  9
$TDINDWG
 40
0.0433315046
  9
$TDUSRTIMER
 40
0.0433314352
  9
$USRTIMER
 70
     1
  9
$ANGBASE
 50
0.0
  9
$ANGDIR
 70
     0
  9
$PDMODE
 70
     1
  9
$PDSIZE
 40
0.0
  9
$PLINEWID
 40
0.0
  9
$COORDS
 70
     1
  9
$SPLFRAME
 70
     0
  9
$SPLINETYPE
 70
     6
  9
$SPLINESEGS
 70
     4
  9
$ATTDIA
 70
     1
  9
$ATTREQ
 70
     1
  9
$HANDLING
 70
     1
  9
$HANDSEED
  5
4F9E
  9
$SURFTAB1
 70
     6
  9
$SURFTAB2
 70
     6
  9
$SURFTYPE
 70
     6
  9
$SURFU
 70
     6
  9
$SURFV
 70
     6
  9
$UCSNAME
  2

  9
$UCSORG
 10
0.0
 20
0.0
 30
0.0
  9
$UCSXDIR
 10
1.0
 20
0.0
 30
0.0
  9
$UCSYDIR
 10
0.0
 20
1.0
 30
0.0
  9
$PUCSNAME
  2

  9
$PUCSORG
 10
0.0
 20
0.0
 30
0.0
  9
$PUCSXDIR
 10
1.0
 20
0.0
 30
0.0
  9
$PUCSYDIR
 10
0.0
 20
1.0
 30
0.0
  9
$USERI1
 70
     1
  9
$USERI2
 70
     0
  9
$USERI3
 70
     0
  9
$USERI4
 70
     0
  9
$USERI5
 70
     0
  9
$USERR1
 40
0.0
  9
$USERR2
 40
0.0
  9
$USERR3
 40
0.0
  9
$USERR4
 40
0.0
  9
$USERR5
 40
0.0
  9
$WORLDVIEW
 70
     1
  9
$SHADEDGE
 70
     3
  9
$SHADEDIF
 70
    70
  9
$TILEMODE
 70
     1
  9
$MAXACTVP
 70
    16
  9
$PLIMCHECK
 70
     0
  9
$PEXTMIN
 10
1.0000000000000000E+020
 20
1.0000000000000000E+020
 30
1.0000000000000000E+020
  9
$PEXTMAX
 10
-1.0000000000000000E+020
 20
-1.0000000000000000E+020
 30
-1.0000000000000000E+020
  9
$PLIMMIN
 10
0.0
 20
0.0
  9
$PLIMMAX
 10
420.0
 20
297.0
  9
$UNITMODE
 70
     0
  9
$VISRETAIN
 70
     1
  9
$PLINEGEN
 70
     0
  9
$PSLTSCALE
 70
     1
  0
ENDSEC
  0
SECTION
  2
TABLES
  0
TABLE
  2
VPORT
 70
     1
  0
VPORT
  2
*ACTIVE
 70
     0
 10
0.0
 20
0.0
 11
1.0
 21
1.0
 12
80.782038211407666
 22
2.275868595242712
 13
0.0
 23
0.0
 14
7.0
 24
7.0
 15
7.0
 25
7.0
 16
0.0
 26
0.0
 36
1.0
 17
0.0
 27
0.0
 37
0.0
 40
290.4500117207391
 41
1.8450363196125901
 42
50.0
 43
0.0
 44
0.0
 50
0.0
 51
0.0
 71
     0
 72
  2000
 73
     1
 74
     0
 75
     1
 76
     1
 77
     0
 78
     0
  0
ENDTAB
  0
TABLE
  2
LTYPE
 70
    16
  0
LTYPE
  2
CONTINUOUS
 70
     0
  3
Solid line
 72
    65
 73
     0
 40
0.0
  0
LTYPE
  2
CENTER2
 70
     0
  3
___ _ ___ _ ___ _ ___ _ ___ _ ___ _ ___ _ ___ _
 72
    65
 73
     4
 40
1.125
 49
0.75
 49
-0.125
 49
0.125
 49
-0.125
  0
LTYPE
  2
HIDDEN2
 70
     0
  3
_ _ _ _ _ _ _ _ _ _ _ _ _ _ _ _ _ _ _ _ _ _ _ _
 72
    65
 73
     2
 40
0.1875
 49
0.125
 49
-0.0625
  0
LTYPE
  2
PHANTOM2
 70
     0
  3
___ _ _ ___ _ _ ___ _ _ ___ _ _ ___ _ _ ___ _ _
 72
    65
 73
     6
 40
1.25
 49
0.625
 49
-0.125
 49
0.125
 49
-0.125
 49
0.125
 49
-0.125
  0
LTYPE
  2
AM_ISO02W050
 70
     0
  3
__ __ __ __ __ __ __ __ __ __ __ __ __ __ __
 72
    65
 73
     2
 40
7.5
 49
6.0
 49
-1.5
  0
LTYPE
  2
AMCONSTR
 70
     0
  3
_______________________
 72
    65
 73
     2
 40
9999.0
 49
9999.0
 49
0.0
  0
LTYPE
  2
ACISOWELD
 70
     0
  3
_ _ _ _ _
 72
    65
 73
     2
 40
2.0
 49
2.0
 49
-1.0
  0
LTYPE
  2
ACISOTGB
 70
     0
  3
__ . . __ . .
 72
    65
 73
     6
 40
9.0
 49
4.0
 49
-1.0
 49
1.0
 49
-1.0
 49
1.0
 49
-1.0
  0
LTYPE
  2
ACISOTGL
 70
     0
  3
_ _ _ _ _
 72
    65
 73
     2
 40
3.0
 49
2.0
 49
-1.0
  0
LTYPE
  2
ACJISTGB
 70
     0
  3
__ . . __ . .
 72
    65
 73
     6
 40
9.0
 49
4.0
 49
-1.0
 49
1.0
 49
-1.0
 49
1.0
 49
-1.0
  0
LTYPE
  2
ACJISTGL
 70
     0
  3
_ _ _ _ _
 72
    65
 73
     2
 40
3.0
 49
2.0
 49
-1.0
  0
ENDTAB
  0
TABLE
  2
LAYER
 70
    10
  0
LAYER
  2
0
 70
     0
 62
     7
  6
CONTINUOUS
  0
LAYER
  2
DEFPOINTS
 70
     0
 62
     7
  6
CONTINUOUS
  0
LAYER
  2
245
 70
     0
 62
     2
  6
CENTER2
  0
LAYER
  2
240
 70
     0
 62
     4
  6
CONTINUOUS
  0
LAYER
  2
241
 70
     0
 62
   211
  6
CONTINUOUS
  0
LAYER
  2
242
 70
     0
 62
     3
  6
CONTINUOUS
  0
LAYER
  2
243
 70
     0
 62
   211
  6
HIDDEN2
  0
LAYER
  2
246
 70
     0
 62
     3
  6
PHANTOM2
  0
LAYER
  2
247
 70
     0
 62
    60
  6
CONTINUOUS
  0
LAYER
  2
250
 70
     0
 62
     3
  6
CONTINUOUS
  0
ENDTAB
  0
TABLE
  2
STYLE
 70
     7
  0
STYLE
  2
STANDARD
 70
     0
 40
0.0
 41
1.0
 50
0.0
 71
     0
 42
3.0
  3
romans.shx
  4
extfont.shx
  0
STYLE
  2
ACISOTS
 70
     0
 40
1.0
 41
1.0
 50
0.0
 71
     0
 42
3.0
  3
amgdt.shx
  4
extfont.shx
  0
STYLE
  2
ACISOGDT
 70
     0
 40
0.0
 41
1.0
 50
0.0
 71
     0
 42
3.0
  3
amgdt.shx
  4
extfont.shx
  0
STYLE
  2
ACJISTS
 70
     0
 40
1.0
 41
1.0
 50
0.0
 71
     0
 42
3.0
  3
amgdt.shx
  4
extfont.shx
  0
STYLE
  2
ACJISGDT
 70
     0
 40
0.0
 41
1.0
 50
0.0
 71
     0
 42
3.0
  3
amgdt.shx
  4
extfont.shx
  0
STYLE
  2
YOKO
 70
     0
 40
0.0
 41
1.0
 50
0.0
 71
     0
 42
3.0
  3
romans.shx
  4
extfont.shx
  0
ENDTAB
  0
TABLE
  2
VIEW
 70
     0
  0
ENDTAB
  0
TABLE
  2
UCS
 70
     0
  0
ENDTAB
  0
TABLE
  2
APPID
 70
    47
  0
APPID
  2
ACAD
 70
     0
  0
APPID
  2
GLOBAL
 70
     0
  0
APPID
  2
DETAIL
 70
     0
  0
APPID
  2
GRPNAME
 70
     0
  0
APPID
  2
GPARA
 70
     0
  0
APPID
  2
MCAD_NO_VIS
 70
     0
  0
APPID
  2
ACAD_TEMP_GRAPHIC
 70
     0
  0
APPID
  2
ACATTRIBSERVICES
 70
     0
  0
APPID
  2
GENIUS_GENSCREG_15
 70
     0
  0
APPID
  2
GENIUS_GENODEF_13
 70
     0
  0
APPID
  2
GENIUS_GENOBJ-N-SDF_13
 70
     0
  0
APPID
  2
GENIUS_GENREC_14
 70
     0
  0
APPID
  2
GENIUS_GENOBJ-N-REC_13
 70
     0
  0
APPID
  2
GENIUS_GENDIMSH_14
 70
     0
  0
APPID
  2
GENIUS_GENOBJ-N-DIM_13
 70
     0
  0
APPID
  2
GENIUS_GENDIM_13
 70
     0
  0
APPID
  2
GENIUS_GENDTOL_13
 70
     0
  0
APPID
  2
GENIUS_GENOLIS_13
 70
     0
  0
APPID
  2
GENIUS_GENOENT_13
 70
     0
  0
APPID
  2
GENIUS_GENOBJ-F-FEM_13
 70
     0
  0
APPID
  2
GENIUS_GENOREF_13
 70
     0
  0
APPID
  2
GENIUS_GEFFEM_13
 70
     0
  0
APPID
  2
GENIUS_GEFFEMP_13
 70
     0
  0
APPID
  2
AD_DRAW
 70
     0
  0
APPID
  2
DESIGNERASSEMBLIES
 70
     0
  0
APPID
  2
ACADM_DIM_EDIT
 70
     0
  0
APPID
  2
AMDT_DM_ADJ
 70
     0
  0
APPID
  2
ITEMNAME
 70
     0
  0
APPID
  2
GENIUS_GENOBJ-N-FIL_13
 70
     0
  0
APPID
  2
GENIUS_GENFIL_13
 70
     0
  0
APPID
  2
GENIUS_GENOBJ-N-CHA_13
 70
     0
  0
APPID
  2
ACAD_NAV_VCDISPLAY
 70
     0
  0
APPID
  2
LAYER_SCALE
 70
     0
  0
APPID
  2
ACAD_PSEXT
 70
     0
  0
APPID
  2
ACAD_DSTYLE_DIMJAG
 70
     0
  0
APPID
  2
ACAD_DSTYLE_DIMTALN
 70
     0
  0
APPID
  2
ACAD_DSTYLE_DIMBREAK
 70
     0
  0
APPID
  2
GRADIENTCOLOR1ACI
 70
     0
  0
APPID
  2
GRADIENTCOLOR2ACI
 70
     0
  0
APPID
  2
ASK_MEN_XD
 70
     0
  0
APPID
  2
ACAECLAYERSTANDARD
 70
     0
  0
APPID
  2
ACAD_DSTYLE_DIMINSPECT
 70
     0
  0
APPID
  2
ACAD_DSTYLE_DIMRADIAL_EXTENSION
 70
     0
  0
APPID
  2
ACAD_EXEMPT_FROM_CAD_STANDARDS
 70
     0
  0
APPID
  2
ACAD_MLEADERVER
 70
     0
  0
APPID
  2
ACAD_SPLINE_DATA
 70
     0
  0
APPID
  2
ACAD_SPLINE_DATA2
 70
     0
  0
ENDTAB
  0
TABLE
  2
DIMSTYLE
 70
    30
  0
DIMSTYLE
  2
BIGT
 70
     0
  3

  4

  5
OPEN
  6

  7

 40
1.0
 41
2.2299999999999991
 42
0.5
 43
7.0
 44
1.0
 45
0.0
 46
0.0
 47
0.0
 48
0.01
140
2.7999999999999989
141
0.0
142
0.0
143
25.399999999999999
144
1.0
145
0.0
146
1.0
147
1.0
 71
     0
 72
     0
 73
     0
 74
     0
 75
     0
 76
     0
 77
     3
 78
     9
170
     0
171
     2
172
     1
173
     0
174
     1
175
     0
176
   256
177
   256
178
    40
  0
DIMSTYLE
  2
AM_ISO
 70
     0
  3

  4
"
  5

  6

  7

 40
1.0
 41
2.5
 42
1.0
 43
10.0
 44
1.0
 45
0.0
 46
0.0
 47
0.1
 48
0.1
140
3.5
141
0.0
142
0.0
143
0.0393701
144
1.0
145
0.0
146
0.71
147
1.5
 71
     0
 72
     0
 73
     0
 74
     0
 75
     0
 76
     0
 77
     1
 78
     8
170
     0
171
     2
172
     1
173
     0
174
     0
175
     0
176
   256
177
   256
178
     2
  0
DIMSTYLE
  2
AM_ISO$3
 70
     0
  3

  4
"
  5

  6

  7

 40
1.0
 41
2.5
 42
1.0
 43
10.0
 44
1.0
 45
0.0
 46
0.0
 47
0.1
 48
0.1
140
3.5
141
0.0
142
0.0
143
0.0393701
144
1.0
145
0.0
146
0.71
147
1.5
 71
     0
 72
     0
 73
     0
 74
     1
 75
     0
 76
     0
 77
     1
 78
     8
170
     0
171
     2
172
     0
173
     0
174
     0
175
     0
176
   256
177
   256
178
     2
  0
DIMSTYLE
  2
AM_ISO$4
 70
     0
  3

  4
"
  5

  6

  7

 40
1.0
 41
2.5
 42
1.0
 43
10.0
 44
1.0
 45
0.0
 46
0.0
 47
0.1
 48
0.1
140
3.5
141
0.0
142
0.0
143
0.0393701
144
1.0
145
0.0
146
0.71
147
1.5
 71
     0
 72
     0
 73
     0
 74
     1
 75
     0
 76
     0
 77
     1
 78
     8
170
     0
171
     2
172
     0
173
     0
174
     0
175
     0
176
   256
177
   256
178
     2
  0
DIMSTYLE
  2
AM_ISO$6
 70
     0
  3

  4
"
  5

  6

  7

 40
1.0
 41
2.5
 42
1.0
 43
10.0
 44
1.0
 45
0.0
 46
0.0
 47
0.1
 48
0.1
140
3.5
141
0.0
142
0.0
143
0.0393701
144
1.0
145
0.0
146
0.71
147
1.5
 71
     0
 72
     0
 73
     0
 74
     0
 75
     0
 76
     0
 77
     0
 78
     8
170
     0
171
     2
172
     1
173
     0
174
     0
175
     0
176
   256
177
   256
178
     2
  0
DIMSTYLE
  2
AM_ISO$7
 70
     0
  3

  4
"
  5

  6

  7

 40
1.0
 41
2.5
 42
1.0
 43
10.0
 44
1.0
 45
0.0
 46
0.0
 47
0.1
 48
0.1
140
5.0
141
0.0
142
0.0
143
0.0393701
144
1.0
145
0.0
146
0.71
147
1.5
 71
     0
 72
     0
 73
     0
 74
     0
 75
     0
 76
     0
 77
     1
 78
     8
170
     0
171
     2
172
     1
173
     0
174
     0
175
     0
176
   256
177
   256
178
     2
  0
DIMSTYLE
  2
AM_ISO$SF
 70
     0
  3

  4
"
  5

  6

  7

 40
1.0
 41
2.5
 42
1.0
 43
10.0
 44
1.0
 45
0.0
 46
0.0
 47
0.1
 48
0.1
140
3.5
141
0.0
142
0.0
143
0.0393701
144
1.0
145
0.0
146
0.71
147
1.5
 71
     0
 72
     0
 73
     0
 74
     0
 75
     1
 76
     1
 77
     1
 78
     8
170
     0
171
     2
172
     1
173
     0
174
     0
175
     0
176
   256
177
   256
178
     2
  0
DIMSTYLE
  2
AM_ISO$SH
 70
     0
  3

  4
"
  5

  6
GENAXEH
  7

 40
1.0
 41
2.5
 42
1.0
 43
10.0
 44
1.0
 45
0.0
 46
0.0
 47
0.1
 48
0.1
140
3.5
141
0.0
142
0.0
143
0.0393701
144
2.0
145
0.0
146
0.71
147
1.5
 71
     0
 72
     0
 73
     0
 74
     0
 75
     1
 76
     1
 77
     1
 78
     8
170
     0
171
     2
172
     1
173
     1
174
     0
175
     0
176
   256
177
   256
178
     2
  0
DIMSTYLE
  2
BIGT$2
 70
     0
  3

  4

  5
OPEN
  6

  7

 40
1.0
 41
2.2299999999999991
 42
0.5
 43
7.0
 44
1.0
 45
0.0
 46
0.0
 47
0.0
 48
0.01
140
2.7999999999999989
141
0.0
142
0.0
143
25.399999999999999
144
1.0
145
0.0
146
1.0
147
1.0
 71
     0
 72
     0
 73
     0
 74
     0
 75
     0
 76
     0
 77
     3
 78
     9
170
     0
171
     2
172
     1
173
     0
174
     0
175
     0
176
   256
177
   256
178
    40
  0
DIMSTYLE
  2
BIGT$3
 70
     0
  3

  4

  5
OPEN
  6

  7

 40
1.0
 41
2.2299999999999991
 42
0.5
 43
2.5
 44
1.0
 45
0.0
 46
0.0
 47
0.0
 48
0.01
140
2.7999999999999989
141
0.0
142
0.0
143
25.399999999999999
144
1.0
145
0.0
146
1.0
147
1.0
 71
     0
 72
     0
 73
     0
 74
     0
 75
     0
 76
     0
 77
     3
 78
     9
170
     0
171
     2
172
     1
173
     0
174
     0
175
     0
176
   256
177
   256
178
    40
  0
DIMSTYLE
  2
BIGT$7
 70
     0
  3

  4

  5
OPEN
  6

  7

 40
0.0
 41
2.2299999999999991
 42
0.5
 43
7.0
 44
1.0
 45
0.0
 46
0.0
 47
0.0
 48
0.01
140
2.7999999999999989
141
0.0
142
0.0
143
25.399999999999999
144
1.0
145
0.0
146
1.0
147
1.0
 71
     0
 72
     0
 73
     0
 74
     0
 75
     0
 76
     0
 77
     3
 78
     9
170
     0
171
     2
172
     0
173
     0
174
     0
175
     0
176
   256
177
   256
178
    40
  0
DIMSTYLE
  2
BIGT$6
 70
     0
  3

  4

  5
OPEN
  6

  7

 40
1.0
 41
2.2299999999999991
 42
0.5
 43
2.5
 44
1.0
 45
0.0
 46
0.0
 47
0.0
 48
0.01
140
2.7999999999999989
141
0.0
142
0.0
143
25.399999999999999
144
1.0
145
0.0
146
1.0
147
1.0
 71
     0
 72
     0
 73
     0
 74
     0
 75
     0
 76
     0
 77
     3
 78
     9
170
     0
171
     2
172
     1
173
     0
174
     0
175
     0
176
   256
177
   256
178
    40
  0
DIMSTYLE
  2
BIGT$0
 70
     0
  3

  4

  5
OPEN
  6

  7

 40
1.0
 41
2.2299999999999991
 42
0.5
 43
7.0
 44
1.0
 45
0.0
 46
0.0
 47
0.0
 48
0.01
140
2.7999999999999989
141
0.0
142
0.0
143
25.399999999999999
144
1.0
145
0.0
146
1.0
147
1.0
 71
     0
 72
     0
 73
     0
 74
     0
 75
     0
 76
     0
 77
     3
 78
     9
170
     0
171
     2
172
     1
173
     0
174
     1
175
     0
176
   256
177
   256
178
    40
  0
DIMSTYLE
  2
BIGT$4
 70
     0
  3

  4

  5
OPEN
  6

  7

 40
1.0
 41
2.2299999999999991
 42
0.5
 43
2.5
 44
1.0
 45
0.0
 46
0.0
 47
0.0
 48
0.01
140
2.7999999999999989
141
0.0
142
0.0
143
25.399999999999999
144
1.0
145
0.0
146
1.0
147
1.0
 71
     0
 72
     0
 73
     0
 74
     0
 75
     0
 76
     0
 77
     3
 78
     9
170
     0
171
     2
172
     1
173
     0
174
     0
175
     0
176
   256
177
   256
178
    40
  0
DIMSTYLE
  2
BIGT$SH
 70
     0
  3

  4

  5
OPEN
  6

  7

 40
1.0
 41
2.2299999999999991
 42
0.5
 43
7.0
 44
1.0
 45
0.0
 46
0.0
 47
0.0
 48
0.0
140
2.7999999999999989
141
0.0
142
0.0
143
25.399999999999999
144
1.0
145
0.0
146
1.0
147
1.0
 71
     0
 72
     0
 73
     0
 74
     0
 75
     0
 76
     0
 77
     3
 78
     9
170
     0
171
     2
172
     1
173
     0
174
     0
175
     0
176
   256
177
   256
178
    40
  0
DIMSTYLE
  2
BIGT$SF
 70
     0
  3

  4

  5
OPEN
  6

  7

 40
1.0
 41
2.2299999999999991
 42
0.5
 43
7.0
 44
1.0
 45
0.0
 46
0.0
 47
0.0
 48
0.0
140
2.7999999999999989
141
0.0
142
0.0
143
25.399999999999999
144
1.0
145
0.0
146
1.0
147
1.0
 71
     0
 72
     0
 73
     0
 74
     0
 75
     0
 76
     0
 77
     3
 78
     9
170
     0
171
     2
172
     1
173
     0
174
     0
175
     0
176
   256
177
   256
178
    40
  0
DIMSTYLE
  2
TECHNICAL_OSAKA
 70
     0
  3

  4
"
  5
OPEN30
  6

  7

 40
1.0
 41
2.5
 42
1.0
 43
10.0
 44
1.0
 45
0.0
 46
0.0
 47
0.1
 48
0.1
140
2.7999999999999989
141
0.0
142
0.0
143
0.0393701
144
1.0
145
0.0
146
0.71
147
1.5
 71
     0
 72
     0
 73
     0
 74
     0
 75
     0
 76
     0
 77
     3
 78
     8
170
     0
171
     2
172
     1
173
     0
174
     0
175
     0
176
   256
177
   256
178
    40
  0
DIMSTYLE
  2
TECHNICAL_OSAKA$3
 70
     0
  3

  4
"
  5
OPEN30
  6

  7

 40
1.0
 41
2.5
 42
1.0
 43
10.0
 44
1.0
 45
0.0
 46
0.0
 47
0.1
 48
0.1
140
2.7999999999999989
141
0.0
142
0.0
143
0.0393701
144
1.0
145
0.0
146
0.71
147
1.5
 71
     0
 72
     0
 73
     0
 74
     1
 75
     0
 76
     0
 77
     3
 78
     8
170
     0
171
     2
172
     0
173
     0
174
     0
175
     0
176
   256
177
   256
178
    40
  0
DIMSTYLE
  2
TECHNICAL_OSAKA$4
 70
     0
  3

  4
"
  5
OPEN30
  6

  7

 40
1.0
 41
2.5
 42
1.0
 43
10.0
 44
1.0
 45
0.0
 46
0.0
 47
0.1
 48
0.1
140
2.7999999999999989
141
0.0
142
0.0
143
0.0393701
144
1.0
145
0.0
146
0.71
147
1.5
 71
     0
 72
     0
 73
     0
 74
     1
 75
     0
 76
     0
 77
     3
 78
     8
170
     0
171
     2
172
     0
173
     0
174
     0
175
     0
176
   256
177
   256
178
    40
  0
DIMSTYLE
  2
TECHNICAL_OSAKA$6
 70
     0
  3

  4
"
  5
OPEN30
  6

  7

 40
1.0
 41
2.5
 42
1.0
 43
10.0
 44
1.0
 45
0.0
 46
0.0
 47
0.1
 48
0.1
140
2.7999999999999989
141
0.0
142
0.0
143
0.0393701
144
1.0
145
0.0
146
0.71
147
1.5
 71
     0
 72
     0
 73
     0
 74
     0
 75
     0
 76
     0
 77
     0
 78
     8
170
     0
171
     2
172
     1
173
     0
174
     0
175
     0
176
   256
177
   256
178
    40
  0
DIMSTYLE
  2
TECHNICAL_OSAKA$7
 70
     0
  3

  4
"
  5
OPEN30
  6

  7

 40
1.0
 41
2.5
 42
1.0
 43
10.0
 44
1.0
 45
0.0
 46
0.0
 47
0.1
 48
0.1
140
2.7999999999999989
141
0.0
142
0.0
143
0.0393701
144
1.0
145
0.0
146
0.71
147
1.5
 71
     0
 72
     0
 73
     0
 74
     0
 75
     0
 76
     0
 77
     3
 78
     8
170
     0
171
     2
172
     1
173
     0
174
     0
175
     0
176
   256
177
   256
178
    40
  0
DIMSTYLE
  2
TECHNICAL_OSAKA$SF
 70
     0
  3

  4
"
  5
OPEN30
  6
OPEN30
  7
OPEN30
 40
1.0
 41
2.5
 42
1.0
 43
10.0
 44
1.0
 45
0.0
 46
0.0
 47
0.1
 48
0.1
140
3.5
141
0.0
142
0.0
143
0.0393701
144
1.0
145
0.0
146
0.71
147
1.5
 71
     0
 72
     0
 73
     0
 74
     0
 75
     1
 76
     1
 77
     3
 78
     8
170
     0
171
     2
172
     1
173
     0
174
     0
175
     0
176
   256
177
   256
178
    40
  0
DIMSTYLE
  2
TECHNICAL_OSAKA$SH
 70
     0
  3

  4
"
  5
OPEN30
  6
GENAXEH
  7
OPEN30
 40
1.0
 41
2.5
 42
1.0
 43
10.0
 44
1.0
 45
0.0
 46
0.0
 47
0.1
 48
0.1
140
3.5
141
0.0
142
0.0
143
0.0393701
144
2.0
145
0.0
146
0.71
147
1.5
 71
     0
 72
     0
 73
     0
 74
     0
 75
     1
 76
     1
 77
     3
 78
     8
170
     0
171
     2
172
     1
173
     1
174
     0
175
     0
176
   256
177
   256
178
    40
  0
DIMSTYLE
  2
STANDARD
 70
     0
  3

  4

  5

  6

  7

 40
1.0
 41
0.18
 42
0.0625
 43
0.38
 44
0.18
 45
0.0
 46
0.0
 47
0.0
 48
0.0
140
0.18
141
0.09
142
0.0
143
25.399999999999999
144
1.0
145
0.0
146
1.0
147
0.09
 71
     0
 72
     0
 73
     1
 74
     1
 75
     0
 76
     0
 77
     0
 78
     0
170
     0
171
     2
172
     0
173
     0
174
     0
175
     0
176
     0
177
     0
178
     0
  0
ENDTAB
  0
ENDSEC
  0
SECTION
  2
BLOCKS
  0
BLOCK
  8
0
  2
$MODEL_SPACE
 70
     0
 10
0.0
 20
0.0
 30
0.0
  3
$MODEL_SPACE
  1

  0
ENDBLK
  5
1C
  8
0
  0
BLOCK
 67
     1
  8
0
  2
$PAPER_SPACE
 70
     0
 10
0.0
 20
0.0
 30
0.0
  3
$PAPER_SPACE
  1

  0
ENDBLK
  5
19
 67
     1
  8
0
  0
BLOCK
  8
0
  2
_OPEN
 70
     0
 10
0.0
 20
0.0
 30
0.0
  3
_OPEN
  1

  0
LINE
  5
4DFB
  8
0
  6
BYBLOCK
 62
     0
 10
-1.0
 20
0.1666666666666666
 30
0.0
 11
0.0
 21
0.0
 31
0.0
  0
LINE
  5
4DFC
  8
0
  6
BYBLOCK
 62
     0
 10
-1.0
 20
-0.1666666666666666
 30
0.0
 11
0.0
 21
0.0
 31
0.0
  0
LINE
  5
4DFD
  8
0
  6
BYBLOCK
 62
     0
 10
0.0
 20
0.0
 30
0.0
 11
-1.0
 21
0.0
 31
0.0
  0
ENDBLK
  5
4DFE
  8
0
  0
BLOCK
  8
0
  2
GENAXEH
 70
     0
 10
0.0
 20
0.0
 30
0.0
  3
GENAXEH
  1

  0
LINE
  5
4E36
  8
0
 10
-1.0
 20
0.0
 30
0.0
 11
1.0
 21
0.0
 31
0.0
  0
ENDBLK
  5
4E37
  8
0
  0
BLOCK
  8
0
  2
_OPEN30
 70
     0
 10
0.0
 20
0.0
 30
0.0
  3
_OPEN30
  1

  0
LINE
  5
4E72
  8
0
  6
BYBLOCK
 62
     0
 10
-1.0
 20
0.26794919
 30
0.0
 11
0.0
 21
0.0
 31
0.0
  0
LINE
  5
4E73
  8
0
  6
BYBLOCK
 62
     0
 10
0.0
 20
0.0
 30
0.0
 11
-1.0
 21
-0.26794919
 31
0.0
  0
LINE
  5
4E74
  8
0
  6
BYBLOCK
 62
     0
 10
0.0
 20
0.0
 30
0.0
 11
-1.0
 21
0.0
 31
0.0
  0
ENDBLK
  5
4E75
  8
0
  0
ENDSEC
  0
SECTION
  2
ENTITIES
  0
LINE
  5
42CF
  8
245
  6
CENTER2
 10
-50.451067060612793
 20
0.0000000000000568
 30
0.0
 11
122.0000000000021
 21
-0.0000000000002274
 31
0.0
  0
LINE
  5
430B
  8
241
  6
CONTINUOUS
 10
160.40660858058999
 20
-17.928932188127192
 30
0.0
 11
242.51847170225491
 21
-17.928932188127192
 31
0.0
  0
ARC
  5
430D
  8
240
  6
CONTINUOUS
 10
175.07752404709481
 20
21.50000000000728
 30
0.0
 40
10.0
 50
90.000000000000028
 51
134.22004442768139
  0
ARC
  5
430F
  8
240
  6
CONTINUOUS
 10
196.0000000000025
 20
0.000000000007276
 30
0.0
 40
50.0
 50
307.34474435401768
 51
32.513614633223682
  0
ARC
  5
4310
  8
240
  6
CONTINUOUS
 10
229.7305499510484
 20
21.50000000000728
 30
0.0
 40
10.0
 50
32.513614633223682
 51
90.000000000000028
  0
LINE
  5
4311
  8
240
  6
CONTINUOUS
 10
229.7305499510484
 20
31.50000000000728
 30
0.0
 11
175.07752404709481
 21
31.500000000008011
 31
0.0
  0
LINE
  5
4312
  8
241
  6
CONTINUOUS
 10
221.00000000000259
 20
31.50000000000739
 30
0.0
 11
221.00000000000259
 21
6.5000000000072751
 31
0.0
  0
LINE
  5
4313
  8
241
  6
CONTINUOUS
 10
221.00000000000259
 20
6.5000000000072751
 30
0.0
 11
196.0000000000025
 21
6.5000000000072751
 31
0.0
  0
LINE
  5
4319
  8
241
  6
CONTINUOUS
 10
168.16536878051571
 20
-28.726874262173851
 30
0.0
 11
236.92391348741029
 21
-28.726874262173851
 31
0.0
  0
LINE
  5
431B
  8
240
  6
CONTINUOUS
 10
191.53485722512951
 20
-39.749999999992731
 30
0.0
 11
226.33047147672039
 21
-39.749999999992731
 31
0.0
  0
ARC
  5
431C
  8
240
  6
CONTINUOUS
 10
196.0000000000025
 20
0.000000000007276
 30
0.0
 40
40.000000000000028
 50
134.2200444276838
 51
263.59079602178349
  0
LINE
  5
431E
  8
245
  6
CENTER2
 10
196.00000000000259
 20
51.516361672240457
 30
0.0
 11
196.00000000000259
 21
-53.997174530853812
 31
0.0
  0
LINE
  5
432F
  8
240
  6
CONTINUOUS
 10
117.07106781186759
 20
-17.928932188134461
 30
0.0
 11
109.1422935355524
 21
-25.85770646444945
 31
0.0
  0
ARC
  5
4330
  8
240
  6
CONTINUOUS
 10
98.535691817754298
 20
-15.25110474665115
 30
0.0
 40
15.0
 50
278.00000000000091
 51
315.0
1001
ASK_MEN_XD
1005
4354
1070
     1
1005
432F
1070
     1
  0
LINE
  5
4331
  8
240
  6
CONTINUOUS
 10
120.0000000000021
 20
30.500000000000231
 30
0.0
 11
120.0000000000021
 21
-10.85786437626893
 31
0.0
  0
ARC
  5
4332
  8
240
  6
CONTINUOUS
 10
119.0000000000021
 20
30.500000000000231
 30
0.0
 40
1.0
 50
0.0
 51
90.000000000000028
  0
ARC
  5
4333
  8
240
  6
CONTINUOUS
 10
110.0000000000021
 20
-10.85786437626893
 30
0.0
 40
10.0
 50
315.0
 51
0.0
  0
LINE
  5
4335
  8
240
  6
CONTINUOUS
 10
119.0000000000021
 20
31.500000000000231
 30
0.0
 11
32.999999999998067
 21
31.500000000000181
 31
0.0
  0
LINE
  5
4337
  8
243
  6
HIDDEN2
 10
38.000000000002053
 20
31.500000000000401
 30
0.0
 11
38.000000000002053
 21
6.500000000000397
 31
0.0
  0
LINE
  5
4339
  8
243
  6
HIDDEN2
 10
120.0000000000021
 20
6.5000000000002274
 30
0.0
 11
38.000000000002053
 21
6.5000000000001696
 31
0.0
  0
LINE
  5
4343
  8
245
  6
CENTER2
 10
49.34135061937036
 20
19.000000000000341
 30
0.0
 11
114.37094021072279
 21
19.000000000000512
 31
0.0
  0
LINE
  5
4352
  8
240
  6
CONTINUOUS
 10
32.999999999998067
 20
31.500000000000181
 30
0.0
 11
32.999999999998039
 21
40.0
 31
0.0
  0
LINE
  5
4354
  8
240
  6
CONTINUOUS
 10
30.217599884541698
 20
-39.999999999999979
 30
0.0
 11
100.6232883321555
 21
-30.105125777774671
 31
0.0
  0
POLYLINE
  5
43BB
  8
241
  6
CONTINUOUS
 10
181.89540619835159
 20
0.9999999999319158
 30
0.0
 66
     1
 70
     8
  0
VERTEX
  8
241
  5
4F1C
 10
181.895
 20
1.00000
 30
0.000000
  70
    32
  0
VERTEX
  8
241
  5
4F1D
 10
181.553
 20
1.09507
 30
0.000000
  70
    32
  0
VERTEX
  8
241
  5
4F1E
 10
181.215
 20
1.20836
 30
0.000000
  70
    32
  0
VERTEX
  8
241
  5
4F1F
 10
180.881
 20
1.33963
 30
0.000000
  70
    32
  0
VERTEX
  8
241
  5
4F20
 10
180.553
 20
1.48860
 30
0.000000
  70
    32
  0
VERTEX
  8
241
  5
4F21
 10
180.232
 20
1.65497
 30
0.000000
  70
    32
  0
VERTEX
  8
241
  5
4F22
 10
179.917
 20
1.83838
 30
0.000000
  70
    32
  0
VERTEX
  8
241
  5
4F23
 10
179.609
 20
2.03845
 30
0.000000
  70
    32
  0
VERTEX
  8
241
  5
4F24
 10
179.310
 20
2.25476
 30
0.000000
  70
    32
  0
VERTEX
  8
241
  5
4F25
 10
179.020
 20
2.48685
 30
0.000000
  70
    32
  0
VERTEX
  8
241
  5
4F26
 10
178.739
 20
2.73424
 30
0.000000
  70
    32
  0
VERTEX
  8
241
  5
4F27
 10
178.468
 20
2.99642
 30
0.000000
  70
    32
  0
VERTEX
  8
241
  5
4F28
 10
178.207
 20
3.27282
 30
0.000000
  70
    32
  0
VERTEX
  8
241
  5
4F29
 10
177.958
 20
3.56287
 30
0.000000
  70
    32
  0
VERTEX
  8
241
  5
4F2A
 10
177.720
 20
3.86597
 30
0.000000
  70
    32
  0
VERTEX
  8
241
  5
4F2B
 10
177.494
 20
4.18147
 30
0.000000
  70
    32
  0
VERTEX
  8
241
  5
4F2C
 10
177.281
 20
4.50871
 30
0.000000
  70
    32
  0
VERTEX
  8
241
  5
4F2D
 10
177.081
 20
4.84702
 30
0.000000
  70
    32
  0
VERTEX
  8
241
  5
4F2E
 10
176.895
 20
5.19567
 30
0.000000
  70
    32
  0
VERTEX
  8
241
  5
4F2F
 10
176.722
 20
5.55394
 30
0.000000
  70
    32
  0
VERTEX
  8
241
  5
4F30
 10
176.563
 20
5.92108
 30
0.000000
  70
    32
  0
VERTEX
  8
241
  5
4F31
 10
176.419
 20
6.29631
 30
0.000000
  70
    32
  0
VERTEX
  8
241
  5
4F32
 10
176.290
 20
6.67886
 30
0.000000
  70
    32
  0
VERTEX
  8
241
  5
4F33
 10
176.176
 20
7.06791
 30
0.000000
  70
    32
  0
VERTEX
  8
241
  5
4F34
 10
176.078
 20
7.46265
 30
0.000000
  70
    32
  0
VERTEX
  8
241
  5
4F35
 10
175.995
 20
7.86225
 30
0.000000
  70
    32
  0
VERTEX
  8
241
  5
4F36
 10
175.927
 20
8.26588
 30
0.000000
  70
    32
  0
VERTEX
  8
241
  5
4F37
 10
175.876
 20
8.67269
 30
0.000000
  70
    32
  0
VERTEX
  8
241
  5
4F38
 10
175.840
 20
9.08182
 30
0.000000
  70
    32
  0
VERTEX
  8
241
  5
4F39
 10
175.821
 20
9.49242
 30
0.000000
  70
    32
  0
VERTEX
  8
241
  5
4F3A
 10
175.818
 20
9.90363
 30
0.000000
  70
    32
  0
VERTEX
  8
241
  5
4F3B
 10
175.831
 20
10.3146
 30
0.000000
  70
    32
  0
VERTEX
  8
241
  5
4F3C
 10
175.860
 20
10.7244
 30
0.000000
  70
    32
  0
VERTEX
  8
241
  5
4F3D
 10
175.905
 20
11.1323
 30
0.000000
  70
    32
  0
VERTEX
  8
241
  5
4F3E
 10
175.965
 20
11.5373
 30
0.000000
  70
    32
  0
VERTEX
  8
241
  5
4F3F
 10
176.042
 20
11.9386
 30
0.000000
  70
    32
  0
VERTEX
  8
241
  5
4F40
 10
176.134
 20
12.3355
 30
0.000000
  70
    32
  0
VERTEX
  8
241
  5
4F41
 10
176.242
 20
12.7269
 30
0.000000
  70
    32
  0
VERTEX
  8
241
  5
4F42
 10
176.365
 20
13.1122
 30
0.000000
  70
    32
  0
VERTEX
  8
241
  5
4F43
 10
176.503
 20
13.4905
 30
0.000000
  70
    32
  0
VERTEX
  8
241
  5
4F44
 10
176.656
 20
13.8610
 30
0.000000
  70
    32
  0
VERTEX
  8
241
  5
4F45
 10
176.823
 20
14.2230
 30
0.000000
  70
    32
  0
VERTEX
  8
241
  5
4F46
 10
177.004
 20
14.5756
 30
0.000000
  70
    32
  0
VERTEX
  8
241
  5
4F47
 10
177.198
 20
14.9182
 30
0.000000
  70
    32
  0
VERTEX
  8
241
  5
4F48
 10
177.406
 20
15.2500
 30
0.000000
  70
    32
  0
VERTEX
  8
241
  5
4F49
 10
177.627
 20
15.5704
 30
0.000000
  70
    32
  0
VERTEX
  8
241
  5
4F4A
 10
177.860
 20
15.8786
 30
0.000000
  70
    32
  0
VERTEX
  8
241
  5
4F4B
 10
178.104
 20
16.1740
 30
0.000000
  70
    32
  0
VERTEX
  8
241
  5
4F4C
 10
178.361
 20
16.4560
 30
0.000000
  70
    32
  0
VERTEX
  8
241
  5
4F4D
 10
178.627
 20
16.7241
 30
0.000000
  70
    32
  0
VERTEX
  8
241
  5
4F4E
 10
178.904
 20
16.9775
 30
0.000000
  70
    32
  0
VERTEX
  8
241
  5
4F4F
 10
179.191
 20
17.2159
 30
0.000000
  70
    32
  0
VERTEX
  8
241
  5
4F50
 10
179.487
 20
17.4387
 30
0.000000
  70
    32
  0
VERTEX
  8
241
  5
4F51
 10
179.791
 20
17.6454
 30
0.000000
  70
    32
  0
VERTEX
  8
241
  5
4F52
 10
180.103
 20
17.8356
 30
0.000000
  70
    32
  0
VERTEX
  8
241
  5
4F53
 10
180.422
 20
18.0089
 30
0.000000
  70
    32
  0
VERTEX
  8
241
  5
4F54
 10
180.748
 20
18.1650
 30
0.000000
  70
    32
  0
VERTEX
  8
241
  5
4F55
 10
181.079
 20
18.3035
 30
0.000000
  70
    32
  0
VERTEX
  8
241
  5
4F56
 10
181.415
 20
18.4241
 30
0.000000
  70
    32
  0
VERTEX
  8
241
  5
4F57
 10
181.756
 20
18.5266
 30
0.000000
  70
    32
  0
VERTEX
  8
241
  5
4F58
 10
182.100
 20
18.6108
 30
0.000000
  70
    32
  0
VERTEX
  8
241
  5
4F59
 10
182.448
 20
18.6764
 30
0.000000
  70
    32
  0
VERTEX
  8
241
  5
4F5A
 10
182.797
 20
18.7234
 30
0.000000
  70
    32
  0
VERTEX
  8
241
  5
4F5B
 10
183.148
 20
18.7516
 30
0.000000
  70
    32
  0
VERTEX
  8
241
  5
4F5C
 10
183.500
 20
18.7610
 30
0.000000
  70
    32
  0
VERTEX
  8
241
  5
4F5D
 10
183.852
 20
18.7516
 30
0.000000
  70
    32
  0
VERTEX
  8
241
  5
4F5E
 10
184.203
 20
18.7234
 30
0.000000
  70
    32
  0
VERTEX
  8
241
  5
4F5F
 10
184.552
 20
18.6764
 30
0.000000
  70
    32
  0
VERTEX
  8
241
  5
4F60
 10
184.900
 20
18.6108
 30
0.000000
  70
    32
  0
VERTEX
  8
241
  5
4F61
 10
185.244
 20
18.5266
 30
0.000000
  70
    32
  0
VERTEX
  8
241
  5
4F62
 10
185.585
 20
18.4241
 30
0.000000
  70
    32
  0
VERTEX
  8
241
  5
4F63
 10
185.921
 20
18.3035
 30
0.000000
  70
    32
  0
VERTEX
  8
241
  5
4F64
 10
186.252
 20
18.1650
 30
0.000000
  70
    32
  0
VERTEX
  8
241
  5
4F65
 10
186.578
 20
18.0089
 30
0.000000
  70
    32
  0
VERTEX
  8
241
  5
4F66
 10
186.897
 20
17.8356
 30
0.000000
  70
    32
  0
VERTEX
  8
241
  5
4F67
 10
187.209
 20
17.6454
 30
0.000000
  70
    32
  0
VERTEX
  8
241
  5
4F68
 10
187.513
 20
17.4387
 30
0.000000
  70
    32
  0
VERTEX
  8
241
  5
4F69
 10
187.809
 20
17.2159
 30
0.000000
  70
    32
  0
VERTEX
  8
241
  5
4F6A
 10
188.096
 20
16.9775
 30
0.000000
  70
    32
  0
VERTEX
  8
241
  5
4F6B
 10
188.373
 20
16.7241
 30
0.000000
  70
    32
  0
VERTEX
  8
241
  5
4F6C
 10
188.639
 20
16.4560
 30
0.000000
  70
    32
  0
VERTEX
  8
241
  5
4F6D
 10
188.896
 20
16.1740
 30
0.000000
  70
    32
  0
VERTEX
  8
241
  5
4F6E
 10
189.140
 20
15.8786
 30
0.000000
  70
    32
  0
VERTEX
  8
241
  5
4F6F
 10
189.373
 20
15.5704
 30
0.000000
  70
    32
  0
VERTEX
  8
241
  5
4F70
 10
189.594
 20
15.2500
 30
0.000000
  70
    32
  0
VERTEX
  8
241
  5
4F71
 10
189.802
 20
14.9182
 30
0.000000
  70
    32
  0
VERTEX
  8
241
  5
4F72
 10
189.996
 20
14.5756
 30
0.000000
  70
    32
  0
VERTEX
  8
241
  5
4F73
 10
190.177
 20
14.2230
 30
0.000000
  70
    32
  0
VERTEX
  8
241
  5
4F74
 10
190.344
 20
13.8610
 30
0.000000
  70
    32
  0
VERTEX
  8
241
  5
4F75
 10
190.497
 20
13.4905
 30
0.000000
  70
    32
  0
VERTEX
  8
241
  5
4F76
 10
190.635
 20
13.1122
 30
0.000000
  70
    32
  0
VERTEX
  8
241
  5
4F77
 10
190.758
 20
12.7269
 30
0.000000
  70
    32
  0
VERTEX
  8
241
  5
4F78
 10
190.866
 20
12.3355
 30
0.000000
  70
    32
  0
VERTEX
  8
241
  5
4F79
 10
190.958
 20
11.9386
 30
0.000000
  70
    32
  0
VERTEX
  8
241
  5
4F7A
 10
191.035
 20
11.5373
 30
0.000000
  70
    32
  0
VERTEX
  8
241
  5
4F7B
 10
191.095
 20
11.1323
 30
0.000000
  70
    32
  0
VERTEX
  8
241
  5
4F7C
 10
191.140
 20
10.7244
 30
0.000000
  70
    32
  0
VERTEX
  8
241
  5
4F7D
 10
191.169
 20
10.3146
 30
0.000000
  70
    32
  0
VERTEX
  8
241
  5
4F7E
 10
191.182
 20
9.90363
 30
0.000000
  70
    32
  0
VERTEX
  8
241
  5
4F7F
 10
191.179
 20
9.49242
 30
0.000000
  70
    32
  0
VERTEX
  8
241
  5
4F80
 10
191.160
 20
9.08182
 30
0.000000
  70
    32
  0
VERTEX
  8
241
  5
4F81
 10
191.124
 20
8.67269
 30
0.000000
  70
    32
  0
VERTEX
  8
241
  5
4F82
 10
191.073
 20
8.26588
 30
0.000000
  70
    32
  0
VERTEX
  8
241
  5
4F83
 10
191.005
 20
7.86225
 30
0.000000
  70
    32
  0
VERTEX
  8
241
  5
4F84
 10
190.922
 20
7.46265
 30
0.000000
  70
    32
  0
VERTEX
  8
241
  5
4F85
 10
190.824
 20
7.06791
 30
0.000000
  70
    32
  0
VERTEX
  8
241
  5
4F86
 10
190.710
 20
6.67886
 30
0.000000
  70
    32
  0
VERTEX
  8
241
  5
4F87
 10
190.581
 20
6.29631
 30
0.000000
  70
    32
  0
VERTEX
  8
241
  5
4F88
 10
190.437
 20
5.92108
 30
0.000000
  70
    32
  0
VERTEX
  8
241
  5
4F89
 10
190.278
 20
5.55394
 30
0.000000
  70
    32
  0
VERTEX
  8
241
  5
4F8A
 10
190.105
 20
5.19567
 30
0.000000
  70
    32
  0
VERTEX
  8
241
  5
4F8B
 10
189.919
 20
4.84702
 30
0.000000
  70
    32
  0
VERTEX
  8
241
  5
4F8C
 10
189.719
 20
4.50871
 30
0.000000
  70
    32
  0
VERTEX
  8
241
  5
4F8D
 10
189.506
 20
4.18147
 30
0.000000
  70
    32
  0
VERTEX
  8
241
  5
4F8E
 10
189.280
 20
3.86597
 30
0.000000
  70
    32
  0
VERTEX
  8
241
  5
4F8F
 10
189.042
 20
3.56287
 30
0.000000
  70
    32
  0
VERTEX
  8
241
  5
4F90
 10
188.793
 20
3.27282
 30
0.000000
  70
    32
  0
VERTEX
  8
241
  5
4F91
 10
188.532
 20
2.99642
 30
0.000000
  70
    32
  0
VERTEX
  8
241
  5
4F92
 10
188.261
 20
2.73424
 30
0.000000
  70
    32
  0
VERTEX
  8
241
  5
4F93
 10
187.980
 20
2.48685
 30
0.000000
  70
    32
  0
VERTEX
  8
241
  5
4F94
 10
187.690
 20
2.25476
 30
0.000000
  70
    32
  0
VERTEX
  8
241
  5
4F95
 10
187.391
 20
2.03845
 30
0.000000
  70
    32
  0
VERTEX
  8
241
  5
4F96
 10
187.083
 20
1.83838
 30
0.000000
  70
    32
  0
VERTEX
  8
241
  5
4F97
 10
186.768
 20
1.65497
 30
0.000000
  70
    32
  0
VERTEX
  8
241
  5
4F98
 10
186.447
 20
1.48860
 30
0.000000
  70
    32
  0
VERTEX
  8
241
  5
4F99
 10
186.119
 20
1.33963
 30
0.000000
  70
    32
  0
VERTEX
  8
241
  5
4F9A
 10
185.785
 20
1.20836
 30
0.000000
  70
    32
  0
VERTEX
  8
241
  5
4F9B
 10
185.447
 20
1.09507
 30
0.000000
  70
    32
  0
VERTEX
  8
241
  5
4F9C
 10
185.105
 20
1.00000
 30
0.000000
  70
    32
  0
SEQEND
  8
241
  5
4F9D
  0
LINE
  5
43BC
  8
241
  6
CONTINUOUS
 10
185.10459380165341
 20
0.9999999999319015
 30
0.0
 11
181.89540619835179
 21
0.9999999999319015
 31
0.0
  0
POLYLINE
  5
43BD
  8
241
  6
CONTINUOUS
 66
     1
 10
0.0
 20
0.0
 30
0.0
 70
   128
  0
VERTEX
  5
4EF0
  8
241
  6
CONTINUOUS
 10
177.4775395531145
 20
4.2060088291826778
 30
0.0
  0
VERTEX
  5
4EF1
  8
241
  6
CONTINUOUS
 10
177.27636523132219
 20
4.6417012958254409
 30
0.0
  0
VERTEX
  5
4EF2
  8
241
  6
CONTINUOUS
 10
177.05351463694731
 20
5.3186626445705647
 30
0.0
  0
VERTEX
  5
4EF3
  8
241
  6
CONTINUOUS
 10
176.9284413526639
 20
6.0142134791065578
 30
0.0
  0
VERTEX
  5
4EF4
  8
241
  6
CONTINUOUS
 10
176.90304243223281
 20
6.7178040058943216
 30
0.0
  0
VERTEX
  5
4EF5
  8
241
  6
CONTINUOUS
 10
176.9777031147384
 20
7.4187624890591328
 30
0.0
  0
VERTEX
  5
4EF6
  8
241
  6
CONTINUOUS
 10
177.15129098146039
 20
8.1064571143471085
 30
0.0
  0
VERTEX
  5
4EF7
  8
241
  6
CONTINUOUS
 10
177.42117313187759
 20
8.7704572475695954
 30
0.0
  0
VERTEX
  5
4EF8
  8
241
  6
CONTINUOUS
 10
177.78325611828569
 20
9.4006916416406625
 30
0.0
  0
VERTEX
  5
4EF9
  8
241
  6
CONTINUOUS
 10
178.2320480333203
 20
9.9876011925975945
 30
0.0
  0
VERTEX
  5
4EFA
  8
241
  6
CONTINUOUS
 10
178.7607418086686
 20
10.522283927671189
 30
0.0
  0
VERTEX
  5
4EFB
  8
241
  6
CONTINUOUS
 10
179.3613184615356
 20
10.99663002629347
 30
0.0
  0
VERTEX
  5
4EFC
  8
241
  6
CONTINUOUS
 10
180.0246687228676
 20
11.4034448261076
 30
0.0
  0
VERTEX
  5
4EFD
  8
241
  6
CONTINUOUS
 10
180.74073120253539
 20
11.736557948280501
 30
0.0
  0
VERTEX
  5
4EFE
  8
241
  6
CONTINUOUS
 10
181.498644995848
 20
11.990916886957219
 30
0.0
  0
VERTEX
  5
4EFF
  8
241
  6
CONTINUOUS
 10
182.2869144167349
 20
12.162663643333421
 30
0.0
  0
VERTEX
  5
4F00
  8
241
  6
CONTINUOUS
 10
183.09358335899859
 20
12.249193241998571
 30
0.0
  0
VERTEX
  5
4F01
  8
241
  6
CONTINUOUS
 10
183.9064166410065
 20
12.249193241998571
 30
0.0
  0
VERTEX
  5
4F02
  8
241
  6
CONTINUOUS
 10
184.7130855832703
 20
12.162663643333421
 30
0.0
  0
VERTEX
  5
4F03
  8
241
  6
CONTINUOUS
 10
185.5013550041572
 20
11.990916886957161
 30
0.0
  0
VERTEX
  5
4F04
  8
241
  6
CONTINUOUS
 10
186.2592687974697
 20
11.736557948280501
 30
0.0
  0
VERTEX
  5
4F05
  8
241
  6
CONTINUOUS
 10
186.97533127713751
 20
11.40344482610749
 30
0.0
  0
VERTEX
  5
4F06
  8
241
  6
CONTINUOUS
 10
187.6386815384696
 20
10.99663002629341
 30
0.0
  0
VERTEX
  5
4F07
  8
241
  6
CONTINUOUS
 10
188.23925819133649
 20
10.522283927671079
 30
0.0
  0
VERTEX
  5
4F08
  8
241
  6
CONTINUOUS
 10
188.76795196668479
 20
9.9876011925975945
 30
0.0
  0
VERTEX
  5
4F09
  8
241
  6
CONTINUOUS
 10
189.2167438817194
 20
9.4006916416406057
 30
0.0
  0
VERTEX
  5
4F0A
  8
241
  6
CONTINUOUS
 10
189.57882686812761
 20
8.7704572475695386
 30
0.0
  0
VERTEX
  5
4F0B
  8
241
  6
CONTINUOUS
 10
189.8487090185447
 20
8.1064571143469948
 30
0.0
  0
VERTEX
  5
4F0C
  8
241
  6
CONTINUOUS
 10
190.02229688526671
 20
7.418762489059076
 30
0.0
  0
VERTEX
  5
4F0D
  8
241
  6
CONTINUOUS
 10
190.09695756777231
 20
6.7178040058942647
 30
0.0
  0
VERTEX
  5
4F0E
  8
241
  6
CONTINUOUS
 10
190.07155864734119
 20
6.0142134791065009
 30
0.0
  0
VERTEX
  5
4F0F
  8
241
  6
CONTINUOUS
 10
189.94648536305769
 20
5.3186626445705079
 30
0.0
  0
VERTEX
  5
4F10
  8
241
  6
CONTINUOUS
 10
189.7236347686829
 20
4.6417012958253281
 30
0.0
  0
VERTEX
  5
4F11
  8
241
  6
CONTINUOUS
 10
189.52246044689059
 20
4.2060088291826778
 30
0.0
  0
SEQEND
  5
4F12
  8
241
  6
CONTINUOUS
  0
LINE
  5
450B
  8
241
  6
CONTINUOUS
 10
196.0000000000025
 20
31.50000000000739
 30
0.0
 11
196.0000000000025
 21
6.5000000000072751
 31
0.0
  0
ARC
  5
4517
  8
246
  6
PHANTOM2
 10
116.0000000000545
 20
-46.000044698403492
 30
0.0
 40
4.0
 50
270.0
 51
0.0
  0
LINE
  5
4518
  8
246
  6
PHANTOM2
 10
116.0000000000545
 20
-50.000044698403478
 30
0.0
 11
38.00000000000378
 21
-50.000044698403968
 31
0.0
  0
ARC
  5
4519
  8
246
  6
PHANTOM2
 10
38.000000000003752
 20
-45.000044698403968
 30
0.0
 40
5.0
 50
179.99999999999031
 51
270.0
1001
ASK_MEN_XD
1005
0
1070
     1
1005
4518
1070
     1
  0
ARC
  5
451B
  8
246
  6
PHANTOM2
 10
116.0000000000543
 20
46.000044698403912
 30
0.0
 40
4.0
 50
0.0000000000002176
 51
90.000000000000213
  0
LINE
  5
451C
  8
246
  6
PHANTOM2
 10
116.0000000000543
 20
50.000044698403919
 30
0.0
 11
38.000000000003617
 21
50.000044698404153
 31
0.0
  0
ARC
  5
451D
  8
246
  6
PHANTOM2
 10
38.000000000003602
 20
45.000044698404153
 30
0.0
 40
5.0
 50
90.000000000000213
 51
180.00000000000989
1001
ASK_MEN_XD
1005
0
1070
     1
1005
4518
1070
     1
  0
LINE
  5
451E
  8
246
  6
PHANTOM2
 10
120.0000000000543
 20
46.000044698403933
 30
0.0
 11
120.0000000000541
 21
36.000044698404757
 31
0.0
  0
ARC
  5
4527
  8
246
  6
PHANTOM2
 10
196.00000000000239
 20
0.000000000007276
 30
0.0
 40
50.0
 50
32.729494698437797
 51
307.34474435401279
  0
LINE
  5
45BF
  8
245
  6
CENTER2
 10
140.0
 20
0.0
 30
0.0
 11
252.0
 21
0.0
 31
0.0
  0
LINE
  5
48EC
  8
241
  6
CONTINUOUS
 10
-39.75
 20
4.4180000000000064
 30
0.0
 11
-39.75
 21
-4.4180000000000064
 31
0.0
  0
LINE
  5
48ED
  8
241
  6
CONTINUOUS
 10
-48.024041720276138
 20
4.4180000000000064
 30
0.0
 11
-39.75
 21
4.4180000000000064
 31
0.0
  0
LINE
  5
48EE
  8
241
  6
CONTINUOUS
 10
-48.024041720276138
 20
-4.4180000000000064
 30
0.0
 11
-39.75
 21
-4.4180000000000064
 31
0.0
  0
LINE
  5
48EF
  8
240
  6
CONTINUOUS
 10
0.0000000000007105
 20
-40.0
 30
0.0
 11
0.0000000000007105
 21
-27.575623190977549
 31
0.0
  0
LINE
  5
48F0
  8
240
  6
CONTINUOUS
 10
0.0000000000007105
 20
40.0
 30
0.0
 11
0.0000000000007105
 21
27.575623190977211
 31
0.0
  0
LINE
  5
48F2
  8
240
  6
CONTINUOUS
 10
-48.0
 20
26.375703820393401
 30
0.0
 11
-48.0
 21
-26.37570382039306
 31
0.0
1001
GRPNAME
1000
PASTMD0U
  0
LINE
  5
48F3
  8
240
  6
CONTINUOUS
 10
-0.0000000000007105
 20
27.575623190977531
 30
0.0
 11
-48.0
 21
26.375703820393401
 31
0.0
  0
LINE
  5
48F4
  8
240
  6
CONTINUOUS
 10
0.0000000000007105
 20
-27.575623190977211
 30
0.0
 11
-48.0
 21
-26.37570382039306
 31
0.0
  0
LINE
  5
48F5
  8
241
  6
CONTINUOUS
 10
0.0000000000007105
 20
27.575623190977211
 30
0.0
 11
-0.0000000000007105
 21
-27.575623190977531
 31
0.0
  0
LINE
  5
48F6
  8
240
  6
CONTINUOUS
 10
0.0000000000007105
 20
40.0
 30
0.0
 11
32.999999999998039
 21
40.0
 31
0.0
  0
LINE
  5
48F7
  8
240
  6
CONTINUOUS
 10
0.0000000000007105
 20
-40.0
 30
0.0
 11
30.217599884541698
 21
-39.999999999999979
 31
0.0
  0
LINE
  5
48F8
  8
241
  6
CONTINUOUS
 10
9.9499999999999975
 20
11.77167262
 30
0.0
 11
9.9499999999999975
 21
38.22077680999999
 31
0.0
1001
GRPNAME
1000
PASTMD1I
  0
LINE
  5
48F9
  8
241
  6
CONTINUOUS
 10
14.05000000000002
 20
11.77167262
 30
0.0
 11
14.05000000000002
 21
38.22077680999999
 31
0.0
1001
GRPNAME
1000
PASTMD1I
  0
LINE
  5
48FA
  8
241
  6
CONTINUOUS
 10
9.9499999999999975
 20
11.77167262
 30
0.0
 11
14.05000000000002
 21
11.77167262
 31
0.0
1001
GRPNAME
1000
PASTMD1I
  0
LINE
  5
48FB
  8
241
  6
CONTINUOUS
 10
9.9499999999999975
 20
38.22077680999999
 30
0.0
 11
14.05000000000002
 21
38.22077680999999
 31
0.0
1001
GRPNAME
1000
PASTMD1I
  0
ARC
  5
48FC
  8
241
  6
CONTINUOUS
 10
-19.247999627147941
 20
24.996224715000011
 30
0.0
 40
35.82799962714796
 50
338.33912465138178
 51
21.66087534861822
  0
ARC
  5
48FD
  8
241
  6
CONTINUOUS
 10
43.247999627147912
 20
24.996224715000011
 30
0.0
 40
35.827999627147932
 50
158.33912465138181
 51
201.66087534861819
  0
LINE
  5
48FE
  8
241
  6
CONTINUOUS
 10
9.9499999999999975
 20
-11.77167262
 30
0.0
 11
9.9499999999999975
 21
-38.22077680999999
 31
0.0
1001
GRPNAME
1000
PASTMD1I
  0
LINE
  5
48FF
  8
241
  6
CONTINUOUS
 10
14.05000000000002
 20
-11.77167262
 30
0.0
 11
14.05000000000002
 21
-38.22077680999999
 31
0.0
1001
GRPNAME
1000
PASTMD1I
  0
LINE
  5
4900
  8
241
  6
CONTINUOUS
 10
9.9499999999999975
 20
-11.77167262
 30
0.0
 11
14.05000000000002
 21
-11.77167262
 31
0.0
1001
GRPNAME
1000
PASTMD1I
  0
LINE
  5
4901
  8
241
  6
CONTINUOUS
 10
9.9499999999999975
 20
-38.22077680999999
 30
0.0
 11
14.05000000000002
 21
-38.22077680999999
 31
0.0
1001
GRPNAME
1000
PASTMD1I
  0
ARC
  5
4902
  8
241
  6
CONTINUOUS
 10
-19.247999627147941
 20
-24.996224715000011
 30
0.0
 40
35.82799962714796
 50
338.33912465138178
 51
21.66087534861822
  0
ARC
  5
4903
  8
241
  6
CONTINUOUS
 10
43.247999627147912
 20
-24.996224715000011
 30
0.0
 40
35.827999627147932
 50
158.33912465138181
 51
201.66087534861819
  0
ARC
  5
4904
  8
241
  6
CONTINUOUS
 10
-42.538735191724967
 20
0.0
 30
0.0
 40
5.2245351917242671
 50
302.26098869277558
 51
57.73901130722443
  0
TEXT
  5
4905
  8
250
  6
CONTINUOUS
 10
-38.79583810142983
 20
-36.0023988214895
 30
0.0
 40
2.799999999999998
  1
C8
  7
YOKO
1001
ITEMNAME
1000
LNSP3
  0
LINE
  5
4906
  8
250
  6
CONTINUOUS
 10
-26.41268562630739
 20
-28.512949272158931
 30
0.0
 11
-25.124010491429821
 21
-26.94756513148949
 31
0.0
  0
LINE
  5
4907
  8
250
  6
CONTINUOUS
 10
-25.835335357177978
 20
-28.846282605596532
 30
0.0
 11
-25.124010491429821
 21
-26.94756513148949
 31
0.0
  0
LINE
  5
4908
  8
250
  6
CONTINUOUS
 10
-25.124010491429821
 20
-26.94756513148949
 30
0.0
 11
-26.124010491742691
 21
-28.679615938877731
 31
0.0
  0
LINE
  5
4909
  8
250
  6
CONTINUOUS
 10
-26.124010491742691
 20
-28.679615938877731
 30
0.0
 11
-30.92917143142984
 21
-37.002398821489493
 31
0.0
1001
ACAD
1000
DSTYLE
1002
{
1070
     6
1000
OPEN
1070
    41
1040
2.0
1070
    42
1040
2.0
1070
    44
1040
2.0
1070
   140
1040
4.0
1070
   343
1005
0
1002
}
  0
LINE
  5
490A
  8
250
  6
CONTINUOUS
 10
-30.92917143142984
 20
-37.002398821489493
 30
0.0
 11
-41.195838101429828
 21
-37.002398821489493
 31
0.0
1001
ITEMNAME
1000
LNSP2
  0
LINE
  5
490B
  8
247
  6
CONTINUOUS
 10
6.0000000000007052
 20
-20.250000000069999
 30
0.0
 11
6.0000000000007052
 21
-13.557692308029999
 31
0.0
  0
ARC
  5
490C
  8
247
  6
CONTINUOUS
 10
4.250000000070683
 20
-20.250000000069999
 30
0.0
 40
1.7499999999299991
 50
180.0
 51
0.0
  0
ARC
  5
490D
  8
247
  6
CONTINUOUS
 10
4.250000000070683
 20
-13.557692308029999
 30
0.0
 40
1.7499999999299991
 50
0.0
 51
180.0
  0
LINE
  5
490E
  8
247
  6
CONTINUOUS
 10
2.5000000001407101
 20
-19.384615384720011
 30
0.0
 11
5.5000000000207159
 21
-20.244851541962021
 31
0.0
  0
LINE
  5
490F
  8
247
  6
CONTINUOUS
 10
3.9230769231607181
 20
-18.48498381833582
 30
0.0
 11
3.9230769231607181
 21
-19.792676125975809
 31
0.0
  0
ARC
  5
4910
  8
247
  6
CONTINUOUS
 10
3.049598667703691
 20
-18.145143816089782
 30
0.0
 40
0.5538165441895349
 50
72.99788967529183
 51
172.92416621851029
  0
ARC
  5
4911
  8
247
  6
CONTINUOUS
 10
2.9360330444664831
 20
-18.566878323028789
 30
0.0
 40
0.9904354236226808
 50
4.7429368522022139
 51
73.849226273266439
1001
GENIUS_GENOBJ-N-FIL_13
1002
{
1000
OWNER
1000
GEN
1002
}
1001
GENIUS_GENODEF_13
1002
{
1000
HIER
1070
     0
1002
}
1002
{
1000
MANEDIT
1070
     0
1002
}
1002
{
1000
NOSEL
1070
     0
1002
}
1002
{
1000
BEHIND
1070
     0
1002
}
1002
{
1000
OTHER
1070
     0
1002
}
1002
{
1000
REACTOR
1002
}
  0
LINE
  5
4912
  8
247
  6
CONTINUOUS
 10
5.5000000000207159
 20
-18.937159234321989
 30
0.0
 11
5.5000000000207159
 21
-20.244851541962021
 31
0.0
  0
LINE
  5
4913
  8
247
  6
CONTINUOUS
 10
2.5000000001407101
 20
-19.384615384720011
 30
0.0
 11
2.5000000001407101
 21
-18.076923077079972
 31
0.0
  0
ARC
  5
4914
  8
247
  6
CONTINUOUS
 10
4.4820242326662481
 20
-18.56091963654697
 30
0.0
 40
0.5640818586791229
 50
65.990941652529017
 51
172.26344345906901
  0
ARC
  5
4915
  8
247
  6
CONTINUOUS
 10
4.4874290391872762
 20
-19.03826268534706
 30
0.0
 40
1.0176059446230981
 50
5.7019851642597761
 51
77.277338436822305
1001
GENIUS_GENOBJ-N-FIL_13
1002
{
1000
OWNER
1000
GEN
1002
}
1001
GENIUS_GENODEF_13
1002
{
1000
HIER
1070
     0
1002
}
1002
{
1000
MANEDIT
1070
     0
1002
}
1002
{
1000
NOSEL
1070
     0
1002
}
1002
{
1000
BEHIND
1070
     0
1002
}
1002
{
1000
OTHER
1070
     0
1002
}
1002
{
1000
REACTOR
1002
}
  0
LINE
  5
4916
  8
247
  6
CONTINUOUS
 10
5.5000000000207159
 20
-17.283313080541991
 30
0.0
 11
2.5000000001407101
 21
-16.423076923300009
 31
0.0
  0
LINE
  5
4917
  8
247
  6
CONTINUOUS
 10
2.5000000001407101
 20
-14.00000000032
 30
0.0
 11
2.5000000001407101
 21
-14.565736619456599
 31
0.0
  0
LINE
  5
4918
  8
247
  6
CONTINUOUS
 10
5.5000000000207159
 20
-15.461538461799989
 30
0.0
 11
5.5000000000207159
 21
-14.846153846440011
 31
0.0
  0
ARC
  5
4919
  8
247
  6
CONTINUOUS
 10
4.58328513597408
 20
-13.708791209122859
 30
0.0
 40
2.2526500823422082
 50
202.35948814152931
 51
254.9932485428464
  0
ARC
  5
491A
  8
247
  6
CONTINUOUS
 10
3.3083126551952362
 20
-14.37406947921323
 30
0.0
 40
0.8906723995727782
 50
94.994589319075246
 51
155.16632895730399
1001
GENIUS_GENOBJ-N-FIL_13
1002
{
1000
OWNER
1000
GEN
1002
}
1001
GENIUS_GENODEF_13
1002
{
1000
HIER
1070
     0
1002
}
1002
{
1000
MANEDIT
1070
     0
1002
}
1002
{
1000
NOSEL
1070
     0
1002
}
1002
{
1000
BEHIND
1070
     0
1002
}
1002
{
1000
OTHER
1070
     0
1002
}
1002
{
1000
REACTOR
1002
}
  0
ARC
  5
491B
  8
247
  6
CONTINUOUS
 10
4.1601458886684952
 20
-15.22645888621258
 30
0.0
 40
1.392781735586712
 50
15.846096555780729
 51
82.325137004169207
  0
ARC
  5
491C
  8
247
  6
CONTINUOUS
 10
4.4592434315279901
 20
-14.64221272584035
 30
0.0
 40
1.324563662670287
 50
249.7136016704965
 51
321.78874565641081
1001
GENIUS_GENOBJ-N-FIL_13
1002
{
1000
OWNER
1000
GEN
1002
}
1001
GENIUS_GENODEF_13
1002
{
1000
HIER
1070
     0
1002
}
1002
{
1000
MANEDIT
1070
     0
1002
}
1002
{
1000
NOSEL
1070
     0
1002
}
1002
{
1000
BEHIND
1070
     0
1002
}
1002
{
1000
OTHER
1070
     0
1002
}
1002
{
1000
REACTOR
1002
}
  0
LINE
  5
491D
  8
247
  6
CONTINUOUS
 10
4.3461538462206866
 20
-14.53846153876
 30
0.0
 11
4.3461538462206866
 21
-13.84615384648
 31
0.0
  0
LINE
  5
491E
  8
247
  6
CONTINUOUS
 10
2.500000000140687
 20
-20.250000000069999
 30
0.0
 11
2.500000000140687
 21
-19.576923077020009
 31
0.0
  0
LINE
  5
491F
  8
245
  6
CENTER2
 10
-93.999999999998835
 20
29.500000000000082
 30
0.0
 11
-93.999999999998863
 21
-29.499999999999918
 31
0.0
  0
LINE
  5
4920
  8
245
  6
CENTER2
 10
-126.2924015154229
 20
0.0000000000000781
 30
0.0
 11
-62.073013977965878
 21
0.0000000000000781
 31
0.0
  0
ARC
  5
4921
  8
241
  6
CONTINUOUS
 10
-123.19999999999879
 20
0.0000000000000781
 30
0.0
 40
7.0
 50
305.4441780804321
 51
55.022492573911727
  0
ARC
  5
4922
  8
241
  6
CONTINUOUS
 10
-60.789999999998862
 20
0.0000000000000497
 30
0.0
 40
7.0
 50
131.38246406869931
 51
228.29366482707141
  0
CIRCLE
  5
4923
  8
241
  6
CONTINUOUS
 10
-93.999999999999744
 20
0.0000000000005897
 30
0.0
 40
9.0500000000000007
  0
CIRCLE
  5
4924
  8
241
  6
CONTINUOUS
 10
-93.999999999999744
 20
0.0000000000005897
 30
0.0
 40
16.0
  0
CIRCLE
  5
4925
  8
242
  6
CONTINUOUS
 10
-93.999999999999744
 20
0.0000000000005897
 30
0.0
 40
10.0
  0
POLYLINE
  5
4926
  8
240
  6
CONTINUOUS
 66
     1
 10
0.0
 20
0.0
 30
0.0
 70
     8
  0
VERTEX
  5
4927
  8
240
  6
CONTINUOUS
 10
-81.249999999998863
 20
22.083599999999979
 30
0.0
 70
    32
  0
VERTEX
  5
4928
  8
240
  6
CONTINUOUS
 10
-80.896499999998866
 20
21.88049999999998
 30
0.0
 70
    32
  0
VERTEX
  5
4929
  8
240
  6
CONTINUOUS
 10
-80.544999999998865
 20
21.674399999999981
 30
0.0
 70
    32
  0
VERTEX
  5
492A
  8
240
  6
CONTINUOUS
 10
-80.195499999998844
 20
21.465599999999981
 30
0.0
 70
    32
  0
VERTEX
  5
492B
  8
240
  6
CONTINUOUS
 10
-79.848199999998869
 20
21.25399999999998
 30
0.0
 70
    32
  0
VERTEX
  5
492C
  8
240
  6
CONTINUOUS
 10
-79.502899999998846
 20
21.039599999999979
 30
0.0
 70
    32
  0
VERTEX
  5
492D
  8
240
  6
CONTINUOUS
 10
-79.159999999998846
 20
20.82249999999998
 30
0.0
 70
    32
  0
VERTEX
  5
492E
  8
240
  6
CONTINUOUS
 10
-78.819299999998847
 20
20.602799999999981
 30
0.0
 70
    32
  0
VERTEX
  5
492F
  8
240
  6
CONTINUOUS
 10
-78.480899999998869
 20
20.38039999999998
 30
0.0
 70
    32
  0
VERTEX
  5
4930
  8
240
  6
CONTINUOUS
 10
-78.144999999998845
 20
20.155499999999979
 30
0.0
 70
    32
  0
VERTEX
  5
4931
  8
240
  6
CONTINUOUS
 10
-77.811599999998862
 20
19.92799999999998
 30
0.0
 70
    32
  0
VERTEX
  5
4932
  8
240
  6
CONTINUOUS
 10
-77.480699999998862
 20
19.697999999999979
 30
0.0
 70
    32
  0
VERTEX
  5
4933
  8
240
  6
CONTINUOUS
 10
-77.152399999998863
 20
19.465399999999981
 30
0.0
 70
    32
  0
VERTEX
  5
4934
  8
240
  6
CONTINUOUS
 10
-76.826799999998869
 20
19.230499999999981
 30
0.0
 70
    32
  0
VERTEX
  5
4935
  8
240
  6
CONTINUOUS
 10
-76.503999999998868
 20
18.993099999999981
 30
0.0
 70
    32
  0
VERTEX
  5
4936
  8
240
  6
CONTINUOUS
 10
-76.183899999998843
 20
18.753399999999971
 30
0.0
 70
    32
  0
VERTEX
  5
4937
  8
240
  6
CONTINUOUS
 10
-75.866799999998861
 20
18.51129999999997
 30
0.0
 70
    32
  0
VERTEX
  5
4938
  8
240
  6
CONTINUOUS
 10
-75.552499999998844
 20
18.266899999999978
 30
0.0
 70
    32
  0
VERTEX
  5
4939
  8
240
  6
CONTINUOUS
 10
-75.241299999998844
 20
18.020299999999981
 30
0.0
 70
    32
  0
VERTEX
  5
493A
  8
240
  6
CONTINUOUS
 10
-74.933099999998859
 20
17.771399999999979
 30
0.0
 70
    32
  0
VERTEX
  5
493B
  8
240
  6
CONTINUOUS
 10
-74.628099999998867
 20
17.520399999999981
 30
0.0
 70
    32
  0
VERTEX
  5
493C
  8
240
  6
CONTINUOUS
 10
-74.326299999998866
 20
17.267199999999981
 30
0.0
 70
    32
  0
VERTEX
  5
493D
  8
240
  6
CONTINUOUS
 10
-74.027699999998859
 20
17.011899999999979
 30
0.0
 70
    32
  0
VERTEX
  5
493E
  8
240
  6
CONTINUOUS
 10
-73.732499999998865
 20
16.754499999999979
 30
0.0
 70
    32
  0
VERTEX
  5
493F
  8
240
  6
CONTINUOUS
 10
-73.440599999998867
 20
16.49499999999998
 30
0.0
 70
    32
  0
VERTEX
  5
4940
  8
240
  6
CONTINUOUS
 10
-73.152199999998857
 20
16.233599999999981
 30
0.0
 70
    32
  0
VERTEX
  5
4941
  8
240
  6
CONTINUOUS
 10
-72.867299999998863
 20
15.970199999999981
 30
0.0
 70
    32
  0
VERTEX
  5
4942
  8
240
  6
CONTINUOUS
 10
-72.585999999998862
 20
15.704799999999979
 30
0.0
 70
    32
  0
VERTEX
  5
4943
  8
240
  6
CONTINUOUS
 10
-72.308399999998855
 20
15.43759999999998
 30
0.0
 70
    32
  0
VERTEX
  5
4944
  8
240
  6
CONTINUOUS
 10
-72.034499999998857
 20
15.16849999999998
 30
0.0
 70
    32
  0
VERTEX
  5
4945
  8
240
  6
CONTINUOUS
 10
-71.764299999998869
 20
14.897599999999979
 30
0.0
 70
    32
  0
VERTEX
  5
4946
  8
240
  6
CONTINUOUS
 10
-71.497999999998868
 20
14.624899999999981
 30
0.0
 70
    32
  0
VERTEX
  5
4947
  8
240
  6
CONTINUOUS
 10
-71.235599999998868
 20
14.350499999999981
 30
0.0
 70
    32
  0
VERTEX
  5
4948
  8
240
  6
CONTINUOUS
 10
-70.977099999998856
 20
14.07429999999998
 30
0.0
 70
    32
  0
VERTEX
  5
4949
  8
240
  6
CONTINUOUS
 10
-70.722699999998866
 20
13.79649999999998
 30
0.0
 70
    32
  0
VERTEX
  5
494A
  8
240
  6
CONTINUOUS
 10
-70.472399999998856
 20
13.51699999999998
 30
0.0
 70
    32
  0
VERTEX
  5
494B
  8
240
  6
CONTINUOUS
 10
-70.226299999998844
 20
13.23589999999998
 30
0.0
 70
    32
  0
VERTEX
  5
494C
  8
240
  6
CONTINUOUS
 10
-69.984399999998857
 20
12.953299999999979
 30
0.0
 70
    32
  0
VERTEX
  5
494D
  8
240
  6
CONTINUOUS
 10
-69.746799999998856
 20
12.66919999999998
 30
0.0
 70
    32
  0
VERTEX
  5
494E
  8
240
  6
CONTINUOUS
 10
-69.51359999999886
 20
12.38349999999998
 30
0.0
 70
    32
  0
VERTEX
  5
494F
  8
240
  6
CONTINUOUS
 10
-69.284699999998864
 20
12.09639999999998
 30
0.0
 70
    32
  0
VERTEX
  5
4950
  8
240
  6
CONTINUOUS
 10
-69.060399999998864
 20
11.807899999999981
 30
0.0
 70
    32
  0
VERTEX
  5
4951
  8
240
  6
CONTINUOUS
 10
-68.840599999998858
 20
11.517999999999979
 30
0.0
 70
    32
  0
VERTEX
  5
4952
  8
240
  6
CONTINUOUS
 10
-68.625499999998866
 20
11.22669999999998
 30
0.0
 70
    32
  0
VERTEX
  5
4953
  8
240
  6
CONTINUOUS
 10
-68.414999999998869
 20
10.934199999999979
 30
0.0
 70
    32
  0
VERTEX
  5
4954
  8
240
  6
CONTINUOUS
 10
-68.209199999998859
 20
10.64039999999998
 30
0.0
 70
    32
  0
VERTEX
  5
4955
  8
240
  6
CONTINUOUS
 10
-68.008299999998869
 20
10.34529999999998
 30
0.0
 70
    32
  0
VERTEX
  5
4956
  8
240
  6
CONTINUOUS
 10
-67.812299999998856
 20
10.049099999999971
 30
0.0
 70
    32
  0
VERTEX
  5
4957
  8
240
  6
CONTINUOUS
 10
-67.621199999998865
 20
9.7516699999999759
 30
0.0
 70
    32
  0
VERTEX
  5
4958
  8
240
  6
CONTINUOUS
 10
-67.435099999998855
 20
9.4531499999999795
 30
0.0
 70
    32
  0
VERTEX
  5
4959
  8
240
  6
CONTINUOUS
 10
-67.253999999998854
 20
9.1535299999999769
 30
0.0
 70
    32
  0
VERTEX
  5
495A
  8
240
  6
CONTINUOUS
 10
-67.078199999998859
 20
8.8528699999999763
 30
0.0
 70
    32
  0
VERTEX
  5
495B
  8
240
  6
CONTINUOUS
 10
-66.907499999998862
 20
8.5511899999999788
 30
0.0
 70
    32
  0
VERTEX
  5
495C
  8
240
  6
CONTINUOUS
 10
-66.741999999998853
 20
8.2485399999999771
 30
0.0
 70
    32
  0
VERTEX
  5
495D
  8
240
  6
CONTINUOUS
 10
-66.581899999998853
 20
7.9449499999999791
 30
0.0
 70
    32
  0
VERTEX
  5
495E
  8
240
  6
CONTINUOUS
 10
-66.427199999998848
 20
7.6404599999999787
 30
0.0
 70
    32
  0
VERTEX
  5
495F
  8
240
  6
CONTINUOUS
 10
-66.277999999998855
 20
7.3350999999999784
 30
0.0
 70
    32
  0
VERTEX
  5
4960
  8
240
  6
CONTINUOUS
 10
-66.134199999998856
 20
7.0289099999999776
 30
0.0
 70
    32
  0
VERTEX
  5
4961
  8
240
  6
CONTINUOUS
 10
-65.996099999998862
 20
6.7219299999999791
 30
0.0
 70
    32
  0
VERTEX
  5
4962
  8
240
  6
CONTINUOUS
 10
-65.863599999998854
 20
6.4141999999999779
 30
0.0
 70
    32
  0
VERTEX
  5
4963
  8
240
  6
CONTINUOUS
 10
-65.736899999998855
 20
6.1057499999999783
 30
0.0
 70
    32
  0
VERTEX
  5
4964
  8
240
  6
CONTINUOUS
 10
-65.615899999998859
 20
5.7966099999999781
 30
0.0
 70
    32
  0
VERTEX
  5
4965
  8
240
  6
CONTINUOUS
 10
-65.500699999998858
 20
5.486829999999979
 30
0.0
 70
    32
  0
VERTEX
  5
4966
  8
240
  6
CONTINUOUS
 10
-65.391499999998857
 20
5.1764499999999769
 30
0.0
 70
    32
  0
VERTEX
  5
4967
  8
240
  6
CONTINUOUS
 10
-65.288199999998866
 20
4.8654899999999781
 30
0.0
 70
    32
  0
VERTEX
  5
4968
  8
240
  6
CONTINUOUS
 10
-65.190999999998866
 20
4.5539999999999781
 30
0.0
 70
    32
  0
VERTEX
  5
4969
  8
240
  6
CONTINUOUS
 10
-65.099899999998854
 20
4.2420099999999783
 30
0.0
 70
    32
  0
VERTEX
  5
496A
  8
240
  6
CONTINUOUS
 10
-65.014999999998864
 20
3.9295599999999782
 30
0.0
 70
    32
  0
VERTEX
  5
496B
  8
240
  6
CONTINUOUS
 10
-64.936199999998863
 20
3.6166799999999779
 30
0.0
 70
    32
  0
VERTEX
  5
496C
  8
240
  6
CONTINUOUS
 10
-64.863799999998847
 20
3.3034199999999769
 30
0.0
 70
    32
  0
VERTEX
  5
496D
  8
240
  6
CONTINUOUS
 10
-64.797799999998858
 20
2.9897999999999771
 30
0.0
 70
    32
  0
VERTEX
  5
496E
  8
240
  6
CONTINUOUS
 10
-64.738199999998855
 20
2.675869999999978
 30
0.0
 70
    32
  0
VERTEX
  5
496F
  8
240
  6
CONTINUOUS
 10
-64.684999999998865
 20
2.361669999999978
 30
0.0
 70
    32
  0
VERTEX
  5
4970
  8
240
  6
CONTINUOUS
 10
-64.638399999998853
 20
2.0472199999999781
 30
0.0
 70
    32
  0
VERTEX
  5
4971
  8
240
  6
CONTINUOUS
 10
-64.598499999998864
 20
1.732569999999978
 30
0.0
 70
    32
  0
VERTEX
  5
4972
  8
240
  6
CONTINUOUS
 10
-64.565199999998853
 20
1.4177599999999779
 30
0.0
 70
    32
  0
VERTEX
  5
4973
  8
240
  6
CONTINUOUS
 10
-64.538699999998855
 20
1.1028099999999781
 30
0.0
 70
    32
  0
VERTEX
  5
4974
  8
240
  6
CONTINUOUS
 10
-64.518999999998854
 20
0.7877689999999789
 30
0.0
 70
    32
  0
VERTEX
  5
4975
  8
240
  6
CONTINUOUS
 10
-64.506199999998856
 20
0.4726719999999787
 30
0.0
 70
    32
  0
VERTEX
  5
4976
  8
240
  6
CONTINUOUS
 10
-64.500299999998859
 20
0.1575549999999786
 30
0.0
 70
    32
  0
VERTEX
  5
4977
  8
240
  6
CONTINUOUS
 10
-64.501399999998853
 20
-0.1575460000000214
 30
0.0
 70
    32
  0
VERTEX
  5
4978
  8
240
  6
CONTINUOUS
 10
-64.509599999998855
 20
-0.4725950000000214
 30
0.0
 70
    32
  0
VERTEX
  5
4979
  8
240
  6
CONTINUOUS
 10
-64.524699999998859
 20
-0.7875570000000213
 30
0.0
 70
    32
  0
VERTEX
  5
497A
  8
240
  6
CONTINUOUS
 10
-64.546599999998847
 20
-1.1024000000000209
 30
0.0
 70
    32
  0
VERTEX
  5
497B
  8
240
  6
CONTINUOUS
 10
-64.575399999998865
 20
-1.4170900000000199
 30
0.0
 70
    32
  0
VERTEX
  5
497C
  8
240
  6
CONTINUOUS
 10
-64.610899999998864
 20
-1.7315900000000211
 30
0.0
 70
    32
  0
VERTEX
  5
497D
  8
240
  6
CONTINUOUS
 10
-64.652999999998855
 20
-2.0458600000000202
 30
0.0
 70
    32
  0
VERTEX
  5
497E
  8
240
  6
CONTINUOUS
 10
-64.701799999998855
 20
-2.35988000000002
 30
0.0
 70
    32
  0
VERTEX
  5
497F
  8
240
  6
CONTINUOUS
 10
-64.757099999998843
 20
-2.6736100000000209
 30
0.0
 70
    32
  0
VERTEX
  5
4980
  8
240
  6
CONTINUOUS
 10
-64.818899999998862
 20
-2.9870100000000201
 30
0.0
 70
    32
  0
VERTEX
  5
4981
  8
240
  6
CONTINUOUS
 10
-64.887099999998853
 20
-3.3000600000000202
 30
0.0
 70
    32
  0
VERTEX
  5
4982
  8
240
  6
CONTINUOUS
 10
-64.961699999998856
 20
-3.6127100000000198
 30
0.0
 70
    32
  0
VERTEX
  5
4983
  8
240
  6
CONTINUOUS
 10
-65.042499999998853
 20
-3.9249300000000211
 30
0.0
 70
    32
  0
VERTEX
  5
4984
  8
240
  6
CONTINUOUS
 10
-65.129499999998856
 20
-4.2366900000000207
 30
0.0
 70
    32
  0
VERTEX
  5
4985
  8
240
  6
CONTINUOUS
 10
-65.222699999998866
 20
-4.5479600000000202
 30
0.0
 70
    32
  0
VERTEX
  5
4986
  8
240
  6
CONTINUOUS
 10
-65.321899999998863
 20
-4.8587000000000202
 30
0.0
 70
    32
  0
VERTEX
  5
4987
  8
240
  6
CONTINUOUS
 10
-65.427199999998862
 20
-5.1688700000000214
 30
0.0
 70
    32
  0
VERTEX
  5
4988
  8
240
  6
CONTINUOUS
 10
-65.538299999998856
 20
-5.47845000000002
 30
0.0
 70
    32
  0
VERTEX
  5
4989
  8
240
  6
CONTINUOUS
 10
-65.655399999998863
 20
-5.7873900000000207
 30
0.0
 70
    32
  0
VERTEX
  5
498A
  8
240
  6
CONTINUOUS
 10
-65.778199999998861
 20
-6.0956700000000206
 30
0.0
 70
    32
  0
VERTEX
  5
498B
  8
240
  6
CONTINUOUS
 10
-65.906799999998853
 20
-6.4032500000000203
 30
0.0
 70
    32
  0
VERTEX
  5
498C
  8
240
  6
CONTINUOUS
 10
-66.041099999998863
 20
-6.7100900000000196
 30
0.0
 70
    32
  0
VERTEX
  5
498D
  8
240
  6
CONTINUOUS
 10
-66.180999999998861
 20
-7.0161700000000202
 30
0.0
 70
    32
  0
VERTEX
  5
498E
  8
240
  6
CONTINUOUS
 10
-66.326399999998856
 20
-7.3214400000000186
 30
0.0
 70
    32
  0
VERTEX
  5
498F
  8
240
  6
CONTINUOUS
 10
-66.477299999998863
 20
-7.6258700000000204
 30
0.0
 70
    32
  0
VERTEX
  5
4990
  8
240
  6
CONTINUOUS
 10
-66.633599999998864
 20
-7.92944000000002
 30
0.0
 70
    32
  0
VERTEX
  5
4991
  8
240
  6
CONTINUOUS
 10
-66.795199999998857
 20
-8.2321000000000222
 30
0.0
 70
    32
  0
VERTEX
  5
4992
  8
240
  6
CONTINUOUS
 10
-66.962099999998856
 20
-8.5338200000000217
 30
0.0
 70
    32
  0
VERTEX
  5
4993
  8
240
  6
CONTINUOUS
 10
-67.134299999998859
 20
-8.8345700000000171
 30
0.0
 70
    32
  0
VERTEX
  5
4994
  8
240
  6
CONTINUOUS
 10
-67.311499999998844
 20
-9.1343100000000206
 30
0.0
 70
    32
  0
VERTEX
  5
4995
  8
240
  6
CONTINUOUS
 10
-67.493799999998856
 20
-9.4330100000000208
 30
0.0
 70
    32
  0
VERTEX
  5
4996
  8
240
  6
CONTINUOUS
 10
-67.681199999998853
 20
-9.7306400000000206
 30
0.0
 70
    32
  0
VERTEX
  5
4997
  8
240
  6
CONTINUOUS
 10
-67.873399999998867
 20
-10.02720000000002
 30
0.0
 70
    32
  0
VERTEX
  5
4998
  8
240
  6
CONTINUOUS
 10
-68.070599999998862
 20
-10.322500000000019
 30
0.0
 70
    32
  0
VERTEX
  5
4999
  8
240
  6
CONTINUOUS
 10
-68.272499999998857
 20
-10.616700000000019
 30
0.0
 70
    32
  0
VERTEX
  5
499A
  8
240
  6
CONTINUOUS
 10
-68.479199999998869
 20
-10.90970000000002
 30
0.0
 70
    32
  0
VERTEX
  5
499B
  8
240
  6
CONTINUOUS
 10
-68.690499999998863
 20
-11.201400000000019
 30
0.0
 70
    32
  0
VERTEX
  5
499C
  8
240
  6
CONTINUOUS
 10
-68.906499999998857
 20
-11.491900000000021
 30
0.0
 70
    32
  0
VERTEX
  5
499D
  8
240
  6
CONTINUOUS
 10
-69.126999999998858
 20
-11.78100000000002
 30
0.0
 70
    32
  0
VERTEX
  5
499E
  8
240
  6
CONTINUOUS
 10
-69.351899999998864
 20
-12.068800000000021
 30
0.0
 70
    32
  0
VERTEX
  5
499F
  8
240
  6
CONTINUOUS
 10
-69.581299999998848
 20
-12.35520000000002
 30
0.0
 70
    32
  0
VERTEX
  5
49A0
  8
240
  6
CONTINUOUS
 10
-69.814999999998847
 20
-12.64020000000002
 30
0.0
 70
    32
  0
VERTEX
  5
49A1
  8
240
  6
CONTINUOUS
 10
-70.05299999999886
 20
-12.923800000000019
 30
0.0
 70
    32
  0
VERTEX
  5
49A2
  8
240
  6
CONTINUOUS
 10
-70.295199999998857
 20
-13.205900000000019
 30
0.0
 70
    32
  0
VERTEX
  5
49A3
  8
240
  6
CONTINUOUS
 10
-70.541499999998862
 20
-13.486400000000019
 30
0.0
 70
    32
  0
VERTEX
  5
49A4
  8
240
  6
CONTINUOUS
 10
-70.791899999998847
 20
-13.765400000000019
 30
0.0
 70
    32
  0
VERTEX
  5
49A5
  8
240
  6
CONTINUOUS
 10
-71.046199999998848
 20
-14.042800000000019
 30
0.0
 70
    32
  0
VERTEX
  5
49A6
  8
240
  6
CONTINUOUS
 10
-71.304599999998857
 20
-14.31860000000002
 30
0.0
 70
    32
  0
VERTEX
  5
49A7
  8
240
  6
CONTINUOUS
 10
-71.566799999998864
 20
-14.59270000000002
 30
0.0
 70
    32
  0
VERTEX
  5
49A8
  8
240
  6
CONTINUOUS
 10
-71.832799999998869
 20
-14.86510000000002
 30
0.0
 70
    32
  0
VERTEX
  5
49A9
  8
240
  6
CONTINUOUS
 10
-72.102499999998869
 20
-15.135800000000019
 30
0.0
 70
    32
  0
VERTEX
  5
49AA
  8
240
  6
CONTINUOUS
 10
-72.375899999998865
 20
-15.404800000000019
 30
0.0
 70
    32
  0
VERTEX
  5
49AB
  8
240
  6
CONTINUOUS
 10
-72.652899999998866
 20
-15.67200000000002
 30
0.0
 70
    32
  0
VERTEX
  5
49AC
  8
240
  6
CONTINUOUS
 10
-72.933499999998858
 20
-15.93730000000002
 30
0.0
 70
    32
  0
VERTEX
  5
49AD
  8
240
  6
CONTINUOUS
 10
-73.217499999998864
 20
-16.200800000000019
 30
0.0
 70
    32
  0
VERTEX
  5
49AE
  8
240
  6
CONTINUOUS
 10
-73.504899999998884
 20
-16.46240000000002
 30
0.0
 70
    32
  0
VERTEX
  5
49AF
  8
240
  6
CONTINUOUS
 10
-73.795599999998842
 20
-16.722000000000019
 30
0.0
 70
    32
  0
VERTEX
  5
49B0
  8
240
  6
CONTINUOUS
 10
-74.089699999998842
 20
-16.979700000000019
 30
0.0
 70
    32
  0
VERTEX
  5
49B1
  8
240
  6
CONTINUOUS
 10
-74.38689999999886
 20
-17.23540000000002
 30
0.0
 70
    32
  0
VERTEX
  5
49B2
  8
240
  6
CONTINUOUS
 10
-74.687199999998867
 20
-17.489100000000018
 30
0.0
 70
    32
  0
VERTEX
  5
49B3
  8
240
  6
CONTINUOUS
 10
-74.990699999998867
 20
-17.740700000000022
 30
0.0
 70
    32
  0
VERTEX
  5
49B4
  8
240
  6
CONTINUOUS
 10
-75.297099999998863
 20
-17.990200000000019
 30
0.0
 70
    32
  0
VERTEX
  5
49B5
  8
240
  6
CONTINUOUS
 10
-75.606399999998843
 20
-18.237600000000018
 30
0.0
 70
    32
  0
VERTEX
  5
49B6
  8
240
  6
CONTINUOUS
 10
-75.918699999998864
 20
-18.482800000000019
 30
0.0
 70
    32
  0
VERTEX
  5
49B7
  8
240
  6
CONTINUOUS
 10
-76.233699999998862
 20
-18.725800000000021
 30
0.0
 70
    32
  0
VERTEX
  5
49B8
  8
240
  6
CONTINUOUS
 10
-76.551499999998867
 20
-18.966600000000021
 30
0.0
 70
    32
  0
VERTEX
  5
49B9
  8
240
  6
CONTINUOUS
 10
-76.871899999998845
 20
-19.205100000000019
 30
0.0
 70
    32
  0
VERTEX
  5
49BA
  8
240
  6
CONTINUOUS
 10
-77.194999999998842
 20
-19.44130000000002
 30
0.0
 70
    32
  0
VERTEX
  5
49BB
  8
240
  6
CONTINUOUS
 10
-77.520499999998847
 20
-19.675200000000022
 30
0.0
 70
    32
  0
VERTEX
  5
49BC
  8
240
  6
CONTINUOUS
 10
-77.848599999998868
 20
-19.906600000000019
 30
0.0
 70
    32
  0
VERTEX
  5
49BD
  8
240
  6
CONTINUOUS
 10
-78.178999999998865
 20
-20.135700000000021
 30
0.0
 70
    32
  0
VERTEX
  5
49BE
  8
240
  6
CONTINUOUS
 10
-78.511799999998843
 20
-20.362400000000019
 30
0.0
 70
    32
  0
VERTEX
  5
49BF
  8
240
  6
CONTINUOUS
 10
-78.846799999998865
 20
-20.586600000000018
 30
0.0
 70
    32
  0
VERTEX
  5
49C0
  8
240
  6
CONTINUOUS
 10
-79.184099999998864
 20
-20.808200000000021
 30
0.0
 70
    32
  0
VERTEX
  5
49C1
  8
240
  6
CONTINUOUS
 10
-79.523399999998844
 20
-21.027300000000022
 30
0.0
 70
    32
  0
VERTEX
  5
49C2
  8
240
  6
CONTINUOUS
 10
-79.864899999998869
 20
-21.243900000000021
 30
0.0
 70
    32
  0
VERTEX
  5
49C3
  8
240
  6
CONTINUOUS
 10
-80.208299999998843
 20
-21.45780000000002
 30
0.0
 70
    32
  0
VERTEX
  5
49C4
  8
240
  6
CONTINUOUS
 10
-80.553699999998884
 20
-21.669100000000022
 30
0.0
 70
    32
  0
VERTEX
  5
49C5
  8
240
  6
CONTINUOUS
 10
-80.900999999998845
 20
-21.877700000000019
 30
0.0
 70
    32
  0
VERTEX
  5
49C6
  8
240
  6
CONTINUOUS
 10
-81.249999999998863
 20
-22.083600000000018
 30
0.0
 70
    32
  0
SEQEND
  5
49C7
  8
240
  6
CONTINUOUS
  0
POLYLINE
  5
49C8
  8
240
  6
CONTINUOUS
 66
     1
 10
0.0
 20
0.0
 30
0.0
 70
     8
  0
VERTEX
  5
49C9
  8
240
  6
CONTINUOUS
 10
-119.49999999999881
 20
0.0000000030688686
 30
0.0
 70
    32
  0
VERTEX
  5
49CA
  8
240
  6
CONTINUOUS
 10
-119.5009999999989
 20
0.4077119999999786
 30
0.0
 70
    32
  0
VERTEX
  5
49CB
  8
240
  6
CONTINUOUS
 10
-119.4979999999988
 20
0.8151439999999786
 30
0.0
 70
    32
  0
VERTEX
  5
49CC
  8
240
  6
CONTINUOUS
 10
-119.4919999999988
 20
1.2222199999999781
 30
0.0
 70
    32
  0
VERTEX
  5
49CD
  8
240
  6
CONTINUOUS
 10
-119.48199999999891
 20
1.6288699999999781
 30
0.0
 70
    32
  0
VERTEX
  5
49CE
  8
240
  6
CONTINUOUS
 10
-119.4689999999988
 20
2.0350199999999781
 30
0.0
 70
    32
  0
VERTEX
  5
49CF
  8
240
  6
CONTINUOUS
 10
-119.4529999999988
 20
2.4405899999999781
 30
0.0
 70
    32
  0
VERTEX
  5
49D0
  8
240
  6
CONTINUOUS
 10
-119.4329999999989
 20
2.8455099999999769
 30
0.0
 70
    32
  0
VERTEX
  5
49D1
  8
240
  6
CONTINUOUS
 10
-119.4099999999988
 20
3.2496999999999772
 30
0.0
 70
    32
  0
VERTEX
  5
49D2
  8
240
  6
CONTINUOUS
 10
-119.3829999999988
 20
3.653099999999978
 30
0.0
 70
    32
  0
VERTEX
  5
49D3
  8
240
  6
CONTINUOUS
 10
-119.3519999999988
 20
4.0556099999999766
 30
0.0
 70
    32
  0
VERTEX
  5
49D4
  8
240
  6
CONTINUOUS
 10
-119.31899999999879
 20
4.4571799999999779
 30
0.0
 70
    32
  0
VERTEX
  5
49D5
  8
240
  6
CONTINUOUS
 10
-119.2809999999989
 20
4.8577299999999779
 30
0.0
 70
    32
  0
VERTEX
  5
49D6
  8
240
  6
CONTINUOUS
 10
-119.24099999999881
 20
5.2571799999999769
 30
0.0
 70
    32
  0
VERTEX
  5
49D7
  8
240
  6
CONTINUOUS
 10
-119.19699999999879
 20
5.6554599999999766
 30
0.0
 70
    32
  0
VERTEX
  5
49D8
  8
240
  6
CONTINUOUS
 10
-119.14899999999879
 20
6.0524899999999766
 30
0.0
 70
    32
  0
VERTEX
  5
49D9
  8
240
  6
CONTINUOUS
 10
-119.09799999999881
 20
6.4481999999999768
 30
0.0
 70
    32
  0
VERTEX
  5
49DA
  8
240
  6
CONTINUOUS
 10
-119.0429999999988
 20
6.8425199999999782
 30
0.0
 70
    32
  0
VERTEX
  5
49DB
  8
240
  6
CONTINUOUS
 10
-118.98499999999881
 20
7.2353699999999774
 30
0.0
 70
    32
  0
VERTEX
  5
49DC
  8
240
  6
CONTINUOUS
 10
-118.9239999999988
 20
7.6266699999999767
 30
0.0
 70
    32
  0
VERTEX
  5
49DD
  8
240
  6
CONTINUOUS
 10
-118.8589999999988
 20
8.0163599999999793
 30
0.0
 70
    32
  0
VERTEX
  5
49DE
  8
240
  6
CONTINUOUS
 10
-118.7909999999988
 20
8.4043499999999796
 30
0.0
 70
    32
  0
VERTEX
  5
49DF
  8
240
  6
CONTINUOUS
 10
-118.7189999999988
 20
8.7905799999999772
 30
0.0
 70
    32
  0
VERTEX
  5
49E0
  8
240
  6
CONTINUOUS
 10
-118.6439999999988
 20
9.1749599999999791
 30
0.0
 70
    32
  0
VERTEX
  5
49E1
  8
240
  6
CONTINUOUS
 10
-118.5649999999988
 20
9.5574299999999788
 30
0.0
 70
    32
  0
VERTEX
  5
49E2
  8
240
  6
CONTINUOUS
 10
-118.4829999999988
 20
9.9379199999999788
 30
0.0
 70
    32
  0
VERTEX
  5
49E3
  8
240
  6
CONTINUOUS
 10
-118.3969999999988
 20
10.31629999999998
 30
0.0
 70
    32
  0
VERTEX
  5
49E4
  8
240
  6
CONTINUOUS
 10
-118.3079999999989
 20
10.692599999999979
 30
0.0
 70
    32
  0
VERTEX
  5
49E5
  8
240
  6
CONTINUOUS
 10
-118.2149999999988
 20
11.06669999999998
 30
0.0
 70
    32
  0
VERTEX
  5
49E6
  8
240
  6
CONTINUOUS
 10
-118.11899999999881
 20
11.43849999999998
 30
0.0
 70
    32
  0
VERTEX
  5
49E7
  8
240
  6
CONTINUOUS
 10
-118.0199999999988
 20
11.807899999999981
 30
0.0
 70
    32
  0
VERTEX
  5
49E8
  8
240
  6
CONTINUOUS
 10
-117.91699999999879
 20
12.17489999999998
 30
0.0
 70
    32
  0
VERTEX
  5
49E9
  8
240
  6
CONTINUOUS
 10
-117.80999999999879
 20
12.539299999999979
 30
0.0
 70
    32
  0
VERTEX
  5
49EA
  8
240
  6
CONTINUOUS
 10
-117.69999999999879
 20
12.90119999999998
 30
0.0
 70
    32
  0
VERTEX
  5
49EB
  8
240
  6
CONTINUOUS
 10
-117.5869999999988
 20
13.260499999999981
 30
0.0
 70
    32
  0
VERTEX
  5
49EC
  8
240
  6
CONTINUOUS
 10
-117.46999999999881
 20
13.61699999999998
 30
0.0
 70
    32
  0
VERTEX
  5
49ED
  8
240
  6
CONTINUOUS
 10
-117.3499999999988
 20
13.97059999999998
 30
0.0
 70
    32
  0
VERTEX
  5
49EE
  8
240
  6
CONTINUOUS
 10
-117.22599999999881
 20
14.321499999999981
 30
0.0
 70
    32
  0
VERTEX
  5
49EF
  8
240
  6
CONTINUOUS
 10
-117.09799999999881
 20
14.66929999999998
 30
0.0
 70
    32
  0
VERTEX
  5
49F0
  8
240
  6
CONTINUOUS
 10
-116.9679999999988
 20
15.01409999999998
 30
0.0
 70
    32
  0
VERTEX
  5
49F1
  8
240
  6
CONTINUOUS
 10
-116.8329999999988
 20
15.355799999999981
 30
0.0
 70
    32
  0
VERTEX
  5
49F2
  8
240
  6
CONTINUOUS
 10
-116.6959999999988
 20
15.69439999999998
 30
0.0
 70
    32
  0
VERTEX
  5
49F3
  8
240
  6
CONTINUOUS
 10
-116.5549999999988
 20
16.029699999999981
 30
0.0
 70
    32
  0
VERTEX
  5
49F4
  8
240
  6
CONTINUOUS
 10
-116.4099999999988
 20
16.361599999999981
 30
0.0
 70
    32
  0
VERTEX
  5
49F5
  8
240
  6
CONTINUOUS
 10
-116.26199999999881
 20
16.690199999999979
 30
0.0
 70
    32
  0
VERTEX
  5
49F6
  8
240
  6
CONTINUOUS
 10
-116.10999999999881
 20
17.015299999999979
 30
0.0
 70
    32
  0
VERTEX
  5
49F7
  8
240
  6
CONTINUOUS
 10
-115.9549999999988
 20
17.336799999999979
 30
0.0
 70
    32
  0
VERTEX
  5
49F8
  8
240
  6
CONTINUOUS
 10
-115.7969999999989
 20
17.65469999999997
 30
0.0
 70
    32
  0
VERTEX
  5
49F9
  8
240
  6
CONTINUOUS
 10
-115.6349999999988
 20
17.96889999999998
 30
0.0
 70
    32
  0
VERTEX
  5
49FA
  8
240
  6
CONTINUOUS
 10
-115.4689999999988
 20
18.279299999999981
 30
0.0
 70
    32
  0
VERTEX
  5
49FB
  8
240
  6
CONTINUOUS
 10
-115.2999999999988
 20
18.58589999999997
 30
0.0
 70
    32
  0
VERTEX
  5
49FC
  8
240
  6
CONTINUOUS
 10
-115.12799999999881
 20
18.888599999999979
 30
0.0
 70
    32
  0
VERTEX
  5
49FD
  8
240
  6
CONTINUOUS
 10
-114.9519999999988
 20
19.187199999999979
 30
0.0
 70
    32
  0
VERTEX
  5
49FE
  8
240
  6
CONTINUOUS
 10
-114.7719999999988
 20
19.481799999999978
 30
0.0
 70
    32
  0
VERTEX
  5
49FF
  8
240
  6
CONTINUOUS
 10
-114.5899999999988
 20
19.77229999999998
 30
0.0
 70
    32
  0
VERTEX
  5
4A00
  8
240
  6
CONTINUOUS
 10
-114.4029999999989
 20
20.058499999999981
 30
0.0
 70
    32
  0
VERTEX
  5
4A01
  8
240
  6
CONTINUOUS
 10
-114.2129999999988
 20
20.340399999999981
 30
0.0
 70
    32
  0
VERTEX
  5
4A02
  8
240
  6
CONTINUOUS
 10
-114.0199999999988
 20
20.617999999999981
 30
0.0
 70
    32
  0
VERTEX
  5
4A03
  8
240
  6
CONTINUOUS
 10
-113.8229999999988
 20
20.89109999999998
 30
0.0
 70
    32
  0
VERTEX
  5
4A04
  8
240
  6
CONTINUOUS
 10
-113.6229999999988
 20
21.15969999999998
 30
0.0
 70
    32
  0
VERTEX
  5
4A05
  8
240
  6
CONTINUOUS
 10
-113.4189999999988
 20
21.423699999999979
 30
0.0
 70
    32
  0
VERTEX
  5
4A06
  8
240
  6
CONTINUOUS
 10
-113.2119999999988
 20
21.683099999999978
 30
0.0
 70
    32
  0
VERTEX
  5
4A07
  8
240
  6
CONTINUOUS
 10
-113.0009999999988
 20
21.937699999999982
 30
0.0
 70
    32
  0
VERTEX
  5
4A08
  8
240
  6
CONTINUOUS
 10
-112.7869999999989
 20
22.187499999999979
 30
0.0
 70
    32
  0
VERTEX
  5
4A09
  8
240
  6
CONTINUOUS
 10
-112.5699999999988
 20
22.43239999999998
 30
0.0
 70
    32
  0
VERTEX
  5
4A0A
  8
240
  6
CONTINUOUS
 10
-112.34799999999881
 20
22.672299999999979
 30
0.0
 70
    32
  0
VERTEX
  5
4A0B
  8
240
  6
CONTINUOUS
 10
-112.1239999999988
 20
22.907199999999978
 30
0.0
 70
    32
  0
VERTEX
  5
4A0C
  8
240
  6
CONTINUOUS
 10
-111.89599999999881
 20
23.136999999999979
 30
0.0
 70
    32
  0
VERTEX
  5
4A0D
  8
240
  6
CONTINUOUS
 10
-111.66399999999879
 20
23.361599999999981
 30
0.0
 70
    32
  0
VERTEX
  5
4A0E
  8
240
  6
CONTINUOUS
 10
-111.42899999999879
 20
23.580999999999982
 30
0.0
 70
    32
  0
VERTEX
  5
4A0F
  8
240
  6
CONTINUOUS
 10
-111.1899999999988
 20
23.79499999999998
 30
0.0
 70
    32
  0
VERTEX
  5
4A10
  8
240
  6
CONTINUOUS
 10
-110.9479999999988
 20
24.003599999999981
 30
0.0
 70
    32
  0
VERTEX
  5
4A11
  8
240
  6
CONTINUOUS
 10
-110.7029999999988
 20
24.20669999999998
 30
0.0
 70
    32
  0
VERTEX
  5
4A12
  8
240
  6
CONTINUOUS
 10
-110.4539999999988
 20
24.404199999999982
 30
0.0
 70
    32
  0
VERTEX
  5
4A13
  8
240
  6
CONTINUOUS
 10
-110.2009999999988
 20
24.596199999999978
 30
0.0
 70
    32
  0
VERTEX
  5
4A14
  8
240
  6
CONTINUOUS
 10
-109.9449999999988
 20
24.782399999999981
 30
0.0
 70
    32
  0
VERTEX
  5
4A15
  8
240
  6
CONTINUOUS
 10
-109.6859999999988
 20
24.96279999999998
 30
0.0
 70
    32
  0
VERTEX
  5
4A16
  8
240
  6
CONTINUOUS
 10
-109.42299999999879
 20
25.137399999999982
 30
0.0
 70
    32
  0
VERTEX
  5
4A17
  8
240
  6
CONTINUOUS
 10
-109.1559999999988
 20
25.306099999999979
 30
0.0
 70
    32
  0
VERTEX
  5
4A18
  8
240
  6
CONTINUOUS
 10
-108.8859999999989
 20
25.468699999999981
 30
0.0
 70
    32
  0
VERTEX
  5
4A19
  8
240
  6
CONTINUOUS
 10
-108.61299999999881
 20
25.625299999999982
 30
0.0
 70
    32
  0
VERTEX
  5
4A1A
  8
240
  6
CONTINUOUS
 10
-108.3359999999988
 20
25.775799999999979
 30
0.0
 70
    32
  0
VERTEX
  5
4A1B
  8
240
  6
CONTINUOUS
 10
-108.0559999999988
 20
25.92019999999998
 30
0.0
 70
    32
  0
VERTEX
  5
4A1C
  8
240
  6
CONTINUOUS
 10
-107.7719999999988
 20
26.058599999999981
 30
0.0
 70
    32
  0
VERTEX
  5
4A1D
  8
240
  6
CONTINUOUS
 10
-107.48499999999881
 20
26.190999999999981
 30
0.0
 70
    32
  0
VERTEX
  5
4A1E
  8
240
  6
CONTINUOUS
 10
-107.1949999999988
 20
26.317499999999981
 30
0.0
 70
    32
  0
VERTEX
  5
4A1F
  8
240
  6
CONTINUOUS
 10
-106.90199999999879
 20
26.438099999999981
 30
0.0
 70
    32
  0
VERTEX
  5
4A20
  8
240
  6
CONTINUOUS
 10
-106.6049999999988
 20
26.55289999999998
 30
0.0
 70
    32
  0
VERTEX
  5
4A21
  8
240
  6
CONTINUOUS
 10
-106.3059999999988
 20
26.661899999999982
 30
0.0
 70
    32
  0
VERTEX
  5
4A22
  8
240
  6
CONTINUOUS
 10
-106.0039999999988
 20
26.765099999999979
 30
0.0
 70
    32
  0
VERTEX
  5
4A23
  8
240
  6
CONTINUOUS
 10
-105.6989999999988
 20
26.862499999999979
 30
0.0
 70
    32
  0
VERTEX
  5
4A24
  8
240
  6
CONTINUOUS
 10
-105.38999999999881
 20
26.954299999999979
 30
0.0
 70
    32
  0
VERTEX
  5
4A25
  8
240
  6
CONTINUOUS
 10
-105.0799999999988
 20
27.04039999999998
 30
0.0
 70
    32
  0
VERTEX
  5
4A26
  8
240
  6
CONTINUOUS
 10
-104.7659999999988
 20
27.120899999999981
 30
0.0
 70
    32
  0
VERTEX
  5
4A27
  8
240
  6
CONTINUOUS
 10
-104.44999999999879
 20
27.19589999999998
 30
0.0
 70
    32
  0
VERTEX
  5
4A28
  8
240
  6
CONTINUOUS
 10
-104.13099999999881
 20
27.265299999999979
 30
0.0
 70
    32
  0
VERTEX
  5
4A29
  8
240
  6
CONTINUOUS
 10
-103.80999999999879
 20
27.329199999999979
 30
0.0
 70
    32
  0
VERTEX
  5
4A2A
  8
240
  6
CONTINUOUS
 10
-103.4859999999989
 20
27.387799999999981
 30
0.0
 70
    32
  0
VERTEX
  5
4A2B
  8
240
  6
CONTINUOUS
 10
-103.1599999999988
 20
27.440899999999981
 30
0.0
 70
    32
  0
VERTEX
  5
4A2C
  8
240
  6
CONTINUOUS
 10
-102.8318999999988
 20
27.48859999999998
 30
0.0
 70
    32
  0
VERTEX
  5
4A2D
  8
240
  6
CONTINUOUS
 10
-102.5011999999988
 20
27.530999999999981
 30
0.0
 70
    32
  0
VERTEX
  5
4A2E
  8
240
  6
CONTINUOUS
 10
-102.16829999999879
 20
27.56809999999998
 30
0.0
 70
    32
  0
VERTEX
  5
4A2F
  8
240
  6
CONTINUOUS
 10
-101.8332999999988
 20
27.59999999999998
 30
0.0
 70
    32
  0
VERTEX
  5
4A30
  8
240
  6
CONTINUOUS
 10
-101.49619999999879
 20
27.626699999999978
 30
0.0
 70
    32
  0
VERTEX
  5
4A31
  8
240
  6
CONTINUOUS
 10
-101.15709999999881
 20
27.648299999999981
 30
0.0
 70
    32
  0
VERTEX
  5
4A32
  8
240
  6
CONTINUOUS
 10
-100.8160999999988
 20
27.664699999999979
 30
0.0
 70
    32
  0
VERTEX
  5
4A33
  8
240
  6
CONTINUOUS
 10
-100.4731999999988
 20
27.67609999999998
 30
0.0
 70
    32
  0
VERTEX
  5
4A34
  8
240
  6
CONTINUOUS
 10
-100.12839999999881
 20
27.68239999999998
 30
0.0
 70
    32
  0
VERTEX
  5
4A35
  8
240
  6
CONTINUOUS
 10
-99.781899999998856
 20
27.68369999999998
 30
0.0
 70
    32
  0
VERTEX
  5
4A36
  8
240
  6
CONTINUOUS
 10
-99.433699999998865
 20
27.680099999999982
 30
0.0
 70
    32
  0
VERTEX
  5
4A37
  8
240
  6
CONTINUOUS
 10
-99.083899999998849
 20
27.67149999999998
 30
0.0
 70
    32
  0
VERTEX
  5
4A38
  8
240
  6
CONTINUOUS
 10
-98.732399999998876
 20
27.65809999999998
 30
0.0
 70
    32
  0
VERTEX
  5
4A39
  8
240
  6
CONTINUOUS
 10
-98.379499999998856
 20
27.639899999999979
 30
0.0
 70
    32
  0
VERTEX
  5
4A3A
  8
240
  6
CONTINUOUS
 10
-98.025199999998875
 20
27.61679999999998
 30
0.0
 70
    32
  0
VERTEX
  5
4A3B
  8
240
  6
CONTINUOUS
 10
-97.669399999998859
 20
27.588999999999981
 30
0.0
 70
    32
  0
VERTEX
  5
4A3C
  8
240
  6
CONTINUOUS
 10
-97.312299999998856
 20
27.556499999999978
 30
0.0
 70
    32
  0
VERTEX
  5
4A3D
  8
240
  6
CONTINUOUS
 10
-96.953999999998857
 20
27.51939999999998
 30
0.0
 70
    32
  0
VERTEX
  5
4A3E
  8
240
  6
CONTINUOUS
 10
-96.594499999998845
 20
27.477599999999981
 30
0.0
 70
    32
  0
VERTEX
  5
4A3F
  8
240
  6
CONTINUOUS
 10
-96.233799999998865
 20
27.431199999999979
 30
0.0
 70
    32
  0
VERTEX
  5
4A40
  8
240
  6
CONTINUOUS
 10
-95.872099999998866
 20
27.380299999999981
 30
0.0
 70
    32
  0
VERTEX
  5
4A41
  8
240
  6
CONTINUOUS
 10
-95.509399999998848
 20
27.324799999999978
 30
0.0
 70
    32
  0
VERTEX
  5
4A42
  8
240
  6
CONTINUOUS
 10
-95.145699999998868
 20
27.264899999999979
 30
0.0
 70
    32
  0
VERTEX
  5
4A43
  8
240
  6
CONTINUOUS
 10
-94.781199999998847
 20
27.20059999999998
 30
0.0
 70
    32
  0
VERTEX
  5
4A44
  8
240
  6
CONTINUOUS
 10
-94.415799999998853
 20
27.13189999999998
 30
0.0
 70
    32
  0
VERTEX
  5
4A45
  8
240
  6
CONTINUOUS
 10
-94.04969999999885
 20
27.05889999999998
 30
0.0
 70
    32
  0
VERTEX
  5
4A46
  8
240
  6
CONTINUOUS
 10
-93.682899999998867
 20
26.981499999999979
 30
0.0
 70
    32
  0
VERTEX
  5
4A47
  8
240
  6
CONTINUOUS
 10
-93.315499999998863
 20
26.899899999999981
 30
0.0
 70
    32
  0
VERTEX
  5
4A48
  8
240
  6
CONTINUOUS
 10
-92.947499999998854
 20
26.814099999999979
 30
0.0
 70
    32
  0
VERTEX
  5
4A49
  8
240
  6
CONTINUOUS
 10
-92.578999999998828
 20
26.724099999999979
 30
0.0
 70
    32
  0
VERTEX
  5
4A4A
  8
240
  6
CONTINUOUS
 10
-92.209999999998843
 20
26.629999999999981
 30
0.0
 70
    32
  0
VERTEX
  5
4A4B
  8
240
  6
CONTINUOUS
 10
-91.840699999998833
 20
26.531699999999979
 30
0.0
 70
    32
  0
VERTEX
  5
4A4C
  8
240
  6
CONTINUOUS
 10
-91.47109999999887
 20
26.42939999999998
 30
0.0
 70
    32
  0
VERTEX
  5
4A4D
  8
240
  6
CONTINUOUS
 10
-91.101199999998855
 20
26.323099999999979
 30
0.0
 70
    32
  0
VERTEX
  5
4A4E
  8
240
  6
CONTINUOUS
 10
-90.731199999998864
 20
26.21279999999998
 30
0.0
 70
    32
  0
VERTEX
  5
4A4F
  8
240
  6
CONTINUOUS
 10
-90.360999999998867
 20
26.09859999999998
 30
0.0
 70
    32
  0
VERTEX
  5
4A50
  8
240
  6
CONTINUOUS
 10
-89.990699999998867
 20
25.980499999999981
 30
0.0
 70
    32
  0
VERTEX
  5
4A51
  8
240
  6
CONTINUOUS
 10
-89.62049999999887
 20
25.858499999999982
 30
0.0
 70
    32
  0
VERTEX
  5
4A52
  8
240
  6
CONTINUOUS
 10
-89.250299999998845
 20
25.73269999999998
 30
0.0
 70
    32
  0
VERTEX
  5
4A53
  8
240
  6
CONTINUOUS
 10
-88.880199999998865
 20
25.60319999999998
 30
0.0
 70
    32
  0
VERTEX
  5
4A54
  8
240
  6
CONTINUOUS
 10
-88.510399999998867
 20
25.469899999999981
 30
0.0
 70
    32
  0
VERTEX
  5
4A55
  8
240
  6
CONTINUOUS
 10
-88.140799999998848
 20
25.332899999999981
 30
0.0
 70
    32
  0
VERTEX
  5
4A56
  8
240
  6
CONTINUOUS
 10
-87.771499999998866
 20
25.192299999999982
 30
0.0
 70
    32
  0
VERTEX
  5
4A57
  8
240
  6
CONTINUOUS
 10
-87.40259999999887
 20
25.04809999999998
 30
0.0
 70
    32
  0
VERTEX
  5
4A58
  8
240
  6
CONTINUOUS
 10
-87.034099999998844
 20
24.90029999999998
 30
0.0
 70
    32
  0
VERTEX
  5
4A59
  8
240
  6
CONTINUOUS
 10
-86.666099999998835
 20
24.748999999999981
 30
0.0
 70
    32
  0
VERTEX
  5
4A5A
  8
240
  6
CONTINUOUS
 10
-86.298699999998846
 20
24.594199999999979
 30
0.0
 70
    32
  0
VERTEX
  5
4A5B
  8
240
  6
CONTINUOUS
 10
-85.931899999998862
 20
24.435899999999979
 30
0.0
 70
    32
  0
VERTEX
  5
4A5C
  8
240
  6
CONTINUOUS
 10
-85.565899999998862
 20
24.274199999999979
 30
0.0
 70
    32
  0
VERTEX
  5
4A5D
  8
240
  6
CONTINUOUS
 10
-85.200599999998843
 20
24.10919999999998
 30
0.0
 70
    32
  0
VERTEX
  5
4A5E
  8
240
  6
CONTINUOUS
 10
-84.836099999998865
 20
23.940899999999981
 30
0.0
 70
    32
  0
VERTEX
  5
4A5F
  8
240
  6
CONTINUOUS
 10
-84.472399999998856
 20
23.76919999999998
 30
0.0
 70
    32
  0
VERTEX
  5
4A60
  8
240
  6
CONTINUOUS
 10
-84.109799999998856
 20
23.594399999999979
 30
0.0
 70
    32
  0
VERTEX
  5
4A61
  8
240
  6
CONTINUOUS
 10
-83.748099999998843
 20
23.416299999999978
 30
0.0
 70
    32
  0
VERTEX
  5
4A62
  8
240
  6
CONTINUOUS
 10
-83.387499999998866
 20
23.235099999999981
 30
0.0
 70
    32
  0
VERTEX
  5
4A63
  8
240
  6
CONTINUOUS
 10
-83.028099999998844
 20
23.050699999999981
 30
0.0
 70
    32
  0
VERTEX
  5
4A64
  8
240
  6
CONTINUOUS
 10
-82.669799999998844
 20
22.863299999999981
 30
0.0
 70
    32
  0
VERTEX
  5
4A65
  8
240
  6
CONTINUOUS
 10
-82.312799999998845
 20
22.672899999999981
 30
0.0
 70
    32
  0
VERTEX
  5
4A66
  8
240
  6
CONTINUOUS
 10
-81.957099999998846
 20
22.479399999999981
 30
0.0
 70
    32
  0
VERTEX
  5
4A67
  8
240
  6
CONTINUOUS
 10
-81.602799999998865
 20
22.28299999999998
 30
0.0
 70
    32
  0
VERTEX
  5
4A68
  8
240
  6
CONTINUOUS
 10
-81.249999999998863
 20
22.083599999999979
 30
0.0
 70
    32
  0
SEQEND
  5
4A69
  8
240
  6
CONTINUOUS
  0
POLYLINE
  5
4A6A
  8
240
  6
CONTINUOUS
 66
     1
 10
0.0
 20
0.0
 30
0.0
 70
     8
  0
VERTEX
  5
4A6B
  8
240
  6
CONTINUOUS
 10
-81.249999999998863
 20
-22.083600000000018
 30
0.0
 70
    32
  0
VERTEX
  5
4A6C
  8
240
  6
CONTINUOUS
 10
-81.602699999998848
 20
-22.288200000000021
 30
0.0
 70
    32
  0
VERTEX
  5
4A6D
  8
240
  6
CONTINUOUS
 10
-81.956899999998868
 20
-22.489600000000021
 30
0.0
 70
    32
  0
VERTEX
  5
4A6E
  8
240
  6
CONTINUOUS
 10
-82.312499999998863
 20
-22.687800000000021
 30
0.0
 70
    32
  0
VERTEX
  5
4A6F
  8
240
  6
CONTINUOUS
 10
-82.669399999998845
 20
-22.882800000000021
 30
0.0
 70
    32
  0
VERTEX
  5
4A70
  8
240
  6
CONTINUOUS
 10
-83.027699999998845
 20
-23.074600000000022
 30
0.0
 70
    32
  0
VERTEX
  5
4A71
  8
240
  6
CONTINUOUS
 10
-83.387199999998856
 20
-23.263100000000019
 30
0.0
 70
    32
  0
VERTEX
  5
4A72
  8
240
  6
CONTINUOUS
 10
-83.747799999998847
 20
-23.448300000000021
 30
0.0
 70
    32
  0
VERTEX
  5
4A73
  8
240
  6
CONTINUOUS
 10
-84.109599999998863
 20
-23.63010000000002
 30
0.0
 70
    32
  0
VERTEX
  5
4A74
  8
240
  6
CONTINUOUS
 10
-84.472299999998867
 20
-23.80860000000002
 30
0.0
 70
    32
  0
VERTEX
  5
4A75
  8
240
  6
CONTINUOUS
 10
-84.836099999998865
 20
-23.98360000000002
 30
0.0
 70
    32
  0
VERTEX
  5
4A76
  8
240
  6
CONTINUOUS
 10
-85.200699999998847
 20
-24.155100000000019
 30
0.0
 70
    32
  0
VERTEX
  5
4A77
  8
240
  6
CONTINUOUS
 10
-85.566199999998844
 20
-24.323200000000021
 30
0.0
 70
    32
  0
VERTEX
  5
4A78
  8
240
  6
CONTINUOUS
 10
-85.932499999998868
 20
-24.487700000000022
 30
0.0
 70
    32
  0
VERTEX
  5
4A79
  8
240
  6
CONTINUOUS
 10
-86.299499999998844
 20
-24.64860000000002
 30
0.0
 70
    32
  0
VERTEX
  5
4A7A
  8
240
  6
CONTINUOUS
 10
-86.667099999998854
 20
-24.805900000000019
 30
0.0
 70
    32
  0
VERTEX
  5
4A7B
  8
240
  6
CONTINUOUS
 10
-87.035399999998845
 20
-24.95950000000002
 30
0.0
 70
    32
  0
VERTEX
  5
4A7C
  8
240
  6
CONTINUOUS
 10
-87.404099999998849
 20
-25.109400000000019
 30
0.0
 70
    32
  0
VERTEX
  5
4A7D
  8
240
  6
CONTINUOUS
 10
-87.773299999998869
 20
-25.255700000000019
 30
0.0
 70
    32
  0
VERTEX
  5
4A7E
  8
240
  6
CONTINUOUS
 10
-88.142899999998846
 20
-25.398100000000021
 30
0.0
 70
    32
  0
VERTEX
  5
4A7F
  8
240
  6
CONTINUOUS
 10
-88.512799999998876
 20
-25.536700000000021
 30
0.0
 70
    32
  0
VERTEX
  5
4A80
  8
240
  6
CONTINUOUS
 10
-88.882999999998844
 20
-25.67150000000002
 30
0.0
 70
    32
  0
VERTEX
  5
4A81
  8
240
  6
CONTINUOUS
 10
-89.253399999998834
 20
-25.80240000000002
 30
0.0
 70
    32
  0
VERTEX
  5
4A82
  8
240
  6
CONTINUOUS
 10
-89.623999999998844
 20
-25.929400000000019
 30
0.0
 70
    32
  0
VERTEX
  5
4A83
  8
240
  6
CONTINUOUS
 10
-89.994599999998869
 20
-26.05250000000002
 30
0.0
 70
    32
  0
VERTEX
  5
4A84
  8
240
  6
CONTINUOUS
 10
-90.365199999998865
 20
-26.17150000000002
 30
0.0
 70
    32
  0
VERTEX
  5
4A85
  8
240
  6
CONTINUOUS
 10
-90.735699999998843
 20
-26.286500000000022
 30
0.0
 70
    32
  0
VERTEX
  5
4A86
  8
240
  6
CONTINUOUS
 10
-91.106199999998864
 20
-26.397500000000019
 30
0.0
 70
    32
  0
VERTEX
  5
4A87
  8
240
  6
CONTINUOUS
 10
-91.476399999998876
 20
-26.504300000000018
 30
0.0
 70
    32
  0
VERTEX
  5
4A88
  8
240
  6
CONTINUOUS
 10
-91.846499999998869
 20
-26.607000000000021
 30
0.0
 70
    32
  0
VERTEX
  5
4A89
  8
240
  6
CONTINUOUS
 10
-92.216099999998846
 20
-26.705500000000018
 30
0.0
 70
    32
  0
VERTEX
  5
4A8A
  8
240
  6
CONTINUOUS
 10
-92.585499999998845
 20
-26.799800000000019
 30
0.0
 70
    32
  0
VERTEX
  5
4A8B
  8
240
  6
CONTINUOUS
 10
-92.954299999998867
 20
-26.889800000000029
 30
0.0
 70
    32
  0
VERTEX
  5
4A8C
  8
240
  6
CONTINUOUS
 10
-93.322699999998846
 20
-26.975500000000022
 30
0.0
 70
    32
  0
VERTEX
  5
4A8D
  8
240
  6
CONTINUOUS
 10
-93.690499999998849
 20
-27.05690000000002
 30
0.0
 70
    32
  0
VERTEX
  5
4A8E
  8
240
  6
CONTINUOUS
 10
-94.05769999999886
 20
-27.134000000000022
 30
0.0
 70
    32
  0
VERTEX
  5
4A8F
  8
240
  6
CONTINUOUS
 10
-94.424199999998834
 20
-27.206600000000019
 30
0.0
 70
    32
  0
VERTEX
  5
4A90
  8
240
  6
CONTINUOUS
 10
-94.789899999998866
 20
-27.27480000000002
 30
0.0
 70
    32
  0
VERTEX
  5
4A91
  8
240
  6
CONTINUOUS
 10
-95.154799999998858
 20
-27.338500000000021
 30
0.0
 70
    32
  0
VERTEX
  5
4A92
  8
240
  6
CONTINUOUS
 10
-95.518799999998848
 20
-27.397600000000018
 30
0.0
 70
    32
  0
VERTEX
  5
4A93
  8
240
  6
CONTINUOUS
 10
-95.881799999998847
 20
-27.452200000000019
 30
0.0
 70
    32
  0
VERTEX
  5
4A94
  8
240
  6
CONTINUOUS
 10
-96.24389999999886
 20
-27.50230000000002
 30
0.0
 70
    32
  0
VERTEX
  5
4A95
  8
240
  6
CONTINUOUS
 10
-96.60479999999886
 20
-27.54770000000002
 30
0.0
 70
    32
  0
VERTEX
  5
4A96
  8
240
  6
CONTINUOUS
 10
-96.964599999998882
 20
-27.588400000000021
 30
0.0
 70
    32
  0
VERTEX
  5
4A97
  8
240
  6
CONTINUOUS
 10
-97.323199999998863
 20
-27.624400000000019
 30
0.0
 70
    32
  0
VERTEX
  5
4A98
  8
240
  6
CONTINUOUS
 10
-97.680499999998858
 20
-27.655600000000021
 30
0.0
 70
    32
  0
VERTEX
  5
4A99
  8
240
  6
CONTINUOUS
 10
-98.036499999998867
 20
-27.68210000000002
 30
0.0
 70
    32
  0
VERTEX
  5
4A9A
  8
240
  6
CONTINUOUS
 10
-98.391099999998858
 20
-27.703800000000019
 30
0.0
 70
    32
  0
VERTEX
  5
4A9B
  8
240
  6
CONTINUOUS
 10
-98.744199999998855
 20
-27.720600000000019
 30
0.0
 70
    32
  0
VERTEX
  5
4A9C
  8
240
  6
CONTINUOUS
 10
-99.09579999999886
 20
-27.73250000000003
 30
0.0
 70
    32
  0
VERTEX
  5
4A9D
  8
240
  6
CONTINUOUS
 10
-99.445799999998883
 20
-27.739400000000021
 30
0.0
 70
    32
  0
VERTEX
  5
4A9E
  8
240
  6
CONTINUOUS
 10
-99.794099999998863
 20
-27.74140000000002
 30
0.0
 70
    32
  0
VERTEX
  5
4A9F
  8
240
  6
CONTINUOUS
 10
-100.1406999999988
 20
-27.73840000000002
 30
0.0
 70
    32
  0
VERTEX
  5
4AA0
  8
240
  6
CONTINUOUS
 10
-100.48549999999879
 20
-27.730400000000021
 30
0.0
 70
    32
  0
VERTEX
  5
4AA1
  8
240
  6
CONTINUOUS
 10
-100.8284999999988
 20
-27.71720000000002
 30
0.0
 70
    32
  0
VERTEX
  5
4AA2
  8
240
  6
CONTINUOUS
 10
-101.16959999999879
 20
-27.699000000000019
 30
0.0
 70
    32
  0
VERTEX
  5
4AA3
  8
240
  6
CONTINUOUS
 10
-101.50859999999879
 20
-27.675500000000021
 30
0.0
 70
    32
  0
VERTEX
  5
4AA4
  8
240
  6
CONTINUOUS
 10
-101.8456999999988
 20
-27.64690000000002
 30
0.0
 70
    32
  0
VERTEX
  5
4AA5
  8
240
  6
CONTINUOUS
 10
-102.1805999999988
 20
-27.613000000000021
 30
0.0
 70
    32
  0
VERTEX
  5
4AA6
  8
240
  6
CONTINUOUS
 10
-102.51329999999879
 20
-27.57390000000002
 30
0.0
 70
    32
  0
VERTEX
  5
4AA7
  8
240
  6
CONTINUOUS
 10
-102.84379999999879
 20
-27.52950000000002
 30
0.0
 70
    32
  0
VERTEX
  5
4AA8
  8
240
  6
CONTINUOUS
 10
-103.1719999999989
 20
-27.479700000000019
 30
0.0
 70
    32
  0
VERTEX
  5
4AA9
  8
240
  6
CONTINUOUS
 10
-103.4979999999988
 20
-27.42450000000002
 30
0.0
 70
    32
  0
VERTEX
  5
4AAA
  8
240
  6
CONTINUOUS
 10
-103.8209999999988
 20
-27.363900000000019
 30
0.0
 70
    32
  0
VERTEX
  5
4AAB
  8
240
  6
CONTINUOUS
 10
-104.1419999999988
 20
-27.29790000000002
 30
0.0
 70
    32
  0
VERTEX
  5
4AAC
  8
240
  6
CONTINUOUS
 10
-104.4609999999988
 20
-27.22630000000002
 30
0.0
 70
    32
  0
VERTEX
  5
4AAD
  8
240
  6
CONTINUOUS
 10
-104.7759999999988
 20
-27.149200000000022
 30
0.0
 70
    32
  0
VERTEX
  5
4AAE
  8
240
  6
CONTINUOUS
 10
-105.0889999999988
 20
-27.066600000000019
 30
0.0
 70
    32
  0
VERTEX
  5
4AAF
  8
240
  6
CONTINUOUS
 10
-105.3999999999988
 20
-26.978300000000019
 30
0.0
 70
    32
  0
VERTEX
  5
4AB0
  8
240
  6
CONTINUOUS
 10
-105.7069999999988
 20
-26.884400000000021
 30
0.0
 70
    32
  0
VERTEX
  5
4AB1
  8
240
  6
CONTINUOUS
 10
-106.01199999999881
 20
-26.784800000000018
 30
0.0
 70
    32
  0
VERTEX
  5
4AB2
  8
240
  6
CONTINUOUS
 10
-106.3139999999988
 20
-26.679400000000019
 30
0.0
 70
    32
  0
VERTEX
  5
4AB3
  8
240
  6
CONTINUOUS
 10
-106.6119999999988
 20
-26.568300000000018
 30
0.0
 70
    32
  0
VERTEX
  5
4AB4
  8
240
  6
CONTINUOUS
 10
-106.90799999999879
 20
-26.451500000000021
 30
0.0
 70
    32
  0
VERTEX
  5
4AB5
  8
240
  6
CONTINUOUS
 10
-107.19999999999879
 20
-26.328700000000019
 30
0.0
 70
    32
  0
VERTEX
  5
4AB6
  8
240
  6
CONTINUOUS
 10
-107.4899999999988
 20
-26.20010000000002
 30
0.0
 70
    32
  0
VERTEX
  5
4AB7
  8
240
  6
CONTINUOUS
 10
-107.7759999999988
 20
-26.065600000000021
 30
0.0
 70
    32
  0
VERTEX
  5
4AB8
  8
240
  6
CONTINUOUS
 10
-108.0579999999988
 20
-25.925200000000022
 30
0.0
 70
    32
  0
VERTEX
  5
4AB9
  8
240
  6
CONTINUOUS
 10
-108.3379999999988
 20
-25.778700000000018
 30
0.0
 70
    32
  0
VERTEX
  5
4ABA
  8
240
  6
CONTINUOUS
 10
-108.61299999999881
 20
-25.626300000000018
 30
0.0
 70
    32
  0
VERTEX
  5
4ABB
  8
240
  6
CONTINUOUS
 10
-108.8859999999989
 20
-25.467700000000018
 30
0.0
 70
    32
  0
VERTEX
  5
4ABC
  8
240
  6
CONTINUOUS
 10
-109.1539999999988
 20
-25.303200000000022
 30
0.0
 70
    32
  0
VERTEX
  5
4ABD
  8
240
  6
CONTINUOUS
 10
-109.41999999999879
 20
-25.132600000000021
 30
0.0
 70
    32
  0
VERTEX
  5
4ABE
  8
240
  6
CONTINUOUS
 10
-109.6809999999988
 20
-24.95620000000002
 30
0.0
 70
    32
  0
VERTEX
  5
4ABF
  8
240
  6
CONTINUOUS
 10
-109.9399999999988
 20
-24.773900000000019
 30
0.0
 70
    32
  0
VERTEX
  5
4AC0
  8
240
  6
CONTINUOUS
 10
-110.19399999999879
 20
-24.58590000000002
 30
0.0
 70
    32
  0
VERTEX
  5
4AC1
  8
240
  6
CONTINUOUS
 10
-110.4449999999988
 20
-24.39230000000002
 30
0.0
 70
    32
  0
VERTEX
  5
4AC2
  8
240
  6
CONTINUOUS
 10
-110.6929999999988
 20
-24.193000000000019
 30
0.0
 70
    32
  0
VERTEX
  5
4AC3
  8
240
  6
CONTINUOUS
 10
-110.9369999999989
 20
-23.98830000000002
 30
0.0
 70
    32
  0
VERTEX
  5
4AC4
  8
240
  6
CONTINUOUS
 10
-111.1769999999989
 20
-23.77800000000002
 30
0.0
 70
    32
  0
VERTEX
  5
4AC5
  8
240
  6
CONTINUOUS
 10
-111.41399999999879
 20
-23.562500000000021
 30
0.0
 70
    32
  0
VERTEX
  5
4AC6
  8
240
  6
CONTINUOUS
 10
-111.6479999999988
 20
-23.341600000000021
 30
0.0
 70
    32
  0
VERTEX
  5
4AC7
  8
240
  6
CONTINUOUS
 10
-111.87799999999881
 20
-23.115500000000019
 30
0.0
 70
    32
  0
VERTEX
  5
4AC8
  8
240
  6
CONTINUOUS
 10
-112.10399999999881
 20
-22.884200000000021
 30
0.0
 70
    32
  0
VERTEX
  5
4AC9
  8
240
  6
CONTINUOUS
 10
-112.3269999999989
 20
-22.647900000000021
 30
0.0
 70
    32
  0
VERTEX
  5
4ACA
  8
240
  6
CONTINUOUS
 10
-112.5469999999989
 20
-22.406600000000019
 30
0.0
 70
    32
  0
VERTEX
  5
4ACB
  8
240
  6
CONTINUOUS
 10
-112.7629999999989
 20
-22.160400000000021
 30
0.0
 70
    32
  0
VERTEX
  5
4ACC
  8
240
  6
CONTINUOUS
 10
-112.9749999999988
 20
-21.90930000000002
 30
0.0
 70
    32
  0
VERTEX
  5
4ACD
  8
240
  6
CONTINUOUS
 10
-113.1839999999988
 20
-21.653500000000019
 30
0.0
 70
    32
  0
VERTEX
  5
4ACE
  8
240
  6
CONTINUOUS
 10
-113.38999999999881
 20
-21.392900000000019
 30
0.0
 70
    32
  0
VERTEX
  5
4ACF
  8
240
  6
CONTINUOUS
 10
-113.59199999999881
 20
-21.127800000000018
 30
0.0
 70
    32
  0
VERTEX
  5
4AD0
  8
240
  6
CONTINUOUS
 10
-113.7909999999988
 20
-20.858100000000022
 30
0.0
 70
    32
  0
VERTEX
  5
4AD1
  8
240
  6
CONTINUOUS
 10
-113.9859999999988
 20
-20.583900000000021
 30
0.0
 70
    32
  0
VERTEX
  5
4AD2
  8
240
  6
CONTINUOUS
 10
-114.1769999999988
 20
-20.30530000000002
 30
0.0
 70
    32
  0
VERTEX
  5
4AD3
  8
240
  6
CONTINUOUS
 10
-114.36599999999881
 20
-20.022400000000019
 30
0.0
 70
    32
  0
VERTEX
  5
4AD4
  8
240
  6
CONTINUOUS
 10
-114.5499999999988
 20
-19.73530000000002
 30
0.0
 70
    32
  0
VERTEX
  5
4AD5
  8
240
  6
CONTINUOUS
 10
-114.73199999999891
 20
-19.44400000000002
 30
0.0
 70
    32
  0
VERTEX
  5
4AD6
  8
240
  6
CONTINUOUS
 10
-114.9089999999988
 20
-19.14860000000002
 30
0.0
 70
    32
  0
VERTEX
  5
4AD7
  8
240
  6
CONTINUOUS
 10
-115.0839999999988
 20
-18.849100000000021
 30
0.0
 70
    32
  0
VERTEX
  5
4AD8
  8
240
  6
CONTINUOUS
 10
-115.2549999999988
 20
-18.545800000000021
 30
0.0
 70
    32
  0
VERTEX
  5
4AD9
  8
240
  6
CONTINUOUS
 10
-115.4219999999988
 20
-18.23850000000002
 30
0.0
 70
    32
  0
VERTEX
  5
4ADA
  8
240
  6
CONTINUOUS
 10
-115.5859999999988
 20
-17.927500000000009
 30
0.0
 70
    32
  0
VERTEX
  5
4ADB
  8
240
  6
CONTINUOUS
 10
-115.74699999999891
 20
-17.612700000000022
 30
0.0
 70
    32
  0
VERTEX
  5
4ADC
  8
240
  6
CONTINUOUS
 10
-115.9039999999988
 20
-17.294300000000021
 30
0.0
 70
    32
  0
VERTEX
  5
4ADD
  8
240
  6
CONTINUOUS
 10
-116.0579999999988
 20
-16.972300000000018
 30
0.0
 70
    32
  0
VERTEX
  5
4ADE
  8
240
  6
CONTINUOUS
 10
-116.2079999999988
 20
-16.64680000000002
 30
0.0
 70
    32
  0
VERTEX
  5
4ADF
  8
240
  6
CONTINUOUS
 10
-116.3549999999988
 20
-16.317900000000019
 30
0.0
 70
    32
  0
VERTEX
  5
4AE0
  8
240
  6
CONTINUOUS
 10
-116.4989999999988
 20
-15.985700000000019
 30
0.0
 70
    32
  0
VERTEX
  5
4AE1
  8
240
  6
CONTINUOUS
 10
-116.6389999999988
 20
-15.650200000000019
 30
0.0
 70
    32
  0
VERTEX
  5
4AE2
  8
240
  6
CONTINUOUS
 10
-116.7759999999989
 20
-15.31140000000002
 30
0.0
 70
    32
  0
VERTEX
  5
4AE3
  8
240
  6
CONTINUOUS
 10
-116.9089999999988
 20
-14.969600000000019
 30
0.0
 70
    32
  0
VERTEX
  5
4AE4
  8
240
  6
CONTINUOUS
 10
-117.03899999999879
 20
-14.62470000000002
 30
0.0
 70
    32
  0
VERTEX
  5
4AE5
  8
240
  6
CONTINUOUS
 10
-117.1659999999988
 20
-14.276800000000019
 30
0.0
 70
    32
  0
VERTEX
  5
4AE6
  8
240
  6
CONTINUOUS
 10
-117.28899999999879
 20
-13.926100000000019
 30
0.0
 70
    32
  0
VERTEX
  5
4AE7
  8
240
  6
CONTINUOUS
 10
-117.4089999999988
 20
-13.572500000000019
 30
0.0
 70
    32
  0
VERTEX
  5
4AE8
  8
240
  6
CONTINUOUS
 10
-117.5249999999989
 20
-13.21610000000002
 30
0.0
 70
    32
  0
VERTEX
  5
4AE9
  8
240
  6
CONTINUOUS
 10
-117.6379999999988
 20
-12.85710000000002
 30
0.0
 70
    32
  0
VERTEX
  5
4AEA
  8
240
  6
CONTINUOUS
 10
-117.7479999999988
 20
-12.495500000000019
 30
0.0
 70
    32
  0
VERTEX
  5
4AEB
  8
240
  6
CONTINUOUS
 10
-117.85399999999881
 20
-12.131400000000021
 30
0.0
 70
    32
  0
VERTEX
  5
4AEC
  8
240
  6
CONTINUOUS
 10
-117.9569999999988
 20
-11.764800000000021
 30
0.0
 70
    32
  0
VERTEX
  5
4AED
  8
240
  6
CONTINUOUS
 10
-118.05699999999879
 20
-11.395900000000021
 30
0.0
 70
    32
  0
VERTEX
  5
4AEE
  8
240
  6
CONTINUOUS
 10
-118.1529999999988
 20
-11.024600000000021
 30
0.0
 70
    32
  0
VERTEX
  5
4AEF
  8
240
  6
CONTINUOUS
 10
-118.2459999999988
 20
-10.651100000000021
 30
0.0
 70
    32
  0
VERTEX
  5
4AF0
  8
240
  6
CONTINUOUS
 10
-118.3349999999988
 20
-10.275500000000021
 30
0.0
 70
    32
  0
VERTEX
  5
4AF1
  8
240
  6
CONTINUOUS
 10
-118.4219999999988
 20
-9.8978100000000211
 30
0.0
 70
    32
  0
VERTEX
  5
4AF2
  8
240
  6
CONTINUOUS
 10
-118.5039999999988
 20
-9.5181000000000218
 30
0.0
 70
    32
  0
VERTEX
  5
4AF3
  8
240
  6
CONTINUOUS
 10
-118.5839999999988
 20
-9.1364800000000201
 30
0.0
 70
    32
  0
VERTEX
  5
4AF4
  8
240
  6
CONTINUOUS
 10
-118.6599999999988
 20
-8.7530000000000214
 30
0.0
 70
    32
  0
VERTEX
  5
4AF5
  8
240
  6
CONTINUOUS
 10
-118.7329999999988
 20
-8.3677500000000204
 30
0.0
 70
    32
  0
VERTEX
  5
4AF6
  8
240
  6
CONTINUOUS
 10
-118.8019999999988
 20
-7.9808000000000208
 30
0.0
 70
    32
  0
VERTEX
  5
4AF7
  8
240
  6
CONTINUOUS
 10
-118.86899999999881
 20
-7.5922200000000188
 30
0.0
 70
    32
  0
VERTEX
  5
4AF8
  8
240
  6
CONTINUOUS
 10
-118.9309999999988
 20
-7.2020900000000196
 30
0.0
 70
    32
  0
VERTEX
  5
4AF9
  8
240
  6
CONTINUOUS
 10
-118.99099999999881
 20
-6.8104900000000201
 30
0.0
 70
    32
  0
VERTEX
  5
4AFA
  8
240
  6
CONTINUOUS
 10
-119.0469999999989
 20
-6.4174800000000207
 30
0.0
 70
    32
  0
VERTEX
  5
4AFB
  8
240
  6
CONTINUOUS
 10
-119.0999999999988
 20
-6.0231500000000207
 30
0.0
 70
    32
  0
VERTEX
  5
4AFC
  8
240
  6
CONTINUOUS
 10
-119.1499999999988
 20
-5.6275700000000199
 30
0.0
 70
    32
  0
VERTEX
  5
4AFD
  8
240
  6
CONTINUOUS
 10
-119.1959999999988
 20
-5.2308100000000204
 30
0.0
 70
    32
  0
VERTEX
  5
4AFE
  8
240
  6
CONTINUOUS
 10
-119.2389999999988
 20
-4.8329500000000207
 30
0.0
 70
    32
  0
VERTEX
  5
4AFF
  8
240
  6
CONTINUOUS
 10
-119.2789999999988
 20
-4.4340700000000197
 30
0.0
 70
    32
  0
VERTEX
  5
4B00
  8
240
  6
CONTINUOUS
 10
-119.3149999999988
 20
-4.0342300000000204
 30
0.0
 70
    32
  0
VERTEX
  5
4B01
  8
240
  6
CONTINUOUS
 10
-119.3489999999988
 20
-3.6335200000000198
 30
0.0
 70
    32
  0
VERTEX
  5
4B02
  8
240
  6
CONTINUOUS
 10
-119.37799999999881
 20
-3.2320000000000211
 30
0.0
 70
    32
  0
VERTEX
  5
4B03
  8
240
  6
CONTINUOUS
 10
-119.40499999999879
 20
-2.8297600000000198
 30
0.0
 70
    32
  0
VERTEX
  5
4B04
  8
240
  6
CONTINUOUS
 10
-119.4279999999988
 20
-2.4268600000000209
 30
0.0
 70
    32
  0
VERTEX
  5
4B05
  8
240
  6
CONTINUOUS
 10
-119.4479999999988
 20
-2.0233900000000209
 30
0.0
 70
    32
  0
VERTEX
  5
4B06
  8
240
  6
CONTINUOUS
 10
-119.4649999999988
 20
-1.619420000000021
 30
0.0
 70
    32
  0
VERTEX
  5
4B07
  8
240
  6
CONTINUOUS
 10
-119.47899999999881
 20
-1.21502000000002
 30
0.0
 70
    32
  0
VERTEX
  5
4B08
  8
240
  6
CONTINUOUS
 10
-119.4889999999988
 20
-0.8102650000000213
 30
0.0
 70
    32
  0
VERTEX
  5
4B09
  8
240
  6
CONTINUOUS
 10
-119.4959999999988
 20
-0.4052340000000214
 30
0.0
 70
    32
  0
VERTEX
  5
4B0A
  8
240
  6
CONTINUOUS
 10
-119.49999999999881
 20
-0.0000000000035494
 30
0.0
 70
    32
  0
SEQEND
  5
4B0B
  8
240
  6
CONTINUOUS
  0
LINE
  5
4B0C
  8
241
  6
CONTINUOUS
 10
32.999999999998067
 20
31.500000000000149
 30
0.0
 11
32.999999999998067
 21
-39.608959165297662
 31
0.0
  0
TEXT
  5
4BFD
  8
241
  6
CONTINUOUS
 10
-48.0
 20
69.999999999999972
 30
0.0
 40
5.0
  1
C8-180-BH25R-32120
  7
YOKO
 11
-48.0
 21
69.999999999999972
 31
0.0
 73
     1
  0
LINE
  5
4C24
  8
250
  6
CONTINUOUS
 10
0.0000000000007106
 20
-40.499999999999993
 30
0.0
 11
0.000000000000712
 21
-63.999999999999758
 31
0.0
  0
LINE
  5
4C25
  8
250
  6
CONTINUOUS
 10
120.0000000000021
 20
-11.35786437626893
 30
0.0
 11
120.0000000000021
 21
-63.999999999999758
 31
0.0
  0
LINE
  5
4C26
  8
250
  6
CONTINUOUS
 10
2.230000000000711
 20
-62.999999999999751
 30
0.0
 11
117.7700000000021
 21
-62.999999999999751
 31
0.0
  0
LINE
  5
4C2A
  8
250
  6
CONTINUOUS
 10
232.12624198046029
 20
-31.254880264846179
 30
0.0
 11
159.87375801954471
 21
31.254880264831389
 31
0.0
  0
LINE
  5
4C2B
  8
250
  6
CONTINUOUS
 10
158.18731214103471
 20
32.713921148034053
 30
0.0
 11
147.09941506510751
 21
42.30669572127703
 31
0.0
  0
LINE
  5
4C2F
  8
250
  6
CONTINUOUS
 10
122.5000000000021
 20
0.0000000000002275
 30
0.0
 11
134.0
 21
0.0000000000002308
 31
0.0
  0
LINE
  5
4C30
  8
250
  6
CONTINUOUS
 10
119.5000000000021
 20
31.500000000000231
 30
0.0
 11
134.0
 21
31.500000000000231
 31
0.0
  0
LINE
  5
4C31
  8
250
  6
CONTINUOUS
 10
133.0
 20
2.23000000000023
 30
0.0
 11
133.0
 21
29.270000000000231
 31
0.0
  0
LINE
  5
4C35
  8
250
  6
CONTINUOUS
 10
196.00000000000259
 20
51.867951760461892
 30
0.0
 11
196.00000000000259
 21
64.0
 31
0.0
  0
LINE
  5
4C36
  8
250
  6
CONTINUOUS
 10
221.00000000000259
 20
32.00000000000739
 30
0.0
 11
221.00000000000259
 21
64.0
 31
0.0
  0
LINE
  5
4C37
  8
250
  6
CONTINUOUS
 10
198.2300000000026
 20
63.0
 30
0.0
 11
218.7700000000026
 21
63.0
 31
0.0
  0
TEXT
  5
4C3B
  8
250
  6
CONTINUOUS
 10
55.800000000001432
 20
-61.821627961416077
 30
0.0
 40
2.7999999999999989
  1
120
  0
LINE
  5
4C3C
  8
250
  6
CONTINUOUS
 10
117.7700000000021
 20
-63.371666666666428
 30
0.0
 11
120.0000000000021
 21
-62.999999999999751
 31
0.0
  0
LINE
  5
4C3D
  8
250
  6
CONTINUOUS
 10
117.7700000000021
 20
-62.628333333333089
 30
0.0
 11
120.0000000000021
 21
-62.999999999999751
 31
0.0
  0
LINE
  5
4C3E
  8
250
  6
CONTINUOUS
 10
120.0000000000021
 20
-62.999999999999751
 30
0.0
 11
117.7700000000021
 21
-62.999999999999751
 31
0.0
  0
LINE
  5
4C3F
  8
250
  6
CONTINUOUS
 10
2.230000000000711
 20
-62.628333333333089
 30
0.0
 11
0.000000000000712
 21
-62.999999999999751
 31
0.0
  0
LINE
  5
4C40
  8
250
  6
CONTINUOUS
 10
2.230000000000711
 20
-63.371666666666428
 30
0.0
 11
0.000000000000712
 21
-62.999999999999751
 31
0.0
  0
LINE
  5
4C41
  8
250
  6
CONTINUOUS
 10
0.000000000000712
 20
-62.999999999999751
 30
0.0
 11
2.230000000000711
 21
-62.999999999999751
 31
0.0
  0
TEXT
  5
4C42
  8
250
  6
CONTINUOUS
 10
148.207445742376
 20
42.6703824246799
 30
0.0
 40
2.7999999999999989
  1
\U+2205100
 50
319.13504121605467
  0
TEXT
  5
4C43
  8
250
  6
CONTINUOUS
 10
132.0
 20
11.931763628704489
 30
0.0
 40
2.7999999999999989
  1
31.5
 50
90.0
  0
LINE
  5
4C44
  8
250
  6
CONTINUOUS
 10
133.37166666666661
 20
29.270000000000231
 30
0.0
 11
133.0
 21
31.500000000000231
 31
0.0
  0
LINE
  5
4C45
  8
250
  6
CONTINUOUS
 10
132.6283333333333
 20
29.270000000000231
 30
0.0
 11
133.0
 21
31.500000000000231
 31
0.0
  0
LINE
  5
4C46
  8
250
  6
CONTINUOUS
 10
133.0
 20
31.500000000000231
 30
0.0
 11
133.0
 21
29.270000000000231
 31
0.0
  0
LINE
  5
4C47
  8
250
  6
CONTINUOUS
 10
132.6283333333333
 20
2.23000000000023
 30
0.0
 11
133.0
 21
0.0000000000002305
 31
0.0
  0
LINE
  5
4C48
  8
250
  6
CONTINUOUS
 10
133.37166666666661
 20
2.23000000000023
 30
0.0
 11
133.0
 21
0.0000000000002305
 31
0.0
  0
LINE
  5
4C49
  8
250
  6
CONTINUOUS
 10
133.0
 20
0.0000000000002305
 30
0.0
 11
133.0
 21
2.23000000000023
 31
0.0
  0
TEXT
  5
4C4B
  8
250
  6
CONTINUOUS
 10
207.56666666666919
 20
64.178927391872094
 30
0.0
 40
2.7999999999999989
  1
25
  0
LINE
  5
4C4C
  8
250
  6
CONTINUOUS
 10
218.7700000000026
 20
62.62833333333333
 30
0.0
 11
221.00000000000259
 21
63.0
 31
0.0
  0
LINE
  5
4C4D
  8
250
  6
CONTINUOUS
 10
218.7700000000026
 20
63.37166666666667
 30
0.0
 11
221.00000000000259
 21
63.0
 31
0.0
  0
LINE
  5
4C4E
  8
250
  6
CONTINUOUS
 10
221.00000000000259
 20
63.0
 30
0.0
 11
218.7700000000026
 21
63.0
 31
0.0
  0
LINE
  5
4C4F
  8
250
  6
CONTINUOUS
 10
198.2300000000026
 20
63.37166666666667
 30
0.0
 11
196.00000000000259
 21
63.0
 31
0.0
  0
LINE
  5
4C50
  8
250
  6
CONTINUOUS
 10
198.2300000000026
 20
62.62833333333333
 30
0.0
 11
196.00000000000259
 21
63.0
 31
0.0
  0
LINE
  5
4C51
  8
250
  6
CONTINUOUS
 10
196.00000000000259
 20
63.0
 30
0.0
 11
198.2300000000026
 21
63.0
 31
0.0
  0
LINE
  5
4C52
  8
250
  6
CONTINUOUS
 10
159.6305845390109
 20
30.97380595174641
 30
0.0
 11
158.18731214103471
 21
32.713921148034053
 31
0.0
  0
LINE
  5
4C53
  8
250
  6
CONTINUOUS
 10
160.11693150007841
 20
31.535954577916389
 30
0.0
 11
158.18731214103471
 21
32.713921148034053
 31
0.0
  0
LINE
  5
4C54
  8
250
  6
CONTINUOUS
 10
158.18731214103471
 20
32.713921148034053
 30
0.0
 11
159.87375801954471
 21
31.254880264831399
 31
0.0
  0
LINE
  5
4C55
  8
250
  6
CONTINUOUS
 10
232.36941546099411
 20
-30.973805951761179
 30
0.0
 11
233.81268785897029
 21
-32.713921148048833
 31
0.0
  0
LINE
  5
4C56
  8
250
  6
CONTINUOUS
 10
231.88306849992651
 20
-31.535954577931172
 30
0.0
 11
233.81268785897029
 21
-32.713921148048833
 31
0.0
  0
LINE
  5
4C57
  8
250
  6
CONTINUOUS
 10
233.81268785897029
 20
-32.713921148048833
 30
0.0
 11
232.12624198046029
 21
-31.254880264846179
 31
0.0
  0
POLYLINE
  5
4C58
  8
250
  6
CONTINUOUS
 66
     1
 10
0.0
 20
0.0
 30
0.0
 70
     1
1001
GENIUS_GENREC_14
1002
{
1000
PYDIR
1011
204.09530967786489
1021
0.0
1031
-0.0
1021
66.601014603213912
1031
0.0
1002
}
1002
{
1000
PXDIR
1011
206.59609842259059
1021
0.0
1031
-0.0
1021
64.010169401527833
1031
0.0
1002
}
1002
{
1000
PORI
1011
204.09530967786489
1021
0.0
1031
-0.0
1021
64.010169401527833
1031
0.0
1002
}
1002
{
1000
PINS
1011
204.09530967786489
1021
0.0
1031
-0.0
1021
64.010169401527833
1031
0.0
1002
}
1002
{
1000
PINS2
1011
206.59609842259059
1021
0.0
1031
-0.0
1021
66.601014603213912
1031
0.0
1002
}
1002
{
1000
C
1070
     1
1002
}
1001
GENIUS_GENODEF_13
1002
{
1000
HIER
1070
     0
1002
}
1002
{
1000
MANEDIT
1070
     0
1002
}
1002
{
1000
NOSEL
1070
     0
1002
}
1002
{
1000
BEHIND
1070
     0
1002
}
1002
{
1000
OTHER
1070
     0
1002
}
1002
{
1000
REACTOR
1002
}
1001
GENIUS_GENOBJ-N-REC_13
1002
{
1000
OWNER
1000
GEN
1002
}
  0
VERTEX
  5
4F17
  8
250
  6
CONTINUOUS
 10
204.09530967786489
 20
64.010169401527833
 30
0.0
  0
VERTEX
  5
4F18
  8
250
  6
CONTINUOUS
 10
206.59609842259059
 20
64.010169401527833
 30
0.0
  0
VERTEX
  5
4F19
  8
250
  6
CONTINUOUS
 10
206.59609842259059
 20
66.601014603213912
 30
0.0
  0
VERTEX
  5
4F1A
  8
250
  6
CONTINUOUS
 10
204.09530967786489
 20
66.601014603213912
 30
0.0
  0
SEQEND
  5
4F1B
  8
250
  6
CONTINUOUS
  0
CIRCLE
  5
4C88
  8
242
  6
CONTINUOUS
 10
57.000000000001819
 20
19.000000000000309
 30
0.0
 40
5.125
  0
CIRCLE
  5
4C89
  8
241
  6
CONTINUOUS
 10
57.000000000001819
 20
19.000000000000309
 30
0.0
 40
6.0
  0
LINE
  5
4C8A
  8
245
  6
CENTER2
 10
57.000000000001819
 20
26.00000000000032
 30
0.0
 11
57.000000000001819
 21
12.000000000000311
 31
0.0
  0
LINE
  5
4C8B
  8
241
  6
CONTINUOUS
 10
54.000000000001769
 20
17.267949190000301
 30
0.0
 11
57.000000000001819
 21
15.535898380000299
 31
0.0
  0
LINE
  5
4C8C
  8
241
  6
CONTINUOUS
 10
57.000000000001819
 20
15.535898380000299
 30
0.0
 11
60.000000000001769
 21
17.267949190000301
 31
0.0
  0
LINE
  5
4C8D
  8
241
  6
CONTINUOUS
 10
60.000000000001769
 20
17.267949190000301
 30
0.0
 11
60.000000000001769
 21
20.73205081000031
 31
0.0
  0
LINE
  5
4C8E
  8
241
  6
CONTINUOUS
 10
60.000000000001769
 20
20.73205081000031
 30
0.0
 11
57.000000000001819
 21
22.464101620000321
 31
0.0
  0
LINE
  5
4C8F
  8
241
  6
CONTINUOUS
 10
57.000000000001819
 20
22.464101620000321
 30
0.0
 11
54.000000000001769
 21
20.73205081000031
 31
0.0
  0
LINE
  5
4C90
  8
241
  6
CONTINUOUS
 10
54.000000000001769
 20
20.73205081000031
 30
0.0
 11
54.000000000001769
 21
17.267949190000301
 31
0.0
  0
CIRCLE
  5
4C92
  8
242
  6
CONTINUOUS
 10
82.000000000001819
 20
19.000000000000369
 30
0.0
 40
5.125
  0
CIRCLE
  5
4C93
  8
241
  6
CONTINUOUS
 10
82.000000000001819
 20
19.000000000000369
 30
0.0
 40
6.0
  0
LINE
  5
4C94
  8
245
  6
CENTER2
 10
82.000000000001819
 20
26.00000000000038
 30
0.0
 11
82.000000000001819
 21
12.000000000000369
 31
0.0
  0
LINE
  5
4C95
  8
241
  6
CONTINUOUS
 10
79.000000000001776
 20
17.267949190000369
 30
0.0
 11
82.000000000001819
 21
15.53589838000037
 31
0.0
  0
LINE
  5
4C96
  8
241
  6
CONTINUOUS
 10
82.000000000001819
 20
15.53589838000037
 30
0.0
 11
85.000000000001776
 21
17.267949190000369
 31
0.0
  0
LINE
  5
4C97
  8
241
  6
CONTINUOUS
 10
85.000000000001776
 20
17.267949190000369
 30
0.0
 11
85.000000000001776
 21
20.732050810000381
 31
0.0
  0
LINE
  5
4C98
  8
241
  6
CONTINUOUS
 10
85.000000000001776
 20
20.732050810000381
 30
0.0
 11
82.000000000001819
 21
22.464101620000381
 31
0.0
  0
LINE
  5
4C99
  8
241
  6
CONTINUOUS
 10
82.000000000001819
 20
22.464101620000381
 30
0.0
 11
79.000000000001776
 21
20.732050810000381
 31
0.0
  0
LINE
  5
4C9A
  8
241
  6
CONTINUOUS
 10
79.000000000001776
 20
20.732050810000381
 30
0.0
 11
79.000000000001776
 21
17.267949190000369
 31
0.0
  0
CIRCLE
  5
4C9C
  8
242
  6
CONTINUOUS
 10
107.0000000000019
 20
19.000000000000441
 30
0.0
 40
5.125
  0
CIRCLE
  5
4C9D
  8
241
  6
CONTINUOUS
 10
107.0000000000019
 20
19.000000000000441
 30
0.0
 40
6.0
  0
LINE
  5
4C9E
  8
245
  6
CENTER2
 10
107.0000000000019
 20
26.000000000000441
 30
0.0
 11
107.0000000000019
 21
12.000000000000441
 31
0.0
  0
LINE
  5
4C9F
  8
241
  6
CONTINUOUS
 10
104.0000000000019
 20
17.267949190000429
 30
0.0
 11
107.0000000000019
 21
15.535898380000431
 31
0.0
  0
LINE
  5
4CA0
  8
241
  6
CONTINUOUS
 10
107.0000000000019
 20
15.535898380000431
 30
0.0
 11
110.0000000000019
 21
17.267949190000429
 31
0.0
  0
LINE
  5
4CA1
  8
241
  6
CONTINUOUS
 10
110.0000000000019
 20
17.267949190000429
 30
0.0
 11
110.0000000000019
 21
20.732050810000441
 31
0.0
  0
LINE
  5
4CA2
  8
241
  6
CONTINUOUS
 10
110.0000000000019
 20
20.732050810000441
 30
0.0
 11
107.0000000000019
 21
22.464101620000442
 31
0.0
  0
LINE
  5
4CA3
  8
241
  6
CONTINUOUS
 10
107.0000000000019
 20
22.464101620000442
 30
0.0
 11
104.0000000000019
 21
20.732050810000441
 31
0.0
  0
LINE
  5
4CA4
  8
241
  6
CONTINUOUS
 10
104.0000000000019
 20
20.732050810000441
 30
0.0
 11
104.0000000000019
 21
17.267949190000429
 31
0.0
  0
VIEWPORT
  5
22
 67
     1
  8
0
 10
261.51769911504419
 20
148.5
 30
0.0
 40
523.0353982300885
 41
297.0
 68
     1
 69
     1
1001
ACAD
1000
MVIEW
1002
{
1070
    16
1010
0.0
1020
0.0
1030
0.0
1010
0.0
1020
0.0
1030
1.0
1040
0.0
1040
297.0
1040
261.51769911504419
1040
148.5
1040
50.0
1040
0.0
1040
0.0
1070
     0
1070
   100
1070
     1
1070
     1
1070
     0
1070
     0
1070
     0
1070
     0
1040
0.0
1040
0.0
1040
0.0
1040
1.0
1040
1.0
1040
10.0
1040
10.0
1070
     0
1002
{
1002
}
1002
}
1001
GENIUS_GENODEF_13
1002
{
1000
HIER
1070
     0
1002
}
1002
{
1000
MANEDIT
1070
     0
1002
}
1002
{
1000
NOSEL
1070
     0
1002
}
1002
{
1000
BEHIND
1070
     0
1002
}
1002
{
1000
OTHER
1070
     0
1002
}
1002
{
1000
REACTOR
1002
}
1001
GENIUS_GENOBJ-N-SDF_13
1002
{
1000
OWNER
1000
GEN
1002
}
1001
GENIUS_GENSCREG_15
1000
PF
1040
1.0
1000
DF
1040
1.0
1000
MIN
1011
0.0
1021
0.0
1031
-0.0
1021
0.0
1031
0.0
1000
MAX
1011
523.0353982300885
1021
0.0
1031
-0.0
1021
297.0
1031
0.0
1000
FLAGS
1070
     4
  0
ENDSEC
  0
EOF
