  0
SECTION
  2
HEADER
  9
$ACADVER
  1
AC1009
  9
$INSBASE
 10
0.0
 20
0.0
 30
0.0
  9
$EXTMIN
 10
-99.478605076758868
 20
-32.455008414138391
 30
0.0
  9
$EXTMAX
 10
62.01782420417176
 20
61.000000000000007
 30
0.0
  9
$LIMMIN
 10
0.0
 20
0.0
  9
$LIMMAX
 10
297.0
 20
210.0
  9
$ORTHOMODE
 70
     1
  9
$REGENMODE
 70
     1
  9
$FILLMODE
 70
     1
  9
$QTEXTMODE
 70
     0
  9
$MIRRTEXT
 70
     1
  9
$DRAGMODE
 70
     2
  9
$LTSCALE
 40
10.0
  9
$OSMODE
 70
    39
  9
$ATTMODE
 70
     1
  9
$TEXTSIZE
 40
3.0
  9
$TRACEWID
 40
1.0
  9
$TEXTSTYLE
  7
YOKO
  9
$CLAYER
  8
240
  9
$CELTYPE
  6
BYLAYER
  9
$CECOLOR
 62
   256
  9
$DIMSCALE
 40
1.0
  9
$DIMASZ
 40
2.2299999999999991
  9
$DIMEXO
 40
0.5
  9
$DIMDLI
 40
7.0
  9
$DIMRND
 40
0.0
  9
$DIMDLE
 40
0.0
  9
$DIMEXE
 40
1.0
  9
$DIMTP
 40
0.0
  9
$DIMTM
 40
0.01
  9
$DIMTXT
 40
2.799999999999998
  9
$DIMCEN
 40
0.0
  9
$DIMTSZ
 40
0.0
  9
$DIMTOL
 70
     0
  9
$DIMLIM
 70
     0
  9
$DIMTIH
 70
     0
  9
$DIMTOH
 70
     0
  9
$DIMSE1
 70
     0
  9
$DIMSE2
 70
     0
  9
$DIMTAD
 70
     3
  9
$DIMZIN
 70
     9
  9
$DIMBLK
  1
OPEN
  9
$DIMASO
 70
     1
  9
$DIMSHO
 70
     1
  9
$DIMPOST
  1

  9
$DIMAPOST
  1

  9
$DIMALT
 70
     0
  9
$DIMALTD
 70
     2
  9
$DIMALTF
 40
25.399999999999999
  9
$DIMLFAC
 40
1.0
  9
$DIMTOFL
 70
     1
  9
$DIMTVP
 40
0.0
  9
$DIMTIX
 70
     1
  9
$DIMSOXD
 70
     0
  9
$DIMSAH
 70
     0
  9
$DIMBLK1
  1

  9
$DIMBLK2
  1

  9
$DIMSTYLE
  2
BIGT
  9
$DIMCLRD
 70
   256
  9
$DIMCLRE
 70
   256
  9
$DIMCLRT
 70
    40
  9
$DIMTFAC
 40
1.0
  9
$DIMGAP
 40
1.0
  9
$LUNITS
 70
     2
  9
$LUPREC
 70
     6
  9
$SKETCHINC
 40
1.0
  9
$FILLETRAD
 40
4.0
  9
$AUNITS
 70
     0
  9
$AUPREC
 70
     6
  9
$MENU
  1
.
  9
$ELEVATION
 40
0.0
  9
$PELEVATION
 40
0.0
  9
$THICKNESS
 40
0.0
  9
$LIMCHECK
 70
     0
  9
$BLIPMODE
 70
     0
  9
$CHAMFERA
 40
0.2
  9
$CHAMFERB
 40
0.2
  9
$SKPOLY
 70
     0
  9
$TDCREATE
 40
2457746.5698514469
  9
$TDUPDATE
 40
2459608.5937965862
  9
$TDINDWG
 40
0.0057857755
  9
$TDUSRTIMER
 40
0.0057857176
  9
$USRTIMER
 70
     1
  9
$ANGBASE
 50
0.0
  9
$ANGDIR
 70
     0
  9
$PDMODE
 70
     1
  9
$PDSIZE
 40
0.0
  9
$PLINEWID
 40
0.0
  9
$COORDS
 70
     1
  9
$SPLFRAME
 70
     0
  9
$SPLINETYPE
 70
     6
  9
$SPLINESEGS
 70
     4
  9
$ATTDIA
 70
     1
  9
$ATTREQ
 70
     1
  9
$HANDLING
 70
     1
  9
$HANDSEED
  5
4A53
  9
$SURFTAB1
 70
     6
  9
$SURFTAB2
 70
     6
  9
$SURFTYPE
 70
     6
  9
$SURFU
 70
     6
  9
$SURFV
 70
     6
  9
$UCSNAME
  2

  9
$UCSORG
 10
0.0
 20
0.0
 30
0.0
  9
$UCSXDIR
 10
1.0
 20
0.0
 30
0.0
  9
$UCSYDIR
 10
0.0
 20
1.0
 30
0.0
  9
$PUCSNAME
  2

  9
$PUCSORG
 10
0.0
 20
0.0
 30
0.0
  9
$PUCSXDIR
 10
1.0
 20
0.0
 30
0.0
  9
$PUCSYDIR
 10
0.0
 20
1.0
 30
0.0
  9
$USERI1
 70
     1
  9
$USERI2
 70
     0
  9
$USERI3
 70
     0
  9
$USERI4
 70
     0
  9
$USERI5
 70
     0
  9
$USERR1
 40
0.0
  9
$USERR2
 40
0.0
  9
$USERR3
 40
0.0
  9
$USERR4
 40
0.0
  9
$USERR5
 40
0.0
  9
$WORLDVIEW
 70
     1
  9
$SHADEDGE
 70
     3
  9
$SHADEDIF
 70
    70
  9
$TILEMODE
 70
     1
  9
$MAXACTVP
 70
    16
  9
$PLIMCHECK
 70
     0
  9
$PEXTMIN
 10
1.0000000000000000E+020
 20
1.0000000000000000E+020
 30
1.0000000000000000E+020
  9
$PEXTMAX
 10
-1.0000000000000000E+020
 20
-1.0000000000000000E+020
 30
-1.0000000000000000E+020
  9
$PLIMMIN
 10
0.0
 20
0.0
  9
$PLIMMAX
 10
420.0
 20
297.0
  9
$UNITMODE
 70
     0
  9
$VISRETAIN
 70
     1
  9
$PLINEGEN
 70
     0
  9
$PSLTSCALE
 70
     1
  0
ENDSEC
  0
SECTION
  2
TABLES
  0
TABLE
  2
VPORT
 70
     1
  0
VPORT
  2
*ACTIVE
 70
     0
 10
0.0
 20
0.0
 11
1.0
 21
1.0
 12
-8.1753561185788755
 22
6.110546942518325
 13
0.0
 23
0.0
 14
7.0
 24
7.0
 15
7.0
 25
7.0
 16
0.0
 26
0.0
 36
1.0
 17
0.0
 27
0.0
 37
0.0
 40
148.0876933225791
 41
1.488859764089121
 42
50.0
 43
0.0
 44
0.0
 50
0.0
 51
0.0
 71
     0
 72
  2000
 73
     1
 74
     0
 75
     0
 76
     1
 77
     0
 78
     0
  0
ENDTAB
  0
TABLE
  2
LTYPE
 70
    21
  0
LTYPE
  2
CONTINUOUS
 70
     0
  3
Solid line
 72
    65
 73
     0
 40
0.0
  0
LTYPE
  2
CENTER2
 70
     0
  3
___ _ ___ _ ___ _ ___ _ ___ _ ___ _ ___ _ ___ _
 72
    65
 73
     4
 40
1.125
 49
0.75
 49
-0.125
 49
0.125
 49
-0.125
  0
LTYPE
  2
HIDDEN2
 70
     0
  3
_ _ _ _ _ _ _ _ _ _ _ _ _ _ _ _ _ _ _ _ _ _ _ _
 72
    65
 73
     2
 40
0.1875
 49
0.125
 49
-0.0625
  0
LTYPE
  2
PHANTOM2
 70
     0
  3
___ _ _ ___ _ _ ___ _ _ ___ _ _ ___ _ _ ___ _ _
 72
    65
 73
     6
 40
1.25
 49
0.625
 49
-0.125
 49
0.125
 49
-0.125
 49
0.125
 49
-0.125
  0
LTYPE
  2
AMCONSTR
 70
     0
  3
_______________________
 72
    65
 73
     2
 40
9999.0
 49
9999.0
 49
0.0
  0
LTYPE
  2
HIDDEN
 70
     0
  3
Hidden __ __ __ __ __ __ __ __ __ __ __ __ __ _
 72
    65
 73
     2
 40
0.375
 49
0.25
 49
-0.125
  0
LTYPE
  2
CENTER
 70
     0
  3
Center ____ _ ____ _ ____ _ ____ _ ____ _ ____
 72
    65
 73
     4
 40
2.0
 49
1.25
 49
-0.25
 49
0.25
 49
-0.25
  0
LTYPE
  2
AMZIGZAG2
 70
     0
  3
/\/-/\/-/\/-/\/-/\/-/\/
 72
    65
 73
     2
 40
0.4401
 49
0.0001
 49
-0.4400000000000001
  0
LTYPE
  2
ACANSTGB
 70
     0
  3
__ . . __ . .
 72
    65
 73
     6
 40
0.35433070866
 49
0.15748031496
 49
-0.03937007874
 49
0.03937007874
 49
-0.03937007874
 49
0.03937007874
 49
-0.03937007874
  0
LTYPE
  2
ACANSTGL
 70
     0
  3
_ _ _ _ _
 72
    65
 73
     2
 40
0.11811023622
 49
0.07874015748
 49
-0.03937007874
  0
ENDTAB
  0
TABLE
  2
LAYER
 70
    10
  0
LAYER
  2
0
 70
     0
 62
     7
  6
CONTINUOUS
  0
LAYER
  2
240
 70
     0
 62
     4
  6
CONTINUOUS
  0
LAYER
  2
DEFPOINTS
 70
     0
 62
     7
  6
CONTINUOUS
  0
LAYER
  2
245
 70
     0
 62
     2
  6
CENTER2
  0
LAYER
  2
241
 70
     0
 62
   211
  6
CONTINUOUS
  0
LAYER
  2
242
 70
     0
 62
     3
  6
CONTINUOUS
  0
LAYER
  2
243
 70
     0
 62
   211
  6
HIDDEN2
  0
LAYER
  2
247
 70
     0
 62
    60
  6
CONTINUOUS
  0
LAYER
  2
250
 70
     0
 62
     3
  6
CONTINUOUS
  0
ENDTAB
  0
TABLE
  2
STYLE
 70
    10
  0
STYLE
  2
STANDARD
 70
     0
 40
0.0
 41
1.0
 50
0.0
 71
     0
 42
3.0
  3
romans.shx
  4
extfont.shx
  0
STYLE
  2
YOKO
 70
     0
 40
0.0
 41
1.0
 50
0.0
 71
     0
 42
3.0
  3
romans.shx
  4
extfont.shx
  0
STYLE
  2

 70
     1
 40
0.0
 41
1.0
 50
0.0
 71
     0
 42
3.0
  3
genltshp.shx
  4

  0
STYLE
  2
ACANSGDT
 70
     0
 40
0.0
 41
1.0
 50
0.0
 71
     0
 42
3.0
  3
amgdt.shx
  4

  0
ENDTAB
  0
TABLE
  2
VIEW
 70
     0
  0
ENDTAB
  0
TABLE
  2
UCS
 70
     0
  0
ENDTAB
  0
TABLE
  2
APPID
 70
    39
  0
APPID
  2
ACAD
 70
     0
  0
APPID
  2
ACADANNOTATIVE
 70
     0
  0
APPID
  2
GLOBAL
 70
     0
  0
APPID
  2
DETAIL
 70
     0
  0
APPID
  2
GRPNAME
 70
     0
  0
APPID
  2
GPARA
 70
     0
  0
APPID
  2
MCAD_NO_VIS
 70
     0
  0
APPID
  2
ACAD_TEMP_GRAPHIC
 70
     0
  0
APPID
  2
ACATTRIBSERVICES
 70
     0
  0
APPID
  2
GENIUS_GENSCREG_15
 70
     0
  0
APPID
  2
GENIUS_GENODEF_13
 70
     0
  0
APPID
  2
GENIUS_GENOBJ-N-SDF_13
 70
     0
  0
APPID
  2
GENIUS_GENREC_14
 70
     0
  0
APPID
  2
GENIUS_GENOBJ-N-REC_13
 70
     0
  0
APPID
  2
GENIUS_GENDIMSH_14
 70
     0
  0
APPID
  2
GENIUS_GENOBJ-N-DIM_13
 70
     0
  0
APPID
  2
GENIUS_GENDIM_13
 70
     0
  0
APPID
  2
GENIUS_GENDTOL_13
 70
     0
  0
APPID
  2
GENIUS_GENOLIS_13
 70
     0
  0
APPID
  2
GENIUS_GENOENT_13
 70
     0
  0
APPID
  2
GENIUS_GENOBJ-F-FEM_13
 70
     0
  0
APPID
  2
GENIUS_GENOREF_13
 70
     0
  0
APPID
  2
GENIUS_GEFFEM_13
 70
     0
  0
APPID
  2
GENIUS_GEFFEMP_13
 70
     0
  0
APPID
  2
AD_DRAW
 70
     0
  0
APPID
  2
DESIGNERASSEMBLIES
 70
     0
  0
APPID
  2
ACADM_DIM_EDIT
 70
     0
  0
APPID
  2
AMDT_DM_ADJ
 70
     0
  0
APPID
  2
ITEMNAME
 70
     0
  0
APPID
  2
GENIUS_GENOBJ-N-FIL_13
 70
     0
  0
APPID
  2
GENIUS_GENFIL_13
 70
     0
  0
APPID
  2
GENIUS_GENOBJ-N-CHA_13
 70
     0
  0
APPID
  2
ACAD_NAV_VCDISPLAY
 70
     0
  0
APPID
  2
ACAD_EXEMPT_FROM_CAD_STANDARDS
 70
     0
  0
APPID
  2
ACAD_DSTYLE_DIMJAG
 70
     0
  0
APPID
  2
ACAD_DSTYLE_DIMBREAK
 70
     0
  0
APPID
  2
ACAD_MLEADERVER
 70
     0
  0
APPID
  2
ACAECLAYERSTANDARD
 70
     0
  0
APPID
  2
ACAD_DSTYLE_DIMINSPECT
 70
     0
  0
ENDTAB
  0
TABLE
  2
DIMSTYLE
 70
    31
  0
DIMSTYLE
  2
STANDARD
 70
     0
  3

  4

  5

  6

  7

 40
1.0
 41
0.18
 42
0.0625
 43
0.38
 44
0.18
 45
0.0
 46
0.0
 47
0.0
 48
0.0
140
0.18
141
0.09
142
0.0
143
25.399999999999999
144
1.0
145
0.0
146
1.0
147
0.09
 71
     0
 72
     0
 73
     1
 74
     1
 75
     0
 76
     0
 77
     0
 78
     0
170
     0
171
     2
172
     0
173
     0
174
     0
175
     0
176
     0
177
     0
178
     0
  0
DIMSTYLE
  2
BIGT
 70
     0
  3

  4

  5

  6

  7

 40
1.0
 41
2.2299999999999991
 42
0.5
 43
7.0
 44
1.0
 45
0.0
 46
0.0
 47
0.0
 48
0.01
140
2.799999999999998
141
0.0
142
0.0
143
25.399999999999999
144
1.0
145
0.0
146
1.0
147
1.0
 71
     0
 72
     0
 73
     0
 74
     0
 75
     0
 76
     0
 77
     3
 78
     9
170
     0
171
     2
172
     1
173
     0
174
     1
175
     0
176
   256
177
   256
178
    40
  0
DIMSTYLE
  2
AM_ANSI
 70
     0
  3

  4
mm
  5

  6

  7

 40
1.0
 41
0.12
 42
0.05
 43
0.5
 44
0.1
 45
0.0
 46
0.0
 47
0.1
 48
0.1
140
0.12
141
0.0
142
0.0
143
25.399999999999999
144
1.0
145
0.0
146
0.71
147
0.06
 71
     0
 72
     0
 73
     1
 74
     1
 75
     0
 76
     0
 77
     0
 78
     7
170
     0
171
     2
172
     0
173
     0
174
     0
175
     0
176
   256
177
   256
178
     2
  0
DIMSTYLE
  2
AM_ANSI$3
 70
     0
  3

  4
mm
  5

  6

  7

 40
1.0
 41
0.12
 42
0.05
 43
0.5
 44
0.1
 45
0.0
 46
0.0
 47
0.1
 48
0.1
140
0.12
141
0.0
142
0.0
143
25.399999999999999
144
1.0
145
0.0
146
0.71
147
0.06
 71
     0
 72
     0
 73
     1
 74
     1
 75
     0
 76
     0
 77
     0
 78
     7
170
     0
171
     2
172
     0
173
     0
174
     0
175
     0
176
   256
177
   256
178
     2
  0
DIMSTYLE
  2
AM_ANSI$4
 70
     0
  3

  4
mm
  5

  6

  7

 40
1.0
 41
0.12
 42
0.05
 43
0.5
 44
0.1
 45
0.0
 46
0.0
 47
0.1
 48
0.1
140
0.12
141
0.0
142
0.0
143
25.399999999999999
144
1.0
145
0.0
146
0.71
147
0.06
 71
     0
 72
     0
 73
     1
 74
     1
 75
     0
 76
     0
 77
     0
 78
     7
170
     0
171
     2
172
     0
173
     0
174
     0
175
     0
176
   256
177
   256
178
     2
  0
DIMSTYLE
  2
AM_ANSI$7
 70
     0
  3

  4
mm
  5

  6

  7

 40
1.0
 41
0.12
 42
0.05
 43
0.5
 44
0.1
 45
0.0
 46
0.0
 47
0.1
 48
0.1
140
0.12
141
0.0
142
0.0
143
25.399999999999999
144
1.0
145
0.0
146
0.71
147
0.06
 71
     0
 72
     0
 73
     1
 74
     1
 75
     0
 76
     0
 77
     0
 78
     7
170
     0
171
     2
172
     0
173
     0
174
     0
175
     0
176
   256
177
   256
178
     2
  0
DIMSTYLE
  2
AM_ANSI$SF
 70
     0
  3

  4
mm
  5

  6

  7

 40
1.0
 41
0.12
 42
0.05
 43
0.5
 44
0.1
 45
0.0
 46
0.0
 47
0.1
 48
0.1
140
0.12
141
0.0
142
0.0
143
25.399999999999999
144
1.0
145
0.0
146
0.71
147
0.06
 71
     0
 72
     0
 73
     1
 74
     1
 75
     1
 76
     1
 77
     0
 78
     7
170
     0
171
     2
172
     0
173
     0
174
     0
175
     0
176
   256
177
   256
178
     2
  0
DIMSTYLE
  2
AM_ANSI$SH
 70
     0
  3

  4
mm
  5

  6
GENAXEH
  7

 40
1.0
 41
0.12
 42
0.05
 43
0.5
 44
0.1
 45
0.0
 46
0.0
 47
0.1
 48
0.1
140
0.12
141
0.0
142
0.0
143
25.399999999999999
144
1.0
145
0.0
146
0.71
147
0.06
 71
     0
 72
     0
 73
     1
 74
     1
 75
     1
 76
     1
 77
     0
 78
     7
170
     0
171
     2
172
     0
173
     1
174
     0
175
     0
176
   256
177
   256
178
     2
  0
ENDTAB
  0
ENDSEC
  0
SECTION
  2
BLOCKS
  0
BLOCK
  8
0
  2
$MODEL_SPACE
 70
     0
 10
0.0
 20
0.0
 30
0.0
  3
$MODEL_SPACE
  1

  0
ENDBLK
  5
44F4
  8
0
  0
BLOCK
 67
     1
  8
0
  2
$PAPER_SPACE
 70
     0
 10
0.0
 20
0.0
 30
0.0
  3
$PAPER_SPACE
  1

  0
ENDBLK
  5
44F0
 67
     1
  8
0
  0
BLOCK
  8
0
  2
_OPEN
 70
     0
 10
0.0
 20
0.0
 30
0.0
  3
_OPEN
  1

  0
LINE
  5
438B
  8
0
  6
BYBLOCK
 62
     0
 10
-1.0
 20
0.1666666666666666
 30
0.0
 11
0.0
 21
0.0
 31
0.0
  0
LINE
  5
438C
  8
0
  6
BYBLOCK
 62
     0
 10
-1.0
 20
-0.1666666666666666
 30
0.0
 11
0.0
 21
0.0
 31
0.0
  0
LINE
  5
438D
  8
0
  6
BYBLOCK
 62
     0
 10
0.0
 20
0.0
 30
0.0
 11
-1.0
 21
0.0
 31
0.0
  0
ENDBLK
  5
438E
  8
0
  0
BLOCK
  8
0
  2
GENAXEH
 70
     0
 10
0.0
 20
0.0
 30
0.0
  3
GENAXEH
  1

  0
LINE
  5
43C6
  8
0
 10
-1.0
 20
0.0
 30
0.0
 11
1.0
 21
0.0
 31
0.0
  0
ENDBLK
  5
43C7
  8
0
  0
BLOCK
  8
0
  2
_ACMFILLEDHALF
 70
     0
 10
0.0
 20
0.0
 30
0.0
  3
_ACMFILLEDHALF
  1

  0
TRACE
  5
45B4
  8
240
 62
     0
 10
-0.8
 20
0.0
 30
0.0
 11
-1.0
 21
0.166666666
 31
0.0
 12
0.0
 22
0.0
 32
0.0
 13
0.0
 23
0.0
 33
0.0
  0
LINE
  5
45B5
  8
240
 62
     0
 10
-1.0
 20
0.0
 30
0.0
 11
-0.8
 21
0.0
 31
0.0
  0
ENDBLK
  5
45B3
  8
0
  0
ENDSEC
  0
SECTION
  2
ENTITIES
  0
LINE
  5
422C
  8
245
  6
CENTER2
 10
-39.0
 20
0.0
 30
0.0
 11
50.43370745735831
 21
0.0
 31
0.0
  0
LINE
  5
422D
  8
240
  6
CONTINUOUS
 10
0.0
 20
31.5
 30
0.0
 11
0.0
 21
21.630611991142189
 31
0.0
  0
LINE
  5
422E
  8
240
  6
CONTINUOUS
 10
-38.0
 20
-20.68052849476301
 30
0.0
 11
-38.0
 21
20.680528494763141
 31
0.0
  0
LINE
  5
422F
  8
241
  6
CONTINUOUS
 10
-38.0
 20
-3.594500000000008
 30
0.0
 11
-31.550000000000011
 21
-3.594500000000008
 31
0.0
  0
LINE
  5
4230
  8
241
  6
CONTINUOUS
 10
-38.0
 20
3.594500000000008
 30
0.0
 11
-31.550000000000011
 21
3.594500000000008
 31
0.0
  0
LINE
  5
4231
  8
241
  6
CONTINUOUS
 10
-31.550000000000011
 20
-3.594500000000008
 30
0.0
 11
-31.550000000000011
 21
3.594500000000008
 31
0.0
  0
LINE
  5
4232
  8
240
  6
CONTINUOUS
 10
22.0
 20
-31.5
 30
0.0
 11
22.0
 21
-28.999999999999972
 31
0.0
  0
LINE
  5
4233
  8
240
  6
CONTINUOUS
 10
0.0
 20
-31.5
 30
0.0
 11
0.0
 21
-21.630611991141851
 31
0.0
  0
LINE
  5
4234
  8
241
  6
CONTINUOUS
 10
0.0
 20
-21.630611991141851
 30
0.0
 11
0.0
 21
21.630611991142189
 31
0.0
  0
LINE
  5
4235
  8
250
  6
CONTINUOUS
 10
-18.785867276320712
 20
-22.942252325237192
 30
0.0
 11
-17.348994501247521
 21
-21.196849008131231
 31
0.0
  0
LINE
  5
4236
  8
250
  6
CONTINUOUS
 10
-18.142121726174281
 20
-23.313918991903861
 30
0.0
 11
-17.348994501247521
 21
-21.196849008131231
 31
0.0
  0
LINE
  5
4237
  8
250
  6
CONTINUOUS
 10
-17.348994501247521
 20
-21.196849008131231
 30
0.0
 11
-18.46399450124753
 21
-23.128085658570541
 31
0.0
  0
POLYLINE
  5
4238
  8
250
  6
CONTINUOUS
 66
     1
 10
0.0
 20
0.0
 30
0.0
  0
VERTEX
  5
4239
  8
250
  6
CONTINUOUS
 10
-18.46399450124753
 20
-23.128085658570541
 30
0.0
  0
VERTEX
  5
423A
  8
250
  6
CONTINUOUS
 10
-23.84889586488546
 20
-32.455008414138391
 30
0.0
  0
SEQEND
  5
423B
  8
250
  6
CONTINUOUS
  0
TEXT
  5
423C
  8
250
  6
CONTINUOUS
 10
-31.715562531552141
 20
-31.455008414138391
 30
0.0
 40
2.799999999999998
  1
C6
  7
YOKO
1001
ITEMNAME
1000
LNSP3
  0
LINE
  5
423D
  8
250
  6
CONTINUOUS
 10
-23.84889586488546
 20
-32.455008414138391
 30
0.0
 11
-34.115562531552108
 21
-32.455008414138391
 31
0.0
1001
ITEMNAME
1000
LNSP2
  0
LINE
  5
423E
  8
247
  6
CONTINUOUS
 10
6.0
 20
-17.250000000069999
 30
0.0
 11
6.0
 21
-10.557692308029999
 31
0.0
  0
ARC
  5
423F
  8
247
  6
CONTINUOUS
 10
4.2500000000699742
 20
-17.250000000069999
 30
0.0
 40
1.7499999999299991
 50
180.0
 51
0.0
  0
ARC
  5
4240
  8
247
  6
CONTINUOUS
 10
4.2500000000699742
 20
-10.557692308029999
 30
0.0
 40
1.7499999999299991
 50
0.0
 51
180.0
  0
LINE
  5
4241
  8
247
  6
CONTINUOUS
 10
2.500000000140004
 20
-16.38461538472
 30
0.0
 11
5.5000000000200071
 21
-17.244851541962021
 31
0.0
  0
LINE
  5
4242
  8
247
  6
CONTINUOUS
 10
3.923076923160008
 20
-15.48498381833582
 30
0.0
 11
3.923076923160008
 21
-16.79267612597582
 31
0.0
  0
ARC
  5
4243
  8
247
  6
CONTINUOUS
 10
3.04959866770298
 20
-15.14514381608978
 30
0.0
 40
0.5538165441895349
 50
72.997889675291773
 51
172.924166218512
  0
ARC
  5
4244
  8
247
  6
CONTINUOUS
 10
2.936033044465773
 20
-15.56687832302879
 30
0.0
 40
0.9904354236226808
 50
4.7429368522022122
 51
73.849226273266297
1001
GENIUS_GENOBJ-N-FIL_13
1002
{
1000
OWNER
1000
GEN
1002
}
1001
GENIUS_GENODEF_13
1002
{
1000
HIER
1070
     0
1002
}
1002
{
1000
MANEDIT
1070
     0
1002
}
1002
{
1000
NOSEL
1070
     0
1002
}
1002
{
1000
BEHIND
1070
     0
1002
}
1002
{
1000
OTHER
1070
     0
1002
}
1002
{
1000
REACTOR
1002
}
  0
LINE
  5
4245
  8
247
  6
CONTINUOUS
 10
5.5000000000200071
 20
-15.937159234321991
 30
0.0
 11
5.5000000000200071
 21
-17.244851541962021
 31
0.0
  0
LINE
  5
4246
  8
247
  6
CONTINUOUS
 10
2.500000000140004
 20
-16.38461538472
 30
0.0
 11
2.500000000140004
 21
-15.07692307707998
 31
0.0
  0
ARC
  5
4247
  8
247
  6
CONTINUOUS
 10
4.4820242326655331
 20
-15.56091963654697
 30
0.0
 40
0.5640818586791229
 50
65.990941652528889
 51
172.26344345906909
  0
ARC
  5
4248
  8
247
  6
CONTINUOUS
 10
4.487429039186563
 20
-16.03826268534706
 30
0.0
 40
1.0176059446230981
 50
5.7019851642580841
 51
77.277338436822376
1001
GENIUS_GENOBJ-N-FIL_13
1002
{
1000
OWNER
1000
GEN
1002
}
1001
GENIUS_GENODEF_13
1002
{
1000
HIER
1070
     0
1002
}
1002
{
1000
MANEDIT
1070
     0
1002
}
1002
{
1000
NOSEL
1070
     0
1002
}
1002
{
1000
BEHIND
1070
     0
1002
}
1002
{
1000
OTHER
1070
     0
1002
}
1002
{
1000
REACTOR
1002
}
  0
LINE
  5
4249
  8
247
  6
CONTINUOUS
 10
5.5000000000200071
 20
-14.283313080541999
 30
0.0
 11
2.500000000140004
 21
-13.423076923300011
 31
0.0
  0
LINE
  5
424A
  8
247
  6
CONTINUOUS
 10
2.500000000140004
 20
-11.00000000032
 30
0.0
 11
2.500000000140004
 21
-11.565736619456599
 31
0.0
  0
LINE
  5
424B
  8
247
  6
CONTINUOUS
 10
5.5000000000200071
 20
-12.461538461799989
 30
0.0
 11
5.5000000000200071
 21
-11.846153846440011
 31
0.0
  0
ARC
  5
424C
  8
247
  6
CONTINUOUS
 10
4.583285135973366
 20
-10.708791209122859
 30
0.0
 40
2.2526500823422122
 50
202.35948814152559
 51
254.99324854284609
  0
ARC
  5
424D
  8
247
  6
CONTINUOUS
 10
3.3083126551945261
 20
-11.37406947921323
 30
0.0
 40
0.8906723995727782
 50
94.994589319075317
 51
155.1663289573039
1001
GENIUS_GENOBJ-N-FIL_13
1002
{
1000
OWNER
1000
GEN
1002
}
1001
GENIUS_GENODEF_13
1002
{
1000
HIER
1070
     0
1002
}
1002
{
1000
MANEDIT
1070
     0
1002
}
1002
{
1000
NOSEL
1070
     0
1002
}
1002
{
1000
BEHIND
1070
     0
1002
}
1002
{
1000
OTHER
1070
     0
1002
}
1002
{
1000
REACTOR
1002
}
  0
ARC
  5
424E
  8
247
  6
CONTINUOUS
 10
4.160145888667782
 20
-12.22645888621258
 30
0.0
 40
1.392781735586712
 50
15.84609655577923
 51
82.325137004169065
  0
ARC
  5
424F
  8
247
  6
CONTINUOUS
 10
4.4592434315272831
 20
-11.64221272584035
 30
0.0
 40
1.324563662670287
 50
249.7136016704969
 51
321.78874565640928
1001
GENIUS_GENOBJ-N-FIL_13
1002
{
1000
OWNER
1000
GEN
1002
}
1001
GENIUS_GENODEF_13
1002
{
1000
HIER
1070
     0
1002
}
1002
{
1000
MANEDIT
1070
     0
1002
}
1002
{
1000
NOSEL
1070
     0
1002
}
1002
{
1000
BEHIND
1070
     0
1002
}
1002
{
1000
OTHER
1070
     0
1002
}
1002
{
1000
REACTOR
1002
}
  0
LINE
  5
4250
  8
247
  6
CONTINUOUS
 10
4.346153846219976
 20
-11.53846153876
 30
0.0
 11
4.346153846219976
 21
-10.84615384648
 31
0.0
  0
LINE
  5
4251
  8
247
  6
CONTINUOUS
 10
2.500000000139976
 20
-17.250000000069999
 30
0.0
 11
2.500000000139976
 21
-16.576923077020009
 31
0.0
  0
LINE
  5
4252
  8
240
  6
CONTINUOUS
 10
0.0
 20
21.630611991142189
 30
0.0
 11
-38.0
 21
20.680528494763109
 31
0.0
1001
GRPNAME
1000
PASTMD35
  0
LINE
  5
4253
  8
240
  6
CONTINUOUS
 10
0.0
 20
-21.630611991141851
 30
0.0
 11
-38.0
 21
-20.68052849476301
 31
0.0
1001
GRPNAME
1000
PASTMD35
  0
LINE
  5
4254
  8
240
  6
CONTINUOUS
 10
0.0
 20
31.5
 30
0.0
 11
22.0
 21
31.5
 31
0.0
  0
LINE
  5
4255
  8
240
  6
CONTINUOUS
 10
0.0
 20
-31.5
 30
0.0
 11
22.0
 21
-31.5
 31
0.0
  0
LINE
  5
4256
  8
241
  6
CONTINUOUS
 10
9.9499999999999869
 20
8.9923414211634736
 30
0.0
 11
9.9499999999999869
 21
30.18137425657125
 31
0.0
1001
GRPNAME
1000
PASTMD30
  0
LINE
  5
4257
  8
241
  6
CONTINUOUS
 10
9.9499999999999869
 20
30.18137425657125
 30
0.0
 11
14.05000000000001
 21
30.18137425657125
 31
0.0
1001
GRPNAME
1000
PASTMD30
  0
LINE
  5
4258
  8
241
  6
CONTINUOUS
 10
14.05000000000055
 20
8.9923414211634736
 30
0.0
 11
14.05000000000001
 21
30.18137425657125
 31
0.0
1001
GRPNAME
1000
PASTMD30
  0
LINE
  5
4259
  8
241
  6
CONTINUOUS
 10
9.9499999999999869
 20
8.9923414211634736
 30
0.0
 11
14.05000000000055
 21
8.9923414211634736
 31
0.0
1001
GRPNAME
1000
PASTMD30
  0
ARC
  5
425A
  8
241
  6
CONTINUOUS
 10
-16.228827256943418
 20
19.586857838866582
 30
0.0
 40
32.07882725694369
 50
340.71513450902091
 51
19.284865490980941
  0
ARC
  5
425B
  8
241
  6
CONTINUOUS
 10
40.228827256943717
 20
19.58685783886736
 30
0.0
 40
32.07882725694374
 50
160.71513450901909
 51
199.28486549098031
  0
LINE
  5
425C
  8
241
  6
CONTINUOUS
 10
9.9499999999999869
 20
-8.9923414211634736
 30
0.0
 11
9.9499999999999869
 21
-30.18137425657125
 31
0.0
1001
GRPNAME
1000
PASTMD30
  0
LINE
  5
425D
  8
241
  6
CONTINUOUS
 10
9.9499999999999869
 20
-30.18137425657125
 30
0.0
 11
14.05000000000001
 21
-30.18137425657125
 31
0.0
1001
GRPNAME
1000
PASTMD30
  0
LINE
  5
425E
  8
241
  6
CONTINUOUS
 10
14.05000000000055
 20
-8.9923414211634736
 30
0.0
 11
14.05000000000001
 21
-30.18137425657125
 31
0.0
1001
GRPNAME
1000
PASTMD30
  0
LINE
  5
425F
  8
241
  6
CONTINUOUS
 10
9.9499999999999869
 20
-8.9923414211634736
 30
0.0
 11
14.05000000000055
 21
-8.9923414211634736
 31
0.0
1001
GRPNAME
1000
PASTMD30
  0
ARC
  5
4260
  8
241
  6
CONTINUOUS
 10
-16.228827256943418
 20
-19.586857838866582
 30
0.0
 40
32.07882725694369
 50
340.71513450901892
 51
19.284865490979119
  0
ARC
  5
4261
  8
241
  6
CONTINUOUS
 10
40.228827256943717
 20
-19.58685783886736
 30
0.0
 40
32.07882725694374
 50
160.71513450901909
 51
199.28486549098031
  0
ARC
  5
4262
  8
241
  6
CONTINUOUS
 10
-33.93660144659556
 20
0.0
 30
0.0
 40
4.3146606720450169
 50
303.58253920472129
 51
56.417460795278693
  0
LINE
  5
426F
  8
240
  6
CONTINUOUS
 10
48.0
 20
-24.999999999999972
 30
0.0
 11
26.0
 21
-24.999999999999972
 31
0.0
1001
GRPNAME
1000
PASTMD1U
  0
LINE
  5
4270
  8
240
  6
CONTINUOUS
 10
48.0
 20
24.999999999999972
 30
0.0
 11
48.0
 21
-24.999999999999972
 31
0.0
1001
GRPNAME
1000
PASTMD1U
  0
LINE
  5
4271
  8
240
  6
CONTINUOUS
 10
48.0
 20
24.999999999999972
 30
0.0
 11
26.0
 21
24.999999999999972
 31
0.0
  0
ARC
  5
4272
  8
240
  6
CONTINUOUS
 10
26.0
 20
28.999999999999972
 30
0.0
 40
4.0
 50
180.0
 51
270.0
1001
GENIUS_GENOBJ-N-FIL_13
1002
{
1000
OWNER
1000
GEN
1002
}
1001
GENIUS_GENODEF_13
1002
{
1000
HIER
1070
     0
1002
}
1002
{
1000
MANEDIT
1070
     0
1002
}
1002
{
1000
NOSEL
1070
     0
1002
}
1002
{
1000
BEHIND
1070
     0
1002
}
1002
{
1000
OTHER
1070
     0
1002
}
1002
{
1000
REACTOR
1002
}
  0
ARC
  5
4274
  8
240
  6
CONTINUOUS
 10
26.0
 20
-28.999999999999972
 30
0.0
 40
4.0
 50
90.0
 51
180.0
1001
GENIUS_GENODEF_13
1002
{
1000
HIER
1070
     0
1002
}
1002
{
1000
MANEDIT
1070
     0
1002
}
1002
{
1000
NOSEL
1070
     0
1002
}
1002
{
1000
BEHIND
1070
     0
1002
}
1002
{
1000
OTHER
1070
     0
1002
}
1002
{
1000
REACTOR
1002
}
1001
GENIUS_GENOBJ-N-FIL_13
1002
{
1000
OWNER
1000
GEN
1002
}
  0
LINE
  5
427C
  8
240
  6
CONTINUOUS
 10
22.0
 20
28.999999999999972
 30
0.0
 11
22.0
 21
31.5
 31
0.0
  0
LINE
  5
427D
  8
241
  6
CONTINUOUS
 10
22.0
 20
-28.999999999999972
 30
0.0
 11
22.0
 21
28.999999999999972
 31
0.0
  0
LINE
  5
42A7
  8
243
  6
HIDDEN2
 10
48.0
 20
14.0
 30
0.0
 11
15.94999999999999
 21
14.0
 31
0.0
  0
LINE
  5
42A8
  8
243
  6
HIDDEN2
 10
48.0
 20
-14.0
 30
0.0
 11
15.94999999999999
 21
-14.0
 31
0.0
  0
POLYLINE
  5
42A9
  8
241
  6
CONTINUOUS
 66
     1
 10
0.0
 20
0.0
 30
0.0
 70
     1
  0
VERTEX
  5
42AA
  8
241
  6
CONTINUOUS
 10
32.499999999999858
 20
-1.443375669999998
 30
0.0
  0
VERTEX
  5
42AB
  8
241
  6
CONTINUOUS
 10
34.999999999999858
 20
-2.8867513499999991
 30
0.0
  0
VERTEX
  5
42AC
  8
241
  6
CONTINUOUS
 10
37.499999999999851
 20
-1.443375669999998
 30
0.0
  0
VERTEX
  5
42AD
  8
241
  6
CONTINUOUS
 10
37.499999999999851
 20
1.443375669999998
 30
0.0
  0
VERTEX
  5
42AE
  8
241
  6
CONTINUOUS
 10
34.999999999999858
 20
2.8867513499999991
 30
0.0
  0
VERTEX
  5
42AF
  8
241
  6
CONTINUOUS
 10
32.499999999999858
 20
1.443375669999998
 30
0.0
  0
SEQEND
  5
42B0
  8
241
  6
CONTINUOUS
  0
CIRCLE
  5
42B1
  8
242
  6
CONTINUOUS
 10
34.999999999999858
 20
0.0
 30
0.0
 40
4.5
  0
CIRCLE
  5
42B2
  8
241
  6
CONTINUOUS
 10
34.999999999999858
 20
0.0
 30
0.0
 40
5.1500000000000004
  0
LINE
  5
42B3
  8
245
  6
CENTER2
 10
34.999999999999858
 20
6.1982482399999981
 30
0.0
 11
34.999999999999858
 21
-6.1500000000000004
 31
0.0
  0
POLYLINE
  5
42B4
  8
250
  6
CONTINUOUS
 66
     1
 10
0.0
 20
0.0
 30
0.0
1001
ACAD
1000
DSTYLE
1002
{
1070
     6
1000
OPEN
1070
    41
1040
2.0
1070
    42
1040
2.0
1070
    44
1040
2.0
1070
    79
1070
     2
1070
   140
1040
4.0
1070
   179
1070
     3
1070
   343
1005
0
1070
   371
1070
    -1
1070
   372
1070
    -1
1002
}
  0
VERTEX
  5
42B5
  8
250
  6
CONTINUOUS
 10
45.213996150082707
 20
26.732050807521041
 30
0.0
  0
VERTEX
  5
42B6
  8
250
  6
CONTINUOUS
 10
52.240752265226
 20
38.902749409999998
 30
0.0
  0
VERTEX
  5
42B7
  8
241
  6
CONTINUOUS
 10
62.01782420417176
 20
38.902749409999998
 30
0.0
  0
SEQEND
  5
42B8
  8
250
  6
CONTINUOUS
  0
TEXT
  5
42B9
  8
250
  6
CONTINUOUS
 10
53.09296324649128
 20
39.902749409999998
 30
0.0
 40
2.799999999999998
  1
CK5
  7
YOKO
1001
ITEMNAME
1000
LNSP3
1001
ACAD
1000
MTEXTBEGIN
1070
    73
1070
     1
1070
    44
1040
1.0
1070
    74
1070
     0
1000
MTEXTEND
1000
MTEXTBEGIN
1070
    73
1070
     1
1070
    44
1040
1.0
1070
    74
1070
     0
1000
MTEXTEND
1000
MTEXTBEGIN
1070
    73
1070
     1
1070
    44
1040
1.0
1070
    74
1070
     0
1000
MTEXTEND
  0
LINE
  5
42BA
  8
250
  6
CONTINUOUS
 10
48.499999999999858
 20
-25.0
 30
0.0
 11
59.499999999999851
 21
-25.0
 31
0.0
  0
LINE
  5
42BB
  8
250
  6
CONTINUOUS
 10
48.499999999999858
 20
25.0
 30
0.0
 11
59.499999999999851
 21
25.0
 31
0.0
  0
LINE
  5
42BC
  8
250
  6
CONTINUOUS
 10
58.499999999999858
 20
-22.77
 30
0.0
 11
58.499999999999858
 21
22.77
 31
0.0
  0
TEXT
  5
42BD
  8
250
  6
CONTINUOUS
 10
57.499999999999851
 20
-3.93333333333333
 30
0.0
 40
2.799999999999998
  1
\U+220550
 50
90.0
1001
ACAD
1000
MTEXTBEGIN
1070
    73
1070
     1
1070
    44
1040
1.0
1070
    74
1070
     0
1000
MTEXTEND
1000
MTEXTBEGIN
1070
    73
1070
     1
1070
    44
1040
1.0
1070
    74
1070
     0
1000
MTEXTEND
  0
LINE
  5
42BE
  8
250
  6
CONTINUOUS
 10
58.128333333333188
 20
22.77
 30
0.0
 11
58.499999999999858
 21
25.0
 31
0.0
  0
LINE
  5
42BF
  8
250
  6
CONTINUOUS
 10
58.871666666666528
 20
22.77
 30
0.0
 11
58.499999999999858
 21
25.0
 31
0.0
  0
LINE
  5
42C0
  8
250
  6
CONTINUOUS
 10
58.499999999999858
 20
25.0
 30
0.0
 11
58.499999999999858
 21
22.77
 31
0.0
  0
LINE
  5
42C1
  8
250
  6
CONTINUOUS
 10
58.871666666666528
 20
-22.77
 30
0.0
 11
58.499999999999858
 21
-25.0
 31
0.0
  0
LINE
  5
42C2
  8
250
  6
CONTINUOUS
 10
58.128333333333188
 20
-22.77
 30
0.0
 11
58.499999999999858
 21
-25.0
 31
0.0
  0
LINE
  5
42C3
  8
250
  6
CONTINUOUS
 10
58.499999999999858
 20
-25.0
 30
0.0
 11
58.499999999999858
 21
-22.77
 31
0.0
  0
LINE
  5
42C4
  8
250
  6
CONTINUOUS
 10
45.50267128466956
 20
26.565384140840571
 30
0.0
 11
44.213996149999851
 21
25.0
 31
0.0
  0
LINE
  5
42C5
  8
250
  6
CONTINUOUS
 10
44.925321015495882
 20
26.898717474201529
 30
0.0
 11
44.213996149999851
 21
25.0
 31
0.0
  0
LINE
  5
42C6
  8
250
  6
CONTINUOUS
 10
44.213996149999851
 20
25.0
 30
0.0
 11
45.213996150082707
 21
26.732050807521041
 31
0.0
  0
LINE
  5
42D9
  8
250
  6
CONTINUOUS
 10
0.0
 20
31.9925
 30
0.0
 11
0.0
 21
43.0
 31
0.0
  0
LINE
  5
42DA
  8
250
  6
CONTINUOUS
 10
48.0
 20
25.5
 30
0.0
 11
48.0
 21
43.0
 31
0.0
  0
LINE
  5
42DB
  8
250
  6
CONTINUOUS
 10
2.2299999999999991
 20
42.0
 30
0.0
 11
45.770000000000003
 21
42.0
 31
0.0
  0
LINE
  5
42DC
  8
250
  6
CONTINUOUS
 10
2.2299999999999991
 20
41.62833333333333
 30
0.0
 11
0.0
 21
42.0
 31
0.0
  0
LINE
  5
42DD
  8
250
  6
CONTINUOUS
 10
2.2299999999999991
 20
42.371666666666663
 30
0.0
 11
0.0
 21
42.0
 31
0.0
  0
LINE
  5
42DE
  8
250
  6
CONTINUOUS
 10
0.0
 20
42.0
 30
0.0
 11
2.2299999999999991
 21
42.0
 31
0.0
  0
LINE
  5
42DF
  8
250
  6
CONTINUOUS
 10
45.770000000000003
 20
42.371666666666663
 30
0.0
 11
48.0
 21
42.0
 31
0.0
  0
LINE
  5
42E0
  8
250
  6
CONTINUOUS
 10
45.770000000000003
 20
41.62833333333333
 30
0.0
 11
48.0
 21
42.0
 31
0.0
  0
LINE
  5
42E1
  8
250
  6
CONTINUOUS
 10
48.0
 20
42.0
 30
0.0
 11
45.770000000000003
 21
42.0
 31
0.0
  0
TEXT
  5
42E2
  8
250
  6
CONTINUOUS
 10
22.31031553285715
 20
43.0
 30
0.0
 40
3.0
  1
48
1001
ACAD
1000
MTEXTBEGIN
1070
    73
1070
     1
1070
    44
1040
1.0
1070
    74
1070
     0
1000
MTEXTEND
  0
TEXT
  5
42E3
  8
241
  6
CONTINUOUS
 10
-38.0
 20
56.0
 30
0.0
 40
5.0
  1
C6-CKB5-48
  7
YOKO
 11
-38.0
 21
56.0
 31
0.0
 73
     1
  0
LINE
  5
4806
  8
245
  6
CENTER2
 10
-76.323586305036386
 20
24.72432756984707
 30
0.0
 11
-76.323586305036386
 21
-24.284997402791809
 31
0.0
1001
GRPNAME
1000
PASTMD01
  0
LINE
  5
4807
  8
245
  6
CENTER2
 10
-50.60678372880264
 20
-0.3905276288706872
 30
0.0
 11
-99.478605076758868
 21
-0.3905276288706872
 31
0.0
  0
CIRCLE
  5
4808
  8
242
  6
CONTINUOUS
 10
-76.323586305036386
 20
-0.3905276288706872
 30
0.0
 40
10.0
  0
CIRCLE
  5
4809
  8
241
  6
CONTINUOUS
 10
-76.323586305036386
 20
-0.3905276288706872
 30
0.0
 40
13.99999999999997
  0
CIRCLE
  5
480A
  8
241
  6
CONTINUOUS
 10
-76.323586305036386
 20
-0.3905276288706872
 30
0.0
 40
9.0500000000000131
  0
ARC
  5
480B
  8
241
  6
CONTINUOUS
 10
-49.51358630503637
 20
-0.3905276288706872
 30
0.0
 40
6.0
 50
134.55380765322491
 51
225.44599696379231
  0
ARC
  5
480C
  8
241
  6
CONTINUOUS
 10
-100.3235863050363
 20
-0.3905276288706872
 30
0.0
 40
6.0
 50
308.67550996835593
 51
51.324339718951961
  0
POLYLINE
  5
480D
  8
240
 66
     1
 10
0.0
 20
0.0
 30
0.0
 70
     8
  0
VERTEX
  5
480E
  8
240
 10
-66.023586305036574
 20
17.44957237112931
 30
0.0
 70
    32
  0
VERTEX
  5
480F
  8
240
 10
-65.744586305036577
 20
17.289372371129311
 30
0.0
 70
    32
  0
VERTEX
  5
4810
  8
240
 10
-65.467286305036566
 20
17.12657237112931
 30
0.0
 70
    32
  0
VERTEX
  5
4811
  8
240
 10
-65.191686305036555
 20
16.961472371129311
 30
0.0
 70
    32
  0
VERTEX
  5
4812
  8
240
 10
-64.917886305036575
 20
16.793972371129311
 30
0.0
 70
    32
  0
VERTEX
  5
4813
  8
240
 10
-64.645986305036573
 20
16.624172371129308
 30
0.0
 70
    32
  0
VERTEX
  5
4814
  8
240
 10
-64.375886305036573
 20
16.452072371129312
 30
0.0
 70
    32
  0
VERTEX
  5
4815
  8
240
 10
-64.107786305036555
 20
16.277672371129309
 30
0.0
 70
    32
  0
VERTEX
  5
4816
  8
240
 10
-63.841586305036572
 20
16.100972371129309
 30
0.0
 70
    32
  0
VERTEX
  5
4817
  8
240
 10
-63.577386305036569
 20
15.92207237112931
 30
0.0
 70
    32
  0
VERTEX
  5
4818
  8
240
 10
-63.315386305036569
 20
15.74097237112931
 30
0.0
 70
    32
  0
VERTEX
  5
4819
  8
240
 10
-63.055386305036571
 20
15.55777237112931
 30
0.0
 70
    32
  0
VERTEX
  5
481A
  8
240
 10
-62.797586305036567
 20
15.372472371129311
 30
0.0
 70
    32
  0
VERTEX
  5
481B
  8
240
 10
-62.541986305036573
 20
15.184972371129311
 30
0.0
 70
    32
  0
VERTEX
  5
481C
  8
240
 10
-62.28868630503657
 20
14.99547237112931
 30
0.0
 70
    32
  0
VERTEX
  5
481D
  8
240
 10
-62.037586305036562
 20
14.803872371129311
 30
0.0
 70
    32
  0
VERTEX
  5
481E
  8
240
 10
-61.788886305036563
 20
14.61037237112931
 30
0.0
 70
    32
  0
VERTEX
  5
481F
  8
240
 10
-61.542586305036572
 20
14.414872371129309
 30
0.0
 70
    32
  0
VERTEX
  5
4820
  8
240
 10
-61.298786305036572
 20
14.21737237112931
 30
0.0
 70
    32
  0
VERTEX
  5
4821
  8
240
 10
-61.057486305036569
 20
14.01807237112931
 30
0.0
 70
    32
  0
VERTEX
  5
4822
  8
240
 10
-60.818586305036561
 20
13.816772371129311
 30
0.0
 70
    32
  0
VERTEX
  5
4823
  8
240
 10
-60.582386305036572
 20
13.61367237112931
 30
0.0
 70
    32
  0
VERTEX
  5
4824
  8
240
 10
-60.348786305036569
 20
13.408772371129309
 30
0.0
 70
    32
  0
VERTEX
  5
4825
  8
240
 10
-60.117886305036571
 20
13.20217237112931
 30
0.0
 70
    32
  0
VERTEX
  5
4826
  8
240
 10
-59.889786305036573
 20
12.993672371129311
 30
0.0
 70
    32
  0
VERTEX
  5
4827
  8
240
 10
-59.664386305036572
 20
12.78357237112931
 30
0.0
 70
    32
  0
VERTEX
  5
4828
  8
240
 10
-59.441786305036572
 20
12.57167237112931
 30
0.0
 70
    32
  0
VERTEX
  5
4829
  8
240
 10
-59.222086305036569
 20
12.35817237112931
 30
0.0
 70
    32
  0
VERTEX
  5
482A
  8
240
 10
-59.00528630503657
 20
12.14307237112931
 30
0.0
 70
    32
  0
VERTEX
  5
482B
  8
240
 10
-58.791486305036571
 20
11.926272371129309
 30
0.0
 70
    32
  0
VERTEX
  5
482C
  8
240
 10
-58.580686305036572
 20
11.70797237112931
 30
0.0
 70
    32
  0
VERTEX
  5
482D
  8
240
 10
-58.372886305036573
 20
11.488172371129309
 30
0.0
 70
    32
  0
VERTEX
  5
482E
  8
240
 10
-58.168286305036567
 20
11.26677237112931
 30
0.0
 70
    32
  0
VERTEX
  5
482F
  8
240
 10
-57.966786305036571
 20
11.043972371129311
 30
0.0
 70
    32
  0
VERTEX
  5
4830
  8
240
 10
-57.768486305036568
 20
10.819772371129311
 30
0.0
 70
    32
  0
VERTEX
  5
4831
  8
240
 10
-57.57348630503656
 20
10.594072371129309
 30
0.0
 70
    32
  0
VERTEX
  5
4832
  8
240
 10
-57.381686305036581
 20
10.366972371129309
 30
0.0
 70
    32
  0
VERTEX
  5
4833
  8
240
 10
-57.193286305036573
 20
10.13857237112931
 30
0.0
 70
    32
  0
VERTEX
  5
4834
  8
240
 10
-57.00828630503657
 20
9.9088723711293127
 30
0.0
 70
    32
  0
VERTEX
  5
4835
  8
240
 10
-56.826686305036567
 20
9.6778723711293129
 30
0.0
 70
    32
  0
VERTEX
  5
4836
  8
240
 10
-56.648586305036567
 20
9.4456323711293138
 30
0.0
 70
    32
  0
VERTEX
  5
4837
  8
240
 10
-56.474086305036572
 20
9.2121423711293122
 30
0.0
 70
    32
  0
VERTEX
  5
4838
  8
240
 10
-56.303086305036572
 20
8.9774623711293113
 30
0.0
 70
    32
  0
VERTEX
  5
4839
  8
240
 10
-56.135686305036572
 20
8.7416123711293121
 30
0.0
 70
    32
  0
VERTEX
  5
483A
  8
240
 10
-55.972086305036569
 20
8.504632371129313
 30
0.0
 70
    32
  0
VERTEX
  5
483B
  8
240
 10
-55.812086305036573
 20
8.2665523711293112
 30
0.0
 70
    32
  0
VERTEX
  5
483C
  8
240
 10
-55.655886305036567
 20
8.0274023711293125
 30
0.0
 70
    32
  0
VERTEX
  5
483D
  8
240
 10
-55.503486305036567
 20
7.7872123711293124
 30
0.0
 70
    32
  0
VERTEX
  5
483E
  8
240
 10
-55.354986305036562
 20
7.5460123711293106
 30
0.0
 70
    32
  0
VERTEX
  5
483F
  8
240
 10
-55.210386305036572
 20
7.3038323711293129
 30
0.0
 70
    32
  0
VERTEX
  5
4840
  8
240
 10
-55.069786305036573
 20
7.0607123711293118
 30
0.0
 70
    32
  0
VERTEX
  5
4841
  8
240
 10
-54.933086305036568
 20
6.8166723711293118
 30
0.0
 70
    32
  0
VERTEX
  5
4842
  8
240
 10
-54.800486305036571
 20
6.5717523711293131
 30
0.0
 70
    32
  0
VERTEX
  5
4843
  8
240
 10
-54.671986305036569
 20
6.3259823711293128
 30
0.0
 70
    32
  0
VERTEX
  5
4844
  8
240
 10
-54.547686305036571
 20
6.079382371129312
 30
0.0
 70
    32
  0
VERTEX
  5
4845
  8
240
 10
-54.427486305036581
 20
5.8319923711293109
 30
0.0
 70
    32
  0
VERTEX
  5
4846
  8
240
 10
-54.31158630503657
 20
5.5838523711293124
 30
0.0
 70
    32
  0
VERTEX
  5
4847
  8
240
 10
-54.19998630503656
 20
5.3349723711293118
 30
0.0
 70
    32
  0
VERTEX
  5
4848
  8
240
 10
-54.092686305036572
 20
5.0853923711293119
 30
0.0
 70
    32
  0
VERTEX
  5
4849
  8
240
 10
-53.989786305036567
 20
4.8351523711293121
 30
0.0
 70
    32
  0
VERTEX
  5
484A
  8
240
 10
-53.891286305036573
 20
4.5842723711293116
 30
0.0
 70
    32
  0
VERTEX
  5
484B
  8
240
 10
-53.797286305036572
 20
4.3327923711293108
 30
0.0
 70
    32
  0
VERTEX
  5
484C
  8
240
 10
-53.707786305036571
 20
4.0807323711293133
 30
0.0
 70
    32
  0
VERTEX
  5
484D
  8
240
 10
-53.622886305036573
 20
3.8281323711293118
 30
0.0
 70
    32
  0
VERTEX
  5
484E
  8
240
 10
-53.542586305036572
 20
3.5750223711293119
 30
0.0
 70
    32
  0
VERTEX
  5
484F
  8
240
 10
-53.466886305036567
 20
3.3214323711293119
 30
0.0
 70
    32
  0
VERTEX
  5
4850
  8
240
 10
-53.395986305036573
 20
3.0673923711293121
 30
0.0
 70
    32
  0
VERTEX
  5
4851
  8
240
 10
-53.329786305036571
 20
2.8129223711293121
 30
0.0
 70
    32
  0
VERTEX
  5
4852
  8
240
 10
-53.268486305036568
 20
2.5580823711293119
 30
0.0
 70
    32
  0
VERTEX
  5
4853
  8
240
 10
-53.211986305036568
 20
2.302872371129312
 30
0.0
 70
    32
  0
VERTEX
  5
4854
  8
240
 10
-53.160386305036567
 20
2.0473423711293131
 30
0.0
 70
    32
  0
VERTEX
  5
4855
  8
240
 10
-53.11368630503658
 20
1.7915123711293131
 30
0.0
 70
    32
  0
VERTEX
  5
4856
  8
240
 10
-53.072086305036571
 20
1.535422371129312
 30
0.0
 70
    32
  0
VERTEX
  5
4857
  8
240
 10
-53.03538630503656
 20
1.2791023711293119
 30
0.0
 70
    32
  0
VERTEX
  5
4858
  8
240
 10
-53.00388630503658
 20
1.022572371129312
 30
0.0
 70
    32
  0
VERTEX
  5
4859
  8
240
 10
-52.977486305036571
 20
0.7658823711293128
 30
0.0
 70
    32
  0
VERTEX
  5
485A
  8
240
 10
-52.956286305036571
 20
0.5090453711293128
 30
0.0
 70
    32
  0
VERTEX
  5
485B
  8
240
 10
-52.940286305036572
 20
0.2521023711293129
 30
0.0
 70
    32
  0
VERTEX
  5
485C
  8
240
 10
-52.929586305036572
 20
-0.0049186288706871
 30
0.0
 70
    32
  0
VERTEX
  5
485D
  8
240
 10
-52.924286305036567
 20
-0.2619866288706871
 30
0.0
 70
    32
  0
VERTEX
  5
485E
  8
240
 10
-52.924286305036567
 20
-0.5190686288706872
 30
0.0
 70
    32
  0
VERTEX
  5
485F
  8
240
 10
-52.929586305036572
 20
-0.7761366288706874
 30
0.0
 70
    32
  0
VERTEX
  5
4860
  8
240
 10
-52.940286305036572
 20
-1.033157628870687
 30
0.0
 70
    32
  0
VERTEX
  5
4861
  8
240
 10
-52.956286305036571
 20
-1.2901006288706871
 30
0.0
 70
    32
  0
VERTEX
  5
4862
  8
240
 10
-52.977486305036571
 20
-1.5469376288706871
 30
0.0
 70
    32
  0
VERTEX
  5
4863
  8
240
 10
-53.00388630503658
 20
-1.8036276288706869
 30
0.0
 70
    32
  0
VERTEX
  5
4864
  8
240
 10
-53.03538630503656
 20
-2.0601576288706869
 30
0.0
 70
    32
  0
VERTEX
  5
4865
  8
240
 10
-53.072086305036571
 20
-2.3164776288706861
 30
0.0
 70
    32
  0
VERTEX
  5
4866
  8
240
 10
-53.11368630503658
 20
-2.5725676288706869
 30
0.0
 70
    32
  0
VERTEX
  5
4867
  8
240
 10
-53.160386305036567
 20
-2.8283976288706869
 30
0.0
 70
    32
  0
VERTEX
  5
4868
  8
240
 10
-53.211986305036568
 20
-3.0839276288706872
 30
0.0
 70
    32
  0
VERTEX
  5
4869
  8
240
 10
-53.268486305036568
 20
-3.3391376288706871
 30
0.0
 70
    32
  0
VERTEX
  5
486A
  8
240
 10
-53.329786305036571
 20
-3.5939776288706868
 30
0.0
 70
    32
  0
VERTEX
  5
486B
  8
240
 10
-53.395986305036573
 20
-3.8484476288706859
 30
0.0
 70
    32
  0
VERTEX
  5
486C
  8
240
 10
-53.466886305036567
 20
-4.1024876288706871
 30
0.0
 70
    32
  0
VERTEX
  5
486D
  8
240
 10
-53.542586305036572
 20
-4.3560776288706871
 30
0.0
 70
    32
  0
VERTEX
  5
486E
  8
240
 10
-53.622886305036573
 20
-4.6091876288706866
 30
0.0
 70
    32
  0
VERTEX
  5
486F
  8
240
 10
-53.707786305036571
 20
-4.8617876288706858
 30
0.0
 70
    32
  0
VERTEX
  5
4870
  8
240
 10
-53.797286305036572
 20
-5.113847628870686
 30
0.0
 70
    32
  0
VERTEX
  5
4871
  8
240
 10
-53.891286305036573
 20
-5.3653276288706868
 30
0.0
 70
    32
  0
VERTEX
  5
4872
  8
240
 10
-53.989786305036567
 20
-5.6162076288706881
 30
0.0
 70
    32
  0
VERTEX
  5
4873
  8
240
 10
-54.092686305036572
 20
-5.8664476288706862
 30
0.0
 70
    32
  0
VERTEX
  5
4874
  8
240
 10
-54.19998630503656
 20
-6.116027628870687
 30
0.0
 70
    32
  0
VERTEX
  5
4875
  8
240
 10
-54.31158630503657
 20
-6.3649076288706867
 30
0.0
 70
    32
  0
VERTEX
  5
4876
  8
240
 10
-54.427486305036581
 20
-6.6130476288706861
 30
0.0
 70
    32
  0
VERTEX
  5
4877
  8
240
 10
-54.547686305036571
 20
-6.8604376288706863
 30
0.0
 70
    32
  0
VERTEX
  5
4878
  8
240
 10
-54.671986305036569
 20
-7.1070376288706871
 30
0.0
 70
    32
  0
VERTEX
  5
4879
  8
240
 10
-54.800486305036571
 20
-7.3528076288706874
 30
0.0
 70
    32
  0
VERTEX
  5
487A
  8
240
 10
-54.933086305036568
 20
-7.597727628870687
 30
0.0
 70
    32
  0
VERTEX
  5
487B
  8
240
 10
-55.069786305036573
 20
-7.8417676288706861
 30
0.0
 70
    32
  0
VERTEX
  5
487C
  8
240
 10
-55.210386305036572
 20
-8.0848876288706872
 30
0.0
 70
    32
  0
VERTEX
  5
487D
  8
240
 10
-55.354986305036562
 20
-8.3270676288706866
 30
0.0
 70
    32
  0
VERTEX
  5
487E
  8
240
 10
-55.503486305036567
 20
-8.5682676288706876
 30
0.0
 70
    32
  0
VERTEX
  5
487F
  8
240
 10
-55.655886305036567
 20
-8.8084576288706877
 30
0.0
 70
    32
  0
VERTEX
  5
4880
  8
240
 10
-55.812086305036573
 20
-9.0476076288706881
 30
0.0
 70
    32
  0
VERTEX
  5
4881
  8
240
 10
-55.972086305036569
 20
-9.2856876288706882
 30
0.0
 70
    32
  0
VERTEX
  5
4882
  8
240
 10
-56.135686305036572
 20
-9.5226676288706873
 30
0.0
 70
    32
  0
VERTEX
  5
4883
  8
240
 10
-56.303086305036572
 20
-9.7585176288706865
 30
0.0
 70
    32
  0
VERTEX
  5
4884
  8
240
 10
-56.474086305036572
 20
-9.9931976288706874
 30
0.0
 70
    32
  0
VERTEX
  5
4885
  8
240
 10
-56.648586305036567
 20
-10.226687628870691
 30
0.0
 70
    32
  0
VERTEX
  5
4886
  8
240
 10
-56.826686305036567
 20
-10.45892762887069
 30
0.0
 70
    32
  0
VERTEX
  5
4887
  8
240
 10
-57.00828630503657
 20
-10.68992762887069
 30
0.0
 70
    32
  0
VERTEX
  5
4888
  8
240
 10
-57.193286305036573
 20
-10.91962762887068
 30
0.0
 70
    32
  0
VERTEX
  5
4889
  8
240
 10
-57.381686305036581
 20
-11.14802762887069
 30
0.0
 70
    32
  0
VERTEX
  5
488A
  8
240
 10
-57.57348630503656
 20
-11.37512762887069
 30
0.0
 70
    32
  0
VERTEX
  5
488B
  8
240
 10
-57.768486305036568
 20
-11.60082762887069
 30
0.0
 70
    32
  0
VERTEX
  5
488C
  8
240
 10
-57.966786305036571
 20
-11.825027628870689
 30
0.0
 70
    32
  0
VERTEX
  5
488D
  8
240
 10
-58.168286305036567
 20
-12.04782762887069
 30
0.0
 70
    32
  0
VERTEX
  5
488E
  8
240
 10
-58.372886305036573
 20
-12.26922762887069
 30
0.0
 70
    32
  0
VERTEX
  5
488F
  8
240
 10
-58.580686305036572
 20
-12.489027628870691
 30
0.0
 70
    32
  0
VERTEX
  5
4890
  8
240
 10
-58.791486305036571
 20
-12.70732762887069
 30
0.0
 70
    32
  0
VERTEX
  5
4891
  8
240
 10
-59.00528630503657
 20
-12.92412762887068
 30
0.0
 70
    32
  0
VERTEX
  5
4892
  8
240
 10
-59.222086305036569
 20
-13.139227628870691
 30
0.0
 70
    32
  0
VERTEX
  5
4893
  8
240
 10
-59.441786305036572
 20
-13.35272762887069
 30
0.0
 70
    32
  0
VERTEX
  5
4894
  8
240
 10
-59.664386305036572
 20
-13.56462762887068
 30
0.0
 70
    32
  0
VERTEX
  5
4895
  8
240
 10
-59.889786305036573
 20
-13.774727628870689
 30
0.0
 70
    32
  0
VERTEX
  5
4896
  8
240
 10
-60.117886305036571
 20
-13.98322762887069
 30
0.0
 70
    32
  0
VERTEX
  5
4897
  8
240
 10
-60.348786305036569
 20
-14.189827628870679
 30
0.0
 70
    32
  0
VERTEX
  5
4898
  8
240
 10
-60.582386305036572
 20
-14.39472762887069
 30
0.0
 70
    32
  0
VERTEX
  5
4899
  8
240
 10
-60.818586305036561
 20
-14.597827628870681
 30
0.0
 70
    32
  0
VERTEX
  5
489A
  8
240
 10
-61.057486305036569
 20
-14.79912762887068
 30
0.0
 70
    32
  0
VERTEX
  5
489B
  8
240
 10
-61.298786305036572
 20
-14.99842762887069
 30
0.0
 70
    32
  0
VERTEX
  5
489C
  8
240
 10
-61.542586305036572
 20
-15.19592762887069
 30
0.0
 70
    32
  0
VERTEX
  5
489D
  8
240
 10
-61.788886305036563
 20
-15.391427628870691
 30
0.0
 70
    32
  0
VERTEX
  5
489E
  8
240
 10
-62.037586305036562
 20
-15.584927628870689
 30
0.0
 70
    32
  0
VERTEX
  5
489F
  8
240
 10
-62.28868630503657
 20
-15.77652762887068
 30
0.0
 70
    32
  0
VERTEX
  5
48A0
  8
240
 10
-62.541986305036573
 20
-15.966027628870689
 30
0.0
 70
    32
  0
VERTEX
  5
48A1
  8
240
 10
-62.797586305036567
 20
-16.15352762887068
 30
0.0
 70
    32
  0
VERTEX
  5
48A2
  8
240
 10
-63.055386305036571
 20
-16.338827628870678
 30
0.0
 70
    32
  0
VERTEX
  5
48A3
  8
240
 10
-63.315386305036569
 20
-16.522027628870681
 30
0.0
 70
    32
  0
VERTEX
  5
48A4
  8
240
 10
-63.577386305036569
 20
-16.703127628870678
 30
0.0
 70
    32
  0
VERTEX
  5
48A5
  8
240
 10
-63.841586305036572
 20
-16.882027628870681
 30
0.0
 70
    32
  0
VERTEX
  5
48A6
  8
240
 10
-64.107786305036555
 20
-17.058727628870681
 30
0.0
 70
    32
  0
VERTEX
  5
48A7
  8
240
 10
-64.375886305036573
 20
-17.23312762887069
 30
0.0
 70
    32
  0
VERTEX
  5
48A8
  8
240
 10
-64.645986305036573
 20
-17.40522762887068
 30
0.0
 70
    32
  0
VERTEX
  5
48A9
  8
240
 10
-64.917886305036575
 20
-17.575027628870679
 30
0.0
 70
    32
  0
VERTEX
  5
48AA
  8
240
 10
-65.191686305036555
 20
-17.742527628870679
 30
0.0
 70
    32
  0
VERTEX
  5
48AB
  8
240
 10
-65.467286305036566
 20
-17.907627628870681
 30
0.0
 70
    32
  0
VERTEX
  5
48AC
  8
240
 10
-65.744586305036577
 20
-18.070427628870679
 30
0.0
 70
    32
  0
VERTEX
  5
48AD
  8
240
 10
-66.023586305036574
 20
-18.230627628870678
 30
0.0
 70
    32
  0
SEQEND
  5
48AE
  8
240
  0
POLYLINE
  5
48AF
  8
240
 66
     1
 10
0.0
 20
0.0
 30
0.0
 70
     8
  0
VERTEX
  5
48B0
  8
240
 10
-96.923586305036565
 20
-0.3905276288706309
 30
0.0
 70
    32
  0
VERTEX
  5
48B1
  8
240
 10
-96.924286305036574
 20
-0.0687736288706872
 30
0.0
 70
    32
  0
VERTEX
  5
48B2
  8
240
 10
-96.921986305036569
 20
0.2527343711293128
 30
0.0
 70
    32
  0
VERTEX
  5
48B3
  8
240
 10
-96.916786305036567
 20
0.5739393711293129
 30
0.0
 70
    32
  0
VERTEX
  5
48B4
  8
240
 10
-96.908686305036582
 20
0.8947823711293128
 30
0.0
 70
    32
  0
VERTEX
  5
48B5
  8
240
 10
-96.897586305036569
 20
1.2152123711293119
 30
0.0
 70
    32
  0
VERTEX
  5
48B6
  8
240
 10
-96.88348630503657
 20
1.5351723711293119
 30
0.0
 70
    32
  0
VERTEX
  5
48B7
  8
240
 10
-96.866586305036563
 20
1.854602371129312
 30
0.0
 70
    32
  0
VERTEX
  5
48B8
  8
240
 10
-96.846686305036584
 20
2.1734523711293119
 30
0.0
 70
    32
  0
VERTEX
  5
48B9
  8
240
 10
-96.823786305036577
 20
2.491662371129312
 30
0.0
 70
    32
  0
VERTEX
  5
48BA
  8
240
 10
-96.797986305036574
 20
2.8091623711293132
 30
0.0
 70
    32
  0
VERTEX
  5
48BB
  8
240
 10
-96.769286305036573
 20
3.1259223711293118
 30
0.0
 70
    32
  0
VERTEX
  5
48BC
  8
240
 10
-96.737686305036576
 20
3.441862371129313
 30
0.0
 70
    32
  0
VERTEX
  5
48BD
  8
240
 10
-96.703186305036581
 20
3.7569423711293122
 30
0.0
 70
    32
  0
VERTEX
  5
48BE
  8
240
 10
-96.665686305036573
 20
4.0711023711293128
 30
0.0
 70
    32
  0
VERTEX
  5
48BF
  8
240
 10
-96.625386305036571
 20
4.3842723711293132
 30
0.0
 70
    32
  0
VERTEX
  5
48C0
  8
240
 10
-96.582086305036583
 20
4.6964123711293118
 30
0.0
 70
    32
  0
VERTEX
  5
48C1
  8
240
 10
-96.53588630503657
 20
5.0074623711293116
 30
0.0
 70
    32
  0
VERTEX
  5
48C2
  8
240
 10
-96.486786305036574
 20
5.3173623711293132
 30
0.0
 70
    32
  0
VERTEX
  5
48C3
  8
240
 10
-96.434886305036571
 20
5.6260523711293127
 30
0.0
 70
    32
  0
VERTEX
  5
48C4
  8
240
 10
-96.379986305036567
 20
5.9334923711293133
 30
0.0
 70
    32
  0
VERTEX
  5
48C5
  8
240
 10
-96.322186305036581
 20
6.2396023711293127
 30
0.0
 70
    32
  0
VERTEX
  5
48C6
  8
240
 10
-96.261586305036573
 20
6.5443423711293116
 30
0.0
 70
    32
  0
VERTEX
  5
48C7
  8
240
 10
-96.197986305036565
 20
6.847652371129314
 30
0.0
 70
    32
  0
VERTEX
  5
48C8
  8
240
 10
-96.131586305036578
 20
7.1494823711293121
 30
0.0
 70
    32
  0
VERTEX
  5
48C9
  8
240
 10
-96.062286305036565
 20
7.4497623711293111
 30
0.0
 70
    32
  0
VERTEX
  5
48CA
  8
240
 10
-95.99008630503657
 20
7.748442371129312
 30
0.0
 70
    32
  0
VERTEX
  5
48CB
  8
240
 10
-95.915086305036567
 20
8.0454623711293092
 30
0.0
 70
    32
  0
VERTEX
  5
48CC
  8
240
 10
-95.837086305036564
 20
8.3407723711293116
 30
0.0
 70
    32
  0
VERTEX
  5
48CD
  8
240
 10
-95.756286305036554
 20
8.6343223711293131
 30
0.0
 70
    32
  0
VERTEX
  5
48CE
  8
240
 10
-95.672686305036578
 20
8.9260323711293132
 30
0.0
 70
    32
  0
VERTEX
  5
48CF
  8
240
 10
-95.586186305036577
 20
9.2158723711293131
 30
0.0
 70
    32
  0
VERTEX
  5
48D0
  8
240
 10
-95.496786305036565
 20
9.5037723711293118
 30
0.0
 70
    32
  0
VERTEX
  5
48D1
  8
240
 10
-95.404586305036574
 20
9.7896723711293117
 30
0.0
 70
    32
  0
VERTEX
  5
48D2
  8
240
 10
-95.309486305036557
 20
10.073572371129311
 30
0.0
 70
    32
  0
VERTEX
  5
48D3
  8
240
 10
-95.211586305036576
 20
10.35527237112931
 30
0.0
 70
    32
  0
VERTEX
  5
48D4
  8
240
 10
-95.110886305036573
 20
10.63487237112931
 30
0.0
 70
    32
  0
VERTEX
  5
48D5
  8
240
 10
-95.007286305036558
 20
10.91217237112931
 30
0.0
 70
    32
  0
VERTEX
  5
48D6
  8
240
 10
-94.900786305036576
 20
11.18727237112931
 30
0.0
 70
    32
  0
VERTEX
  5
48D7
  8
240
 10
-94.791486305036557
 20
11.460072371129311
 30
0.0
 70
    32
  0
VERTEX
  5
48D8
  8
240
 10
-94.679386305036573
 20
11.73037237112931
 30
0.0
 70
    32
  0
VERTEX
  5
48D9
  8
240
 10
-94.564486305036553
 20
11.99837237112931
 30
0.0
 70
    32
  0
VERTEX
  5
48DA
  8
240
 10
-94.446786305036568
 20
12.26377237112931
 30
0.0
 70
    32
  0
VERTEX
  5
48DB
  8
240
 10
-94.326186305036572
 20
12.52657237112931
 30
0.0
 70
    32
  0
VERTEX
  5
48DC
  8
240
 10
-94.202786305036568
 20
12.786872371129309
 30
0.0
 70
    32
  0
VERTEX
  5
48DD
  8
240
 10
-94.076586305036571
 20
13.04437237112931
 30
0.0
 70
    32
  0
VERTEX
  5
48DE
  8
240
 10
-93.947586305036566
 20
13.299272371129311
 30
0.0
 70
    32
  0
VERTEX
  5
48DF
  8
240
 10
-93.815786305036568
 20
13.551272371129309
 30
0.0
 70
    32
  0
VERTEX
  5
48E0
  8
240
 10
-93.681086305036573
 20
13.800572371129309
 30
0.0
 70
    32
  0
VERTEX
  5
48E1
  8
240
 10
-93.543686305036573
 20
14.046872371129311
 30
0.0
 70
    32
  0
VERTEX
  5
48E2
  8
240
 10
-93.403486305036566
 20
14.29017237112931
 30
0.0
 70
    32
  0
VERTEX
  5
48E3
  8
240
 10
-93.260486305036565
 20
14.53057237112931
 30
0.0
 70
    32
  0
VERTEX
  5
48E4
  8
240
 10
-93.114586305036553
 20
14.767872371129309
 30
0.0
 70
    32
  0
VERTEX
  5
48E5
  8
240
 10
-92.966086305036569
 20
15.00207237112931
 30
0.0
 70
    32
  0
VERTEX
  5
48E6
  8
240
 10
-92.814686305036574
 20
15.232972371129311
 30
0.0
 70
    32
  0
VERTEX
  5
48E7
  8
240
 10
-92.660486305036571
 20
15.460772371129311
 30
0.0
 70
    32
  0
VERTEX
  5
48E8
  8
240
 10
-92.503586305036578
 20
15.68527237112931
 30
0.0
 70
    32
  0
VERTEX
  5
48E9
  8
240
 10
-92.343786305036573
 20
15.90637237112931
 30
0.0
 70
    32
  0
VERTEX
  5
48EA
  8
240
 10
-92.181286305036565
 20
16.124072371129309
 30
0.0
 70
    32
  0
VERTEX
  5
48EB
  8
240
 10
-92.016086305036566
 20
16.33827237112931
 30
0.0
 70
    32
  0
VERTEX
  5
48EC
  8
240
 10
-91.848086305036574
 20
16.549072371129309
 30
0.0
 70
    32
  0
VERTEX
  5
48ED
  8
240
 10
-91.677286305036574
 20
16.75617237112931
 30
0.0
 70
    32
  0
VERTEX
  5
48EE
  8
240
 10
-91.503686305036567
 20
16.959672371129312
 30
0.0
 70
    32
  0
VERTEX
  5
48EF
  8
240
 10
-91.327386305036569
 20
17.159572371129311
 30
0.0
 70
    32
  0
VERTEX
  5
48F0
  8
240
 10
-91.148386305036567
 20
17.355672371129309
 30
0.0
 70
    32
  0
VERTEX
  5
48F1
  8
240
 10
-90.966586305036572
 20
17.547972371129308
 30
0.0
 70
    32
  0
VERTEX
  5
48F2
  8
240
 10
-90.781986305036554
 20
17.73637237112931
 30
0.0
 70
    32
  0
VERTEX
  5
48F3
  8
240
 10
-90.594786305036564
 20
17.920972371129309
 30
0.0
 70
    32
  0
VERTEX
  5
48F4
  8
240
 10
-90.404686305036577
 20
18.101472371129312
 30
0.0
 70
    32
  0
VERTEX
  5
48F5
  8
240
 10
-90.211986305036575
 20
18.278072371129308
 30
0.0
 70
    32
  0
VERTEX
  5
48F6
  8
240
 10
-90.016486305036565
 20
18.450472371129312
 30
0.0
 70
    32
  0
VERTEX
  5
48F7
  8
240
 10
-89.818186305036576
 20
18.61877237112931
 30
0.0
 70
    32
  0
VERTEX
  5
48F8
  8
240
 10
-89.617286305036572
 20
18.782872371129312
 30
0.0
 70
    32
  0
VERTEX
  5
48F9
  8
240
 10
-89.413586305036574
 20
18.942772371129308
 30
0.0
 70
    32
  0
VERTEX
  5
48FA
  8
240
 10
-89.207186305036572
 20
19.098372371129312
 30
0.0
 70
    32
  0
VERTEX
  5
48FB
  8
240
 10
-88.998086305036566
 20
19.249572371129311
 30
0.0
 70
    32
  0
VERTEX
  5
48FC
  8
240
 10
-88.786286305036569
 20
19.39637237112931
 30
0.0
 70
    32
  0
VERTEX
  5
48FD
  8
240
 10
-88.571786305036568
 20
19.538672371129309
 30
0.0
 70
    32
  0
VERTEX
  5
48FE
  8
240
 10
-88.354486305036573
 20
19.676472371129311
 30
0.0
 70
    32
  0
VERTEX
  5
48FF
  8
240
 10
-88.134586305036578
 20
19.80957237112931
 30
0.0
 70
    32
  0
VERTEX
  5
4900
  8
240
 10
-87.911886305036575
 20
19.938172371129308
 30
0.0
 70
    32
  0
VERTEX
  5
4901
  8
240
 10
-87.686586305036556
 20
20.062072371129311
 30
0.0
 70
    32
  0
VERTEX
  5
4902
  8
240
 10
-87.458686305036565
 20
20.18127237112931
 30
0.0
 70
    32
  0
VERTEX
  5
4903
  8
240
 10
-87.228186305036587
 20
20.29587237112931
 30
0.0
 70
    32
  0
VERTEX
  5
4904
  8
240
 10
-86.995186305036569
 20
20.405972371129309
 30
0.0
 70
    32
  0
VERTEX
  5
4905
  8
240
 10
-86.759686305036567
 20
20.511472371129319
 30
0.0
 70
    32
  0
VERTEX
  5
4906
  8
240
 10
-86.521686305036567
 20
20.612472371129311
 30
0.0
 70
    32
  0
VERTEX
  5
4907
  8
240
 10
-86.281386305036577
 20
20.70887237112931
 30
0.0
 70
    32
  0
VERTEX
  5
4908
  8
240
 10
-86.038786305036567
 20
20.800872371129319
 30
0.0
 70
    32
  0
VERTEX
  5
4909
  8
240
 10
-85.793986305036569
 20
20.888372371129311
 30
0.0
 70
    32
  0
VERTEX
  5
490A
  8
240
 10
-85.546886305036566
 20
20.971472371129309
 30
0.0
 70
    32
  0
VERTEX
  5
490B
  8
240
 10
-85.297586305036575
 20
21.050072371129321
 30
0.0
 70
    32
  0
VERTEX
  5
490C
  8
240
 10
-85.046186305036571
 20
21.124372371129311
 30
0.0
 70
    32
  0
VERTEX
  5
490D
  8
240
 10
-84.792786305036572
 20
21.194272371129308
 30
0.0
 70
    32
  0
VERTEX
  5
490E
  8
240
 10
-84.537286305036574
 20
21.259872371129319
 30
0.0
 70
    32
  0
VERTEX
  5
490F
  8
240
 10
-84.27988630503657
 20
21.321172371129311
 30
0.0
 70
    32
  0
VERTEX
  5
4910
  8
240
 10
-84.02048630503657
 20
21.37817237112932
 30
0.0
 70
    32
  0
VERTEX
  5
4911
  8
240
 10
-83.759286305036554
 20
21.430972371129311
 30
0.0
 70
    32
  0
VERTEX
  5
4912
  8
240
 10
-83.496286305036577
 20
21.479472371129319
 30
0.0
 70
    32
  0
VERTEX
  5
4913
  8
240
 10
-83.231486305036569
 20
21.523872371129318
 30
0.0
 70
    32
  0
VERTEX
  5
4914
  8
240
 10
-82.964886305036586
 20
21.563972371129321
 30
0.0
 70
    32
  0
VERTEX
  5
4915
  8
240
 10
-82.696786305036568
 20
21.599972371129319
 30
0.0
 70
    32
  0
VERTEX
  5
4916
  8
240
 10
-82.426986305036564
 20
21.631872371129319
 30
0.0
 70
    32
  0
VERTEX
  5
4917
  8
240
 10
-82.155586305036564
 20
21.659572371129322
 30
0.0
 70
    32
  0
VERTEX
  5
4918
  8
240
 10
-81.882786305036575
 20
21.683272371129309
 30
0.0
 70
    32
  0
VERTEX
  5
4919
  8
240
 10
-81.608486305036564
 20
21.702972371129309
 30
0.0
 70
    32
  0
VERTEX
  5
491A
  8
240
 10
-81.332686305036574
 20
21.718572371129319
 30
0.0
 70
    32
  0
VERTEX
  5
491B
  8
240
 10
-81.055586305036556
 20
21.73017237112931
 30
0.0
 70
    32
  0
VERTEX
  5
491C
  8
240
 10
-80.777186305036565
 20
21.73777237112931
 30
0.0
 70
    32
  0
VERTEX
  5
491D
  8
240
 10
-80.497586305036577
 20
21.741472371129319
 30
0.0
 70
    32
  0
VERTEX
  5
491E
  8
240
 10
-80.216686305036575
 20
21.741172371129309
 30
0.0
 70
    32
  0
VERTEX
  5
491F
  8
240
 10
-79.934586305036575
 20
21.737072371129319
 30
0.0
 70
    32
  0
VERTEX
  5
4920
  8
240
 10
-79.65148630503657
 20
21.729072371129309
 30
0.0
 70
    32
  0
VERTEX
  5
4921
  8
240
 10
-79.367286305036572
 20
21.717172371129319
 30
0.0
 70
    32
  0
VERTEX
  5
4922
  8
240
 10
-79.082086305036569
 20
21.70147237112932
 30
0.0
 70
    32
  0
VERTEX
  5
4923
  8
240
 10
-78.795886305036575
 20
21.681972371129319
 30
0.0
 70
    32
  0
VERTEX
  5
4924
  8
240
 10
-78.508886305036569
 20
21.65877237112932
 30
0.0
 70
    32
  0
VERTEX
  5
4925
  8
240
 10
-78.220886305036572
 20
21.631772371129319
 30
0.0
 70
    32
  0
VERTEX
  5
4926
  8
240
 10
-77.932186305036566
 20
21.600972371129309
 30
0.0
 70
    32
  0
VERTEX
  5
4927
  8
240
 10
-77.642686305036577
 20
21.566572371129318
 30
0.0
 70
    32
  0
VERTEX
  5
4928
  8
240
 10
-77.352486305036564
 20
21.528472371129311
 30
0.0
 70
    32
  0
VERTEX
  5
4929
  8
240
 10
-77.061686305036574
 20
21.486772371129319
 30
0.0
 70
    32
  0
VERTEX
  5
492A
  8
240
 10
-76.770186305036574
 20
21.441372371129319
 30
0.0
 70
    32
  0
VERTEX
  5
492B
  8
240
 10
-76.478186305036573
 20
21.392372371129319
 30
0.0
 70
    32
  0
VERTEX
  5
492C
  8
240
 10
-76.185686305036569
 20
21.33987237112931
 30
0.0
 70
    32
  0
VERTEX
  5
492D
  8
240
 10
-75.892786305036566
 20
21.283772371129309
 30
0.0
 70
    32
  0
VERTEX
  5
492E
  8
240
 10
-75.599386305036575
 20
21.22417237112931
 30
0.0
 70
    32
  0
VERTEX
  5
492F
  8
240
 10
-75.305686305036573
 20
21.161072371129311
 30
0.0
 70
    32
  0
VERTEX
  5
4930
  8
240
 10
-75.011686305036577
 20
21.09457237112931
 30
0.0
 70
    32
  0
VERTEX
  5
4931
  8
240
 10
-74.71738630503657
 20
21.02457237112931
 30
0.0
 70
    32
  0
VERTEX
  5
4932
  8
240
 10
-74.422986305036574
 20
20.951172371129321
 30
0.0
 70
    32
  0
VERTEX
  5
4933
  8
240
 10
-74.128386305036571
 20
20.874372371129311
 30
0.0
 70
    32
  0
VERTEX
  5
4934
  8
240
 10
-73.833686305036565
 20
20.79417237112931
 30
0.0
 70
    32
  0
VERTEX
  5
4935
  8
240
 10
-73.53888630503657
 20
20.710672371129309
 30
0.0
 70
    32
  0
VERTEX
  5
4936
  8
240
 10
-73.244086305036575
 20
20.623872371129309
 30
0.0
 70
    32
  0
VERTEX
  5
4937
  8
240
 10
-72.949386305036569
 20
20.53367237112931
 30
0.0
 70
    32
  0
VERTEX
  5
4938
  8
240
 10
-72.654786305036566
 20
20.440272371129311
 30
0.0
 70
    32
  0
VERTEX
  5
4939
  8
240
 10
-72.36038630503657
 20
20.343672371129308
 30
0.0
 70
    32
  0
VERTEX
  5
493A
  8
240
 10
-72.066186305036567
 20
20.24387237112931
 30
0.0
 70
    32
  0
VERTEX
  5
493B
  8
240
 10
-71.77218630503657
 20
20.140772371129319
 30
0.0
 70
    32
  0
VERTEX
  5
493C
  8
240
 10
-71.478486305036569
 20
20.034672371129322
 30
0.0
 70
    32
  0
VERTEX
  5
493D
  8
240
 10
-71.185186305036567
 20
19.92527237112931
 30
0.0
 70
    32
  0
VERTEX
  5
493E
  8
240
 10
-70.892186305036574
 20
19.812872371129309
 30
0.0
 70
    32
  0
VERTEX
  5
493F
  8
240
 10
-70.599786305036574
 20
19.697272371129309
 30
0.0
 70
    32
  0
VERTEX
  5
4940
  8
240
 10
-70.307786305036572
 20
19.578672371129311
 30
0.0
 70
    32
  0
VERTEX
  5
4941
  8
240
 10
-70.016386305036576
 20
19.457072371129311
 30
0.0
 70
    32
  0
VERTEX
  5
4942
  8
240
 10
-69.725586305036572
 20
19.33247237112931
 30
0.0
 70
    32
  0
VERTEX
  5
4943
  8
240
 10
-69.435486305036576
 20
19.204772371129309
 30
0.0
 70
    32
  0
VERTEX
  5
4944
  8
240
 10
-69.146086305036576
 20
19.074272371129311
 30
0.0
 70
    32
  0
VERTEX
  5
4945
  8
240
 10
-68.85738630503657
 20
18.94067237112931
 30
0.0
 70
    32
  0
VERTEX
  5
4946
  8
240
 10
-68.569486305036577
 20
18.804272371129311
 30
0.0
 70
    32
  0
VERTEX
  5
4947
  8
240
 10
-68.282486305036571
 20
18.664972371129309
 30
0.0
 70
    32
  0
VERTEX
  5
4948
  8
240
 10
-67.996486305036569
 20
18.52277237112931
 30
0.0
 70
    32
  0
VERTEX
  5
4949
  8
240
 10
-67.711286305036566
 20
18.377772371129311
 30
0.0
 70
    32
  0
VERTEX
  5
494A
  8
240
 10
-67.427186305036571
 20
18.22997237112931
 30
0.0
 70
    32
  0
VERTEX
  5
494B
  8
240
 10
-67.14418630503657
 20
18.07937237112931
 30
0.0
 70
    32
  0
VERTEX
  5
494C
  8
240
 10
-66.862186305036573
 20
17.925972371129308
 30
0.0
 70
    32
  0
VERTEX
  5
494D
  8
240
 10
-66.581486305036563
 20
17.76987237112931
 30
0.0
 70
    32
  0
VERTEX
  5
494E
  8
240
 10
-66.301886305036575
 20
17.61107237112931
 30
0.0
 70
    32
  0
VERTEX
  5
494F
  8
240
 10
-66.023586305036574
 20
17.44957237112931
 30
0.0
 70
    32
  0
SEQEND
  5
4950
  8
240
  0
POLYLINE
  5
4951
  8
240
 66
     1
 10
0.0
 20
0.0
 30
0.0
 70
     8
  0
VERTEX
  5
4952
  8
240
 10
-66.023586305036574
 20
-18.230627628870678
 30
0.0
 70
    32
  0
VERTEX
  5
4953
  8
240
 10
-66.301886305036575
 20
-18.392127628870679
 30
0.0
 70
    32
  0
VERTEX
  5
4954
  8
240
 10
-66.581486305036563
 20
-18.550927628870681
 30
0.0
 70
    32
  0
VERTEX
  5
4955
  8
240
 10
-66.862186305036573
 20
-18.70702762887068
 30
0.0
 70
    32
  0
VERTEX
  5
4956
  8
240
 10
-67.14418630503657
 20
-18.860427628870681
 30
0.0
 70
    32
  0
VERTEX
  5
4957
  8
240
 10
-67.427186305036571
 20
-19.011027628870679
 30
0.0
 70
    32
  0
VERTEX
  5
4958
  8
240
 10
-67.711286305036566
 20
-19.158827628870679
 30
0.0
 70
    32
  0
VERTEX
  5
4959
  8
240
 10
-67.996486305036569
 20
-19.303827628870678
 30
0.0
 70
    32
  0
VERTEX
  5
495A
  8
240
 10
-68.282486305036571
 20
-19.446027628870681
 30
0.0
 70
    32
  0
VERTEX
  5
495B
  8
240
 10
-68.569486305036577
 20
-19.58532762887069
 30
0.0
 70
    32
  0
VERTEX
  5
495C
  8
240
 10
-68.85738630503657
 20
-19.721727628870681
 30
0.0
 70
    32
  0
VERTEX
  5
495D
  8
240
 10
-69.146086305036576
 20
-19.855327628870679
 30
0.0
 70
    32
  0
VERTEX
  5
495E
  8
240
 10
-69.435486305036576
 20
-19.985827628870691
 30
0.0
 70
    32
  0
VERTEX
  5
495F
  8
240
 10
-69.725586305036572
 20
-20.113527628870688
 30
0.0
 70
    32
  0
VERTEX
  5
4960
  8
240
 10
-70.016386305036576
 20
-20.238127628870689
 30
0.0
 70
    32
  0
VERTEX
  5
4961
  8
240
 10
-70.307786305036572
 20
-20.35972762887069
 30
0.0
 70
    32
  0
VERTEX
  5
4962
  8
240
 10
-70.599786305036574
 20
-20.478327628870691
 30
0.0
 70
    32
  0
VERTEX
  5
4963
  8
240
 10
-70.892186305036574
 20
-20.593927628870681
 30
0.0
 70
    32
  0
VERTEX
  5
4964
  8
240
 10
-71.185186305036567
 20
-20.706327628870682
 30
0.0
 70
    32
  0
VERTEX
  5
4965
  8
240
 10
-71.478486305036569
 20
-20.81572762887069
 30
0.0
 70
    32
  0
VERTEX
  5
4966
  8
240
 10
-71.77218630503657
 20
-20.921827628870691
 30
0.0
 70
    32
  0
VERTEX
  5
4967
  8
240
 10
-72.066186305036567
 20
-21.024927628870682
 30
0.0
 70
    32
  0
VERTEX
  5
4968
  8
240
 10
-72.36038630503657
 20
-21.124727628870691
 30
0.0
 70
    32
  0
VERTEX
  5
4969
  8
240
 10
-72.654786305036566
 20
-21.221327628870689
 30
0.0
 70
    32
  0
VERTEX
  5
496A
  8
240
 10
-72.949386305036569
 20
-21.314727628870688
 30
0.0
 70
    32
  0
VERTEX
  5
496B
  8
240
 10
-73.244086305036575
 20
-21.404927628870691
 30
0.0
 70
    32
  0
VERTEX
  5
496C
  8
240
 10
-73.53888630503657
 20
-21.491727628870692
 30
0.0
 70
    32
  0
VERTEX
  5
496D
  8
240
 10
-73.833686305036565
 20
-21.575227628870689
 30
0.0
 70
    32
  0
VERTEX
  5
496E
  8
240
 10
-74.128386305036571
 20
-21.65542762887069
 30
0.0
 70
    32
  0
VERTEX
  5
496F
  8
240
 10
-74.422986305036574
 20
-21.732227628870689
 30
0.0
 70
    32
  0
VERTEX
  5
4970
  8
240
 10
-74.71738630503657
 20
-21.805627628870688
 30
0.0
 70
    32
  0
VERTEX
  5
4971
  8
240
 10
-75.011686305036577
 20
-21.875627628870681
 30
0.0
 70
    32
  0
VERTEX
  5
4972
  8
240
 10
-75.305686305036573
 20
-21.94212762887069
 30
0.0
 70
    32
  0
VERTEX
  5
4973
  8
240
 10
-75.599386305036575
 20
-22.005227628870681
 30
0.0
 70
    32
  0
VERTEX
  5
4974
  8
240
 10
-75.892786305036566
 20
-22.064827628870681
 30
0.0
 70
    32
  0
VERTEX
  5
4975
  8
240
 10
-76.185686305036569
 20
-22.120927628870689
 30
0.0
 70
    32
  0
VERTEX
  5
4976
  8
240
 10
-76.478186305036573
 20
-22.173427628870691
 30
0.0
 70
    32
  0
VERTEX
  5
4977
  8
240
 10
-76.770186305036574
 20
-22.22242762887069
 30
0.0
 70
    32
  0
VERTEX
  5
4978
  8
240
 10
-77.061686305036574
 20
-22.267827628870691
 30
0.0
 70
    32
  0
VERTEX
  5
4979
  8
240
 10
-77.352486305036564
 20
-22.30952762887069
 30
0.0
 70
    32
  0
VERTEX
  5
497A
  8
240
 10
-77.642686305036577
 20
-22.347627628870679
 30
0.0
 70
    32
  0
VERTEX
  5
497B
  8
240
 10
-77.932186305036566
 20
-22.382027628870681
 30
0.0
 70
    32
  0
VERTEX
  5
497C
  8
240
 10
-78.220886305036572
 20
-22.412827628870691
 30
0.0
 70
    32
  0
VERTEX
  5
497D
  8
240
 10
-78.508886305036569
 20
-22.439827628870681
 30
0.0
 70
    32
  0
VERTEX
  5
497E
  8
240
 10
-78.795886305036575
 20
-22.463027628870691
 30
0.0
 70
    32
  0
VERTEX
  5
497F
  8
240
 10
-79.082086305036569
 20
-22.482527628870681
 30
0.0
 70
    32
  0
VERTEX
  5
4980
  8
240
 10
-79.367286305036572
 20
-22.498227628870691
 30
0.0
 70
    32
  0
VERTEX
  5
4981
  8
240
 10
-79.65148630503657
 20
-22.510127628870681
 30
0.0
 70
    32
  0
VERTEX
  5
4982
  8
240
 10
-79.934586305036575
 20
-22.51812762887069
 30
0.0
 70
    32
  0
VERTEX
  5
4983
  8
240
 10
-80.216686305036575
 20
-22.522227628870681
 30
0.0
 70
    32
  0
VERTEX
  5
4984
  8
240
 10
-80.497586305036577
 20
-22.522527628870691
 30
0.0
 70
    32
  0
VERTEX
  5
4985
  8
240
 10
-80.777186305036565
 20
-22.518827628870689
 30
0.0
 70
    32
  0
VERTEX
  5
4986
  8
240
 10
-81.055586305036556
 20
-22.511227628870689
 30
0.0
 70
    32
  0
VERTEX
  5
4987
  8
240
 10
-81.332686305036574
 20
-22.499627628870691
 30
0.0
 70
    32
  0
VERTEX
  5
4988
  8
240
 10
-81.608486305036564
 20
-22.484027628870692
 30
0.0
 70
    32
  0
VERTEX
  5
4989
  8
240
 10
-81.882786305036575
 20
-22.464327628870691
 30
0.0
 70
    32
  0
VERTEX
  5
498A
  8
240
 10
-82.155586305036564
 20
-22.44062762887069
 30
0.0
 70
    32
  0
VERTEX
  5
498B
  8
240
 10
-82.426986305036564
 20
-22.41292762887069
 30
0.0
 70
    32
  0
VERTEX
  5
498C
  8
240
 10
-82.696786305036568
 20
-22.38102762887069
 30
0.0
 70
    32
  0
VERTEX
  5
498D
  8
240
 10
-82.964886305036586
 20
-22.345027628870689
 30
0.0
 70
    32
  0
VERTEX
  5
498E
  8
240
 10
-83.231486305036569
 20
-22.304927628870679
 30
0.0
 70
    32
  0
VERTEX
  5
498F
  8
240
 10
-83.496286305036577
 20
-22.26052762887069
 30
0.0
 70
    32
  0
VERTEX
  5
4990
  8
240
 10
-83.759286305036554
 20
-22.212027628870679
 30
0.0
 70
    32
  0
VERTEX
  5
4991
  8
240
 10
-84.02048630503657
 20
-22.159227628870688
 30
0.0
 70
    32
  0
VERTEX
  5
4992
  8
240
 10
-84.27988630503657
 20
-22.102227628870679
 30
0.0
 70
    32
  0
VERTEX
  5
4993
  8
240
 10
-84.537286305036574
 20
-22.040927628870691
 30
0.0
 70
    32
  0
VERTEX
  5
4994
  8
240
 10
-84.792786305036572
 20
-21.975327628870691
 30
0.0
 70
    32
  0
VERTEX
  5
4995
  8
240
 10
-85.046186305036571
 20
-21.90542762887069
 30
0.0
 70
    32
  0
VERTEX
  5
4996
  8
240
 10
-85.297586305036575
 20
-21.831127628870689
 30
0.0
 70
    32
  0
VERTEX
  5
4997
  8
240
 10
-85.546886305036566
 20
-21.752527628870691
 30
0.0
 70
    32
  0
VERTEX
  5
4998
  8
240
 10
-85.793986305036569
 20
-21.66942762887069
 30
0.0
 70
    32
  0
VERTEX
  5
4999
  8
240
 10
-86.038786305036567
 20
-21.581927628870691
 30
0.0
 70
    32
  0
VERTEX
  5
499A
  8
240
 10
-86.281386305036577
 20
-21.489927628870682
 30
0.0
 70
    32
  0
VERTEX
  5
499B
  8
240
 10
-86.521686305036567
 20
-21.393527628870689
 30
0.0
 70
    32
  0
VERTEX
  5
499C
  8
240
 10
-86.759686305036567
 20
-21.29252762887069
 30
0.0
 70
    32
  0
VERTEX
  5
499D
  8
240
 10
-86.995186305036569
 20
-21.187027628870691
 30
0.0
 70
    32
  0
VERTEX
  5
499E
  8
240
 10
-87.228186305036587
 20
-21.076927628870688
 30
0.0
 70
    32
  0
VERTEX
  5
499F
  8
240
 10
-87.458686305036565
 20
-20.962327628870689
 30
0.0
 70
    32
  0
VERTEX
  5
49A0
  8
240
 10
-87.686586305036556
 20
-20.84312762887069
 30
0.0
 70
    32
  0
VERTEX
  5
49A1
  8
240
 10
-87.911886305036575
 20
-20.719227628870691
 30
0.0
 70
    32
  0
VERTEX
  5
49A2
  8
240
 10
-88.134586305036578
 20
-20.590627628870688
 30
0.0
 70
    32
  0
VERTEX
  5
49A3
  8
240
 10
-88.354486305036573
 20
-20.45752762887069
 30
0.0
 70
    32
  0
VERTEX
  5
49A4
  8
240
 10
-88.571786305036568
 20
-20.319727628870691
 30
0.0
 70
    32
  0
VERTEX
  5
49A5
  8
240
 10
-88.786286305036569
 20
-20.177427628870689
 30
0.0
 70
    32
  0
VERTEX
  5
49A6
  8
240
 10
-88.998086305036566
 20
-20.030627628870679
 30
0.0
 70
    32
  0
VERTEX
  5
49A7
  8
240
 10
-89.207186305036572
 20
-19.87942762887069
 30
0.0
 70
    32
  0
VERTEX
  5
49A8
  8
240
 10
-89.413586305036574
 20
-19.72382762887068
 30
0.0
 70
    32
  0
VERTEX
  5
49A9
  8
240
 10
-89.617286305036572
 20
-19.56392762887069
 30
0.0
 70
    32
  0
VERTEX
  5
49AA
  8
240
 10
-89.818186305036576
 20
-19.399827628870678
 30
0.0
 70
    32
  0
VERTEX
  5
49AB
  8
240
 10
-90.016486305036565
 20
-19.23152762887069
 30
0.0
 70
    32
  0
VERTEX
  5
49AC
  8
240
 10
-90.211986305036575
 20
-19.059127628870691
 30
0.0
 70
    32
  0
VERTEX
  5
49AD
  8
240
 10
-90.404686305036577
 20
-18.88252762887068
 30
0.0
 70
    32
  0
VERTEX
  5
49AE
  8
240
 10
-90.594786305036564
 20
-18.702027628870681
 30
0.0
 70
    32
  0
VERTEX
  5
49AF
  8
240
 10
-90.781986305036554
 20
-18.517427628870681
 30
0.0
 70
    32
  0
VERTEX
  5
49B0
  8
240
 10
-90.966586305036572
 20
-18.329027628870691
 30
0.0
 70
    32
  0
VERTEX
  5
49B1
  8
240
 10
-91.148386305036567
 20
-18.136727628870691
 30
0.0
 70
    32
  0
VERTEX
  5
49B2
  8
240
 10
-91.327386305036569
 20
-17.940627628870679
 30
0.0
 70
    32
  0
VERTEX
  5
49B3
  8
240
 10
-91.503686305036567
 20
-17.74072762887068
 30
0.0
 70
    32
  0
VERTEX
  5
49B4
  8
240
 10
-91.677286305036574
 20
-17.537227628870681
 30
0.0
 70
    32
  0
VERTEX
  5
49B5
  8
240
 10
-91.848086305036574
 20
-17.330127628870681
 30
0.0
 70
    32
  0
VERTEX
  5
49B6
  8
240
 10
-92.016086305036566
 20
-17.119327628870678
 30
0.0
 70
    32
  0
VERTEX
  5
49B7
  8
240
 10
-92.181286305036565
 20
-16.905127628870691
 30
0.0
 70
    32
  0
VERTEX
  5
49B8
  8
240
 10
-92.343786305036573
 20
-16.68742762887069
 30
0.0
 70
    32
  0
VERTEX
  5
49B9
  8
240
 10
-92.503586305036578
 20
-16.46632762887068
 30
0.0
 70
    32
  0
VERTEX
  5
49BA
  8
240
 10
-92.660486305036571
 20
-16.241827628870691
 30
0.0
 70
    32
  0
VERTEX
  5
49BB
  8
240
 10
-92.814686305036574
 20
-16.014027628870679
 30
0.0
 70
    32
  0
VERTEX
  5
49BC
  8
240
 10
-92.966086305036569
 20
-15.783127628870689
 30
0.0
 70
    32
  0
VERTEX
  5
49BD
  8
240
 10
-93.114586305036553
 20
-15.548927628870681
 30
0.0
 70
    32
  0
VERTEX
  5
49BE
  8
240
 10
-93.260486305036565
 20
-15.31162762887069
 30
0.0
 70
    32
  0
VERTEX
  5
49BF
  8
240
 10
-93.403486305036566
 20
-15.071227628870689
 30
0.0
 70
    32
  0
VERTEX
  5
49C0
  8
240
 10
-93.543686305036573
 20
-14.82792762887069
 30
0.0
 70
    32
  0
VERTEX
  5
49C1
  8
240
 10
-93.681086305036573
 20
-14.581627628870679
 30
0.0
 70
    32
  0
VERTEX
  5
49C2
  8
240
 10
-93.815786305036568
 20
-14.33232762887069
 30
0.0
 70
    32
  0
VERTEX
  5
49C3
  8
240
 10
-93.947586305036566
 20
-14.080327628870689
 30
0.0
 70
    32
  0
VERTEX
  5
49C4
  8
240
 10
-94.076586305036571
 20
-13.82542762887069
 30
0.0
 70
    32
  0
VERTEX
  5
49C5
  8
240
 10
-94.202786305036568
 20
-13.56792762887069
 30
0.0
 70
    32
  0
VERTEX
  5
49C6
  8
240
 10
-94.326186305036572
 20
-13.307627628870691
 30
0.0
 70
    32
  0
VERTEX
  5
49C7
  8
240
 10
-94.446786305036568
 20
-13.04482762887068
 30
0.0
 70
    32
  0
VERTEX
  5
49C8
  8
240
 10
-94.564486305036553
 20
-12.77942762887068
 30
0.0
 70
    32
  0
VERTEX
  5
49C9
  8
240
 10
-94.679386305036573
 20
-12.51142762887069
 30
0.0
 70
    32
  0
VERTEX
  5
49CA
  8
240
 10
-94.791486305036557
 20
-12.241127628870689
 30
0.0
 70
    32
  0
VERTEX
  5
49CB
  8
240
 10
-94.900786305036576
 20
-11.96832762887068
 30
0.0
 70
    32
  0
VERTEX
  5
49CC
  8
240
 10
-95.007286305036558
 20
-11.693227628870689
 30
0.0
 70
    32
  0
VERTEX
  5
49CD
  8
240
 10
-95.110886305036573
 20
-11.415927628870691
 30
0.0
 70
    32
  0
VERTEX
  5
49CE
  8
240
 10
-95.211586305036576
 20
-11.13632762887069
 30
0.0
 70
    32
  0
VERTEX
  5
49CF
  8
240
 10
-95.309486305036557
 20
-10.854627628870681
 30
0.0
 70
    32
  0
VERTEX
  5
49D0
  8
240
 10
-95.404586305036574
 20
-10.57072762887068
 30
0.0
 70
    32
  0
VERTEX
  5
49D1
  8
240
 10
-95.496786305036565
 20
-10.28482762887068
 30
0.0
 70
    32
  0
VERTEX
  5
49D2
  8
240
 10
-95.586186305036577
 20
-9.9969276288706883
 30
0.0
 70
    32
  0
VERTEX
  5
49D3
  8
240
 10
-95.672686305036578
 20
-9.7070876288706884
 30
0.0
 70
    32
  0
VERTEX
  5
49D4
  8
240
 10
-95.756286305036554
 20
-9.4153776288706883
 30
0.0
 70
    32
  0
VERTEX
  5
49D5
  8
240
 10
-95.837086305036564
 20
-9.1218276288706868
 30
0.0
 70
    32
  0
VERTEX
  5
49D6
  8
240
 10
-95.915086305036567
 20
-8.8265176288706861
 30
0.0
 70
    32
  0
VERTEX
  5
49D7
  8
240
 10
-95.99008630503657
 20
-8.5294976288706881
 30
0.0
 70
    32
  0
VERTEX
  5
49D8
  8
240
 10
-96.062286305036565
 20
-8.2308176288706871
 30
0.0
 70
    32
  0
VERTEX
  5
49D9
  8
240
 10
-96.131586305036578
 20
-7.9305376288706881
 30
0.0
 70
    32
  0
VERTEX
  5
49DA
  8
240
 10
-96.197986305036565
 20
-7.6287076288706874
 30
0.0
 70
    32
  0
VERTEX
  5
49DB
  8
240
 10
-96.261586305036573
 20
-7.3253976288706868
 30
0.0
 70
    32
  0
VERTEX
  5
49DC
  8
240
 10
-96.322186305036581
 20
-7.020657628870687
 30
0.0
 70
    32
  0
VERTEX
  5
49DD
  8
240
 10
-96.379986305036567
 20
-6.7145476288706858
 30
0.0
 70
    32
  0
VERTEX
  5
49DE
  8
240
 10
-96.434886305036571
 20
-6.4071076288706861
 30
0.0
 70
    32
  0
VERTEX
  5
49DF
  8
240
 10
-96.486786305036574
 20
-6.0984176288706857
 30
0.0
 70
    32
  0
VERTEX
  5
49E0
  8
240
 10
-96.53588630503657
 20
-5.7885176288706868
 30
0.0
 70
    32
  0
VERTEX
  5
49E1
  8
240
 10
-96.582086305036583
 20
-5.4774676288706869
 30
0.0
 70
    32
  0
VERTEX
  5
49E2
  8
240
 10
-96.625386305036571
 20
-5.1653276288706857
 30
0.0
 70
    32
  0
VERTEX
  5
49E3
  8
240
 10
-96.665686305036573
 20
-4.8521576288706871
 30
0.0
 70
    32
  0
VERTEX
  5
49E4
  8
240
 10
-96.703186305036581
 20
-4.537997628870686
 30
0.0
 70
    32
  0
VERTEX
  5
49E5
  8
240
 10
-96.737686305036576
 20
-4.2229176288706869
 30
0.0
 70
    32
  0
VERTEX
  5
49E6
  8
240
 10
-96.769286305036573
 20
-3.9069776288706861
 30
0.0
 70
    32
  0
VERTEX
  5
49E7
  8
240
 10
-96.797986305036574
 20
-3.5902176288706871
 30
0.0
 70
    32
  0
VERTEX
  5
49E8
  8
240
 10
-96.823786305036577
 20
-3.2727176288706872
 30
0.0
 70
    32
  0
VERTEX
  5
49E9
  8
240
 10
-96.846686305036584
 20
-2.9545076288706862
 30
0.0
 70
    32
  0
VERTEX
  5
49EA
  8
240
 10
-96.866586305036563
 20
-2.6356576288706872
 30
0.0
 70
    32
  0
VERTEX
  5
49EB
  8
240
 10
-96.88348630503657
 20
-2.3162276288706871
 30
0.0
 70
    32
  0
VERTEX
  5
49EC
  8
240
 10
-96.897586305036569
 20
-1.9962676288706871
 30
0.0
 70
    32
  0
VERTEX
  5
49ED
  8
240
 10
-96.908686305036582
 20
-1.6758376288706871
 30
0.0
 70
    32
  0
VERTEX
  5
49EE
  8
240
 10
-96.916786305036567
 20
-1.3549946288706869
 30
0.0
 70
    32
  0
VERTEX
  5
49EF
  8
240
 10
-96.921986305036569
 20
-1.0337896288706869
 30
0.0
 70
    32
  0
VERTEX
  5
49F0
  8
240
 10
-96.924286305036574
 20
-0.7122816288706872
 30
0.0
 70
    32
  0
VERTEX
  5
49F1
  8
240
 10
-96.923586305036565
 20
-0.3905276288568085
 30
0.0
 70
    32
  0
SEQEND
  5
49F2
  8
240
  0
VIEWPORT
  5
22
 67
     1
  8
0
 10
261.51769911504419
 20
148.5
 30
0.0
 40
523.0353982300885
 41
297.0
 68
     1
 69
     1
1001
ACAD
1000
MVIEW
1002
{
1070
    16
1010
0.0
1020
0.0
1030
0.0
1010
0.0
1020
0.0
1030
1.0
1040
0.0
1040
297.0
1040
261.51769911504419
1040
148.5
1040
50.0
1040
0.0
1040
0.0
1070
     0
1070
   100
1070
     1
1070
     1
1070
     0
1070
     0
1070
     0
1070
     0
1040
0.0
1040
0.0
1040
0.0
1040
1.0
1040
1.0
1040
10.0
1040
10.0
1070
     0
1002
{
1002
}
1002
}
1001
GENIUS_GENODEF_13
1002
{
1000
HIER
1070
     0
1002
}
1002
{
1000
MANEDIT
1070
     0
1002
}
1002
{
1000
NOSEL
1070
     0
1002
}
1002
{
1000
BEHIND
1070
     0
1002
}
1002
{
1000
OTHER
1070
     0
1002
}
1002
{
1000
REACTOR
1002
}
1001
GENIUS_GENOBJ-N-SDF_13
1002
{
1000
OWNER
1000
GEN
1002
}
1001
GENIUS_GENSCREG_15
1000
PF
1040
1.0
1000
DF
1040
1.0
1000
MIN
1011
0.0
1021
0.0
1031
0.0
1021
0.0
1031
0.0
1000
MAX
1011
523.0353982300885
1021
0.0
1031
0.0
1021
297.0
1031
0.0
1000
FLAGS
1070
     4
  0
ENDSEC
  0
EOF
