  0
SECTION
  2
HEADER
  9
$ACADVER
  1
AC1009
  9
$INSBASE
 10
0.0
 20
0.0
 30
0.0
  9
$EXTMIN
 10
-100.1550187717223
 20
-32.455008414138391
 30
0.0
  9
$EXTMAX
 10
106.3702273800001
 20
61.000000000000007
 30
0.0
  9
$LIMMIN
 10
0.0
 20
0.0
  9
$LIMMAX
 10
297.0
 20
210.0
  9
$ORTHOMODE
 70
     1
  9
$REGENMODE
 70
     1
  9
$FILLMODE
 70
     1
  9
$QTEXTMODE
 70
     0
  9
$MIRRTEXT
 70
     1
  9
$DRAGMODE
 70
     2
  9
$LTSCALE
 40
10.0
  9
$OSMODE
 70
    39
  9
$ATTMODE
 70
     1
  9
$TEXTSIZE
 40
3.0
  9
$TRACEWID
 40
1.0
  9
$TEXTSTYLE
  7
YOKO
  9
$CLAYER
  8
240
  9
$CELTYPE
  6
BYLAYER
  9
$CECOLOR
 62
   256
  9
$DIMSCALE
 40
1.0
  9
$DIMASZ
 40
2.2299999999999991
  9
$DIMEXO
 40
0.5
  9
$DIMDLI
 40
7.0
  9
$DIMRND
 40
0.0
  9
$DIMDLE
 40
0.0
  9
$DIMEXE
 40
1.0
  9
$DIMTP
 40
0.0
  9
$DIMTM
 40
0.01
  9
$DIMTXT
 40
2.799999999999998
  9
$DIMCEN
 40
0.0
  9
$DIMTSZ
 40
0.0
  9
$DIMTOL
 70
     0
  9
$DIMLIM
 70
     0
  9
$DIMTIH
 70
     0
  9
$DIMTOH
 70
     0
  9
$DIMSE1
 70
     0
  9
$DIMSE2
 70
     0
  9
$DIMTAD
 70
     3
  9
$DIMZIN
 70
     9
  9
$DIMBLK
  1
OPEN
  9
$DIMASO
 70
     1
  9
$DIMSHO
 70
     1
  9
$DIMPOST
  1

  9
$DIMAPOST
  1

  9
$DIMALT
 70
     0
  9
$DIMALTD
 70
     2
  9
$DIMALTF
 40
25.399999999999999
  9
$DIMLFAC
 40
1.0
  9
$DIMTOFL
 70
     1
  9
$DIMTVP
 40
0.0
  9
$DIMTIX
 70
     1
  9
$DIMSOXD
 70
     0
  9
$DIMSAH
 70
     0
  9
$DIMBLK1
  1

  9
$DIMBLK2
  1

  9
$DIMSTYLE
  2
BIGT
  9
$DIMCLRD
 70
   256
  9
$DIMCLRE
 70
   256
  9
$DIMCLRT
 70
    40
  9
$DIMTFAC
 40
1.0
  9
$DIMGAP
 40
1.0
  9
$LUNITS
 70
     2
  9
$LUPREC
 70
     6
  9
$SKETCHINC
 40
1.0
  9
$FILLETRAD
 40
5.0
  9
$AUNITS
 70
     0
  9
$AUPREC
 70
     6
  9
$MENU
  1
.
  9
$ELEVATION
 40
0.0
  9
$PELEVATION
 40
0.0
  9
$THICKNESS
 40
0.0
  9
$LIMCHECK
 70
     0
  9
$BLIPMODE
 70
     0
  9
$CHAMFERA
 40
0.2
  9
$CHAMFERB
 40
0.2
  9
$SKPOLY
 70
     0
  9
$TDCREATE
 40
2457746.4833408222
  9
$TDUPDATE
 40
2459608.5870760069
  9
$TDINDWG
 40
0.0063442593
  9
$TDUSRTIMER
 40
0.006344213
  9
$USRTIMER
 70
     1
  9
$ANGBASE
 50
0.0
  9
$ANGDIR
 70
     0
  9
$PDMODE
 70
     1
  9
$PDSIZE
 40
0.0
  9
$PLINEWID
 40
0.0
  9
$COORDS
 70
     1
  9
$SPLFRAME
 70
     0
  9
$SPLINETYPE
 70
     6
  9
$SPLINESEGS
 70
     4
  9
$ATTDIA
 70
     1
  9
$ATTREQ
 70
     1
  9
$HANDLING
 70
     1
  9
$HANDSEED
  5
4A4C
  9
$SURFTAB1
 70
     6
  9
$SURFTAB2
 70
     6
  9
$SURFTYPE
 70
     6
  9
$SURFU
 70
     6
  9
$SURFV
 70
     6
  9
$UCSNAME
  2

  9
$UCSORG
 10
0.0
 20
0.0
 30
0.0
  9
$UCSXDIR
 10
1.0
 20
0.0
 30
0.0
  9
$UCSYDIR
 10
0.0
 20
1.0
 30
0.0
  9
$PUCSNAME
  2

  9
$PUCSORG
 10
0.0
 20
0.0
 30
0.0
  9
$PUCSXDIR
 10
1.0
 20
0.0
 30
0.0
  9
$PUCSYDIR
 10
0.0
 20
1.0
 30
0.0
  9
$USERI1
 70
     1
  9
$USERI2
 70
     0
  9
$USERI3
 70
     0
  9
$USERI4
 70
     0
  9
$USERI5
 70
     0
  9
$USERR1
 40
0.0
  9
$USERR2
 40
0.0
  9
$USERR3
 40
0.0
  9
$USERR4
 40
0.0
  9
$USERR5
 40
0.0
  9
$WORLDVIEW
 70
     1
  9
$SHADEDGE
 70
     3
  9
$SHADEDIF
 70
    70
  9
$TILEMODE
 70
     1
  9
$MAXACTVP
 70
    16
  9
$PLIMCHECK
 70
     0
  9
$PEXTMIN
 10
1.0000000000000000E+020
 20
1.0000000000000000E+020
 30
1.0000000000000000E+020
  9
$PEXTMAX
 10
-1.0000000000000000E+020
 20
-1.0000000000000000E+020
 30
-1.0000000000000000E+020
  9
$PLIMMIN
 10
0.0
 20
0.0
  9
$PLIMMAX
 10
420.0
 20
297.0
  9
$UNITMODE
 70
     0
  9
$VISRETAIN
 70
     1
  9
$PLINEGEN
 70
     0
  9
$PSLTSCALE
 70
     1
  0
ENDSEC
  0
SECTION
  2
TABLES
  0
TABLE
  2
VPORT
 70
     1
  0
VPORT
  2
*ACTIVE
 70
     0
 10
0.0
 20
0.0
 11
1.0
 21
1.0
 12
4.7891458867527481
 22
12.72326851476666
 13
0.0
 23
0.0
 14
7.0
 24
7.0
 15
7.0
 25
7.0
 16
0.0
 26
0.0
 36
1.0
 17
0.0
 27
0.0
 37
0.0
 40
149.04335888544739
 41
1.488859764089121
 42
50.0
 43
0.0
 44
0.0
 50
0.0
 51
0.0
 71
     0
 72
  2000
 73
     1
 74
     0
 75
     0
 76
     1
 77
     0
 78
     0
  0
ENDTAB
  0
TABLE
  2
LTYPE
 70
    21
  0
LTYPE
  2
CONTINUOUS
 70
     0
  3
Solid line
 72
    65
 73
     0
 40
0.0
  0
LTYPE
  2
CENTER2
 70
     0
  3
___ _ ___ _ ___ _ ___ _ ___ _ ___ _ ___ _ ___ _
 72
    65
 73
     4
 40
1.125
 49
0.75
 49
-0.125
 49
0.125
 49
-0.125
  0
LTYPE
  2
HIDDEN2
 70
     0
  3
_ _ _ _ _ _ _ _ _ _ _ _ _ _ _ _ _ _ _ _ _ _ _ _
 72
    65
 73
     2
 40
0.1875
 49
0.125
 49
-0.0625
  0
LTYPE
  2
PHANTOM2
 70
     0
  3
___ _ _ ___ _ _ ___ _ _ ___ _ _ ___ _ _ ___ _ _
 72
    65
 73
     6
 40
1.25
 49
0.625
 49
-0.125
 49
0.125
 49
-0.125
 49
0.125
 49
-0.125
  0
LTYPE
  2
AMCONSTR
 70
     0
  3
_______________________
 72
    65
 73
     2
 40
9999.0
 49
9999.0
 49
0.0
  0
LTYPE
  2
HIDDEN
 70
     0
  3
Hidden __ __ __ __ __ __ __ __ __ __ __ __ __ _
 72
    65
 73
     2
 40
0.375
 49
0.25
 49
-0.125
  0
LTYPE
  2
CENTER
 70
     0
  3
Center ____ _ ____ _ ____ _ ____ _ ____ _ ____
 72
    65
 73
     4
 40
2.0
 49
1.25
 49
-0.25
 49
0.25
 49
-0.25
  0
LTYPE
  2
AMZIGZAG2
 70
     0
  3
/\/-/\/-/\/-/\/-/\/-/\/
 72
    65
 73
     2
 40
0.4401
 49
0.0001
 49
-0.4400000000000001
  0
LTYPE
  2
ACANSTGB
 70
     0
  3
__ . . __ . .
 72
    65
 73
     6
 40
0.35433070866
 49
0.15748031496
 49
-0.03937007874
 49
0.03937007874
 49
-0.03937007874
 49
0.03937007874
 49
-0.03937007874
  0
LTYPE
  2
ACANSTGL
 70
     0
  3
_ _ _ _ _
 72
    65
 73
     2
 40
0.11811023622
 49
0.07874015748
 49
-0.03937007874
  0
ENDTAB
  0
TABLE
  2
LAYER
 70
    10
  0
LAYER
  2
0
 70
     0
 62
     7
  6
CONTINUOUS
  0
LAYER
  2
240
 70
     0
 62
     4
  6
CONTINUOUS
  0
LAYER
  2
DEFPOINTS
 70
     0
 62
     7
  6
CONTINUOUS
  0
LAYER
  2
245
 70
     0
 62
     2
  6
CENTER2
  0
LAYER
  2
241
 70
     0
 62
   211
  6
CONTINUOUS
  0
LAYER
  2
242
 70
     0
 62
     3
  6
CONTINUOUS
  0
LAYER
  2
243
 70
     0
 62
   211
  6
HIDDEN2
  0
LAYER
  2
247
 70
     0
 62
    60
  6
CONTINUOUS
  0
LAYER
  2
250
 70
     0
 62
     3
  6
CONTINUOUS
  0
ENDTAB
  0
TABLE
  2
STYLE
 70
    10
  0
STYLE
  2
STANDARD
 70
     0
 40
0.0
 41
1.0
 50
0.0
 71
     0
 42
3.0
  3
romans.shx
  4
extfont.shx
  0
STYLE
  2
YOKO
 70
     0
 40
0.0
 41
1.0
 50
0.0
 71
     0
 42
3.0
  3
romans.shx
  4
extfont.shx
  0
STYLE
  2

 70
     1
 40
0.0
 41
1.0
 50
0.0
 71
     0
 42
3.0
  3
genltshp.shx
  4

  0
STYLE
  2
ACANSGDT
 70
     0
 40
0.0
 41
1.0
 50
0.0
 71
     0
 42
3.0
  3
amgdt.shx
  4

  0
ENDTAB
  0
TABLE
  2
VIEW
 70
     0
  0
ENDTAB
  0
TABLE
  2
UCS
 70
     0
  0
ENDTAB
  0
TABLE
  2
APPID
 70
    39
  0
APPID
  2
ACAD
 70
     0
  0
APPID
  2
ACADANNOTATIVE
 70
     0
  0
APPID
  2
GLOBAL
 70
     0
  0
APPID
  2
DETAIL
 70
     0
  0
APPID
  2
GRPNAME
 70
     0
  0
APPID
  2
GPARA
 70
     0
  0
APPID
  2
MCAD_NO_VIS
 70
     0
  0
APPID
  2
ACAD_TEMP_GRAPHIC
 70
     0
  0
APPID
  2
ACATTRIBSERVICES
 70
     0
  0
APPID
  2
GENIUS_GENSCREG_15
 70
     0
  0
APPID
  2
GENIUS_GENODEF_13
 70
     0
  0
APPID
  2
GENIUS_GENOBJ-N-SDF_13
 70
     0
  0
APPID
  2
GENIUS_GENREC_14
 70
     0
  0
APPID
  2
GENIUS_GENOBJ-N-REC_13
 70
     0
  0
APPID
  2
GENIUS_GENDIMSH_14
 70
     0
  0
APPID
  2
GENIUS_GENOBJ-N-DIM_13
 70
     0
  0
APPID
  2
GENIUS_GENDIM_13
 70
     0
  0
APPID
  2
GENIUS_GENDTOL_13
 70
     0
  0
APPID
  2
GENIUS_GENOLIS_13
 70
     0
  0
APPID
  2
GENIUS_GENOENT_13
 70
     0
  0
APPID
  2
GENIUS_GENOBJ-F-FEM_13
 70
     0
  0
APPID
  2
GENIUS_GENOREF_13
 70
     0
  0
APPID
  2
GENIUS_GEFFEM_13
 70
     0
  0
APPID
  2
GENIUS_GEFFEMP_13
 70
     0
  0
APPID
  2
AD_DRAW
 70
     0
  0
APPID
  2
DESIGNERASSEMBLIES
 70
     0
  0
APPID
  2
ACADM_DIM_EDIT
 70
     0
  0
APPID
  2
AMDT_DM_ADJ
 70
     0
  0
APPID
  2
ITEMNAME
 70
     0
  0
APPID
  2
GENIUS_GENOBJ-N-FIL_13
 70
     0
  0
APPID
  2
GENIUS_GENFIL_13
 70
     0
  0
APPID
  2
GENIUS_GENOBJ-N-CHA_13
 70
     0
  0
APPID
  2
ACAD_NAV_VCDISPLAY
 70
     0
  0
APPID
  2
ACAD_EXEMPT_FROM_CAD_STANDARDS
 70
     0
  0
APPID
  2
ACAD_DSTYLE_DIMJAG
 70
     0
  0
APPID
  2
ACAD_DSTYLE_DIMBREAK
 70
     0
  0
APPID
  2
ACAD_MLEADERVER
 70
     0
  0
APPID
  2
ACAECLAYERSTANDARD
 70
     0
  0
APPID
  2
ACAD_DSTYLE_DIMINSPECT
 70
     0
  0
ENDTAB
  0
TABLE
  2
DIMSTYLE
 70
    31
  0
DIMSTYLE
  2
STANDARD
 70
     0
  3

  4

  5

  6

  7

 40
1.0
 41
0.18
 42
0.0625
 43
0.38
 44
0.18
 45
0.0
 46
0.0
 47
0.0
 48
0.0
140
0.18
141
0.09
142
0.0
143
25.399999999999999
144
1.0
145
0.0
146
1.0
147
0.09
 71
     0
 72
     0
 73
     1
 74
     1
 75
     0
 76
     0
 77
     0
 78
     0
170
     0
171
     2
172
     0
173
     0
174
     0
175
     0
176
     0
177
     0
178
     0
  0
DIMSTYLE
  2
BIGT
 70
     0
  3

  4

  5

  6

  7

 40
1.0
 41
2.2299999999999991
 42
0.5
 43
7.0
 44
1.0
 45
0.0
 46
0.0
 47
0.0
 48
0.01
140
2.799999999999998
141
0.0
142
0.0
143
25.399999999999999
144
1.0
145
0.0
146
1.0
147
1.0
 71
     0
 72
     0
 73
     0
 74
     0
 75
     0
 76
     0
 77
     3
 78
     9
170
     0
171
     2
172
     1
173
     0
174
     1
175
     0
176
   256
177
   256
178
    40
  0
DIMSTYLE
  2
AM_ANSI
 70
     0
  3

  4
mm
  5

  6

  7

 40
1.0
 41
0.12
 42
0.05
 43
0.5
 44
0.1
 45
0.0
 46
0.0
 47
0.1
 48
0.1
140
0.12
141
0.0
142
0.0
143
25.399999999999999
144
1.0
145
0.0
146
0.71
147
0.06
 71
     0
 72
     0
 73
     1
 74
     1
 75
     0
 76
     0
 77
     0
 78
     7
170
     0
171
     2
172
     0
173
     0
174
     0
175
     0
176
   256
177
   256
178
     2
  0
DIMSTYLE
  2
AM_ANSI$3
 70
     0
  3

  4
mm
  5

  6

  7

 40
1.0
 41
0.12
 42
0.05
 43
0.5
 44
0.1
 45
0.0
 46
0.0
 47
0.1
 48
0.1
140
0.12
141
0.0
142
0.0
143
25.399999999999999
144
1.0
145
0.0
146
0.71
147
0.06
 71
     0
 72
     0
 73
     1
 74
     1
 75
     0
 76
     0
 77
     0
 78
     7
170
     0
171
     2
172
     0
173
     0
174
     0
175
     0
176
   256
177
   256
178
     2
  0
DIMSTYLE
  2
AM_ANSI$4
 70
     0
  3

  4
mm
  5

  6

  7

 40
1.0
 41
0.12
 42
0.05
 43
0.5
 44
0.1
 45
0.0
 46
0.0
 47
0.1
 48
0.1
140
0.12
141
0.0
142
0.0
143
25.399999999999999
144
1.0
145
0.0
146
0.71
147
0.06
 71
     0
 72
     0
 73
     1
 74
     1
 75
     0
 76
     0
 77
     0
 78
     7
170
     0
171
     2
172
     0
173
     0
174
     0
175
     0
176
   256
177
   256
178
     2
  0
DIMSTYLE
  2
AM_ANSI$7
 70
     0
  3

  4
mm
  5

  6

  7

 40
1.0
 41
0.12
 42
0.05
 43
0.5
 44
0.1
 45
0.0
 46
0.0
 47
0.1
 48
0.1
140
0.12
141
0.0
142
0.0
143
25.399999999999999
144
1.0
145
0.0
146
0.71
147
0.06
 71
     0
 72
     0
 73
     1
 74
     1
 75
     0
 76
     0
 77
     0
 78
     7
170
     0
171
     2
172
     0
173
     0
174
     0
175
     0
176
   256
177
   256
178
     2
  0
DIMSTYLE
  2
AM_ANSI$SF
 70
     0
  3

  4
mm
  5

  6

  7

 40
1.0
 41
0.12
 42
0.05
 43
0.5
 44
0.1
 45
0.0
 46
0.0
 47
0.1
 48
0.1
140
0.12
141
0.0
142
0.0
143
25.399999999999999
144
1.0
145
0.0
146
0.71
147
0.06
 71
     0
 72
     0
 73
     1
 74
     1
 75
     1
 76
     1
 77
     0
 78
     7
170
     0
171
     2
172
     0
173
     0
174
     0
175
     0
176
   256
177
   256
178
     2
  0
DIMSTYLE
  2
AM_ANSI$SH
 70
     0
  3

  4
mm
  5

  6
GENAXEH
  7

 40
1.0
 41
0.12
 42
0.05
 43
0.5
 44
0.1
 45
0.0
 46
0.0
 47
0.1
 48
0.1
140
0.12
141
0.0
142
0.0
143
25.399999999999999
144
1.0
145
0.0
146
0.71
147
0.06
 71
     0
 72
     0
 73
     1
 74
     1
 75
     1
 76
     1
 77
     0
 78
     7
170
     0
171
     2
172
     0
173
     1
174
     0
175
     0
176
   256
177
   256
178
     2
  0
ENDTAB
  0
ENDSEC
  0
SECTION
  2
BLOCKS
  0
BLOCK
  8
0
  2
$MODEL_SPACE
 70
     0
 10
0.0
 20
0.0
 30
0.0
  3
$MODEL_SPACE
  1

  0
ENDBLK
  5
44ED
  8
0
  0
BLOCK
 67
     1
  8
0
  2
$PAPER_SPACE
 70
     0
 10
0.0
 20
0.0
 30
0.0
  3
$PAPER_SPACE
  1

  0
ENDBLK
  5
44E9
 67
     1
  8
0
  0
BLOCK
  8
0
  2
_OPEN
 70
     0
 10
0.0
 20
0.0
 30
0.0
  3
_OPEN
  1

  0
LINE
  5
4384
  8
0
  6
BYBLOCK
 62
     0
 10
-1.0
 20
0.1666666666666666
 30
0.0
 11
0.0
 21
0.0
 31
0.0
  0
LINE
  5
4385
  8
0
  6
BYBLOCK
 62
     0
 10
-1.0
 20
-0.1666666666666666
 30
0.0
 11
0.0
 21
0.0
 31
0.0
  0
LINE
  5
4386
  8
0
  6
BYBLOCK
 62
     0
 10
0.0
 20
0.0
 30
0.0
 11
-1.0
 21
0.0
 31
0.0
  0
ENDBLK
  5
4387
  8
0
  0
BLOCK
  8
0
  2
GENAXEH
 70
     0
 10
0.0
 20
0.0
 30
0.0
  3
GENAXEH
  1

  0
LINE
  5
43BF
  8
0
 10
-1.0
 20
0.0
 30
0.0
 11
1.0
 21
0.0
 31
0.0
  0
ENDBLK
  5
43C0
  8
0
  0
BLOCK
  8
0
  2
_ACMFILLEDHALF
 70
     0
 10
0.0
 20
0.0
 30
0.0
  3
_ACMFILLEDHALF
  1

  0
TRACE
  5
45AD
  8
240
 62
     0
 10
-0.8
 20
0.0
 30
0.0
 11
-1.0
 21
0.166666666
 31
0.0
 12
0.0
 22
0.0
 32
0.0
 13
0.0
 23
0.0
 33
0.0
  0
LINE
  5
45AE
  8
240
 62
     0
 10
-1.0
 20
0.0
 30
0.0
 11
-0.8
 21
0.0
 31
0.0
  0
ENDBLK
  5
45AC
  8
0
  0
ENDSEC
  0
SECTION
  2
ENTITIES
  0
LINE
  5
422C
  8
245
  6
CENTER2
 10
-39.0
 20
0.0
 30
0.0
 11
91.0
 21
0.0
 31
0.0
  0
LINE
  5
422D
  8
240
  6
CONTINUOUS
 10
0.0
 20
31.5
 30
0.0
 11
0.0
 21
21.630611991142189
 31
0.0
  0
LINE
  5
422E
  8
240
  6
CONTINUOUS
 10
-38.0
 20
-20.68052849476301
 30
0.0
 11
-38.0
 21
20.680528494763141
 31
0.0
  0
LINE
  5
422F
  8
241
  6
CONTINUOUS
 10
-38.0
 20
-3.594500000000008
 30
0.0
 11
-31.550000000000011
 21
-3.594500000000008
 31
0.0
  0
LINE
  5
4230
  8
241
  6
CONTINUOUS
 10
-38.0
 20
3.594500000000008
 30
0.0
 11
-31.550000000000011
 21
3.594500000000008
 31
0.0
  0
LINE
  5
4231
  8
241
  6
CONTINUOUS
 10
-31.550000000000011
 20
-3.594500000000008
 30
0.0
 11
-31.550000000000011
 21
3.594500000000008
 31
0.0
  0
LINE
  5
4232
  8
240
  6
CONTINUOUS
 10
22.0
 20
-31.5
 30
0.0
 11
22.0
 21
-16.999999999999758
 31
0.0
  0
LINE
  5
4233
  8
240
  6
CONTINUOUS
 10
0.0
 20
-31.5
 30
0.0
 11
0.0
 21
-21.630611991141851
 31
0.0
  0
LINE
  5
4234
  8
241
  6
CONTINUOUS
 10
0.0
 20
-21.630611991141851
 30
0.0
 11
0.0
 21
21.630611991142189
 31
0.0
  0
LINE
  5
4235
  8
250
  6
CONTINUOUS
 10
-18.785867276320712
 20
-22.942252325237192
 30
0.0
 11
-17.348994501247521
 21
-21.196849008131231
 31
0.0
  0
LINE
  5
4236
  8
250
  6
CONTINUOUS
 10
-18.142121726174281
 20
-23.313918991903861
 30
0.0
 11
-17.348994501247521
 21
-21.196849008131231
 31
0.0
  0
LINE
  5
4237
  8
250
  6
CONTINUOUS
 10
-17.348994501247521
 20
-21.196849008131231
 30
0.0
 11
-18.46399450124753
 21
-23.128085658570541
 31
0.0
  0
POLYLINE
  5
4238
  8
250
  6
CONTINUOUS
 66
     1
 10
0.0
 20
0.0
 30
0.0
  0
VERTEX
  5
4239
  8
250
  6
CONTINUOUS
 10
-18.46399450124753
 20
-23.128085658570541
 30
0.0
  0
VERTEX
  5
423A
  8
250
  6
CONTINUOUS
 10
-23.84889586488546
 20
-32.455008414138391
 30
0.0
  0
SEQEND
  5
423B
  8
250
  6
CONTINUOUS
  0
TEXT
  5
423C
  8
250
  6
CONTINUOUS
 10
-31.715562531552141
 20
-31.455008414138391
 30
0.0
 40
2.799999999999998
  1
C6
  7
YOKO
1001
ITEMNAME
1000
LNSP3
  0
LINE
  5
423D
  8
250
  6
CONTINUOUS
 10
-23.84889586488546
 20
-32.455008414138391
 30
0.0
 11
-34.115562531552108
 21
-32.455008414138391
 31
0.0
1001
ITEMNAME
1000
LNSP2
  0
LINE
  5
423E
  8
247
  6
CONTINUOUS
 10
6.0
 20
-17.250000000069999
 30
0.0
 11
6.0
 21
-10.557692308029999
 31
0.0
  0
ARC
  5
423F
  8
247
  6
CONTINUOUS
 10
4.2500000000699742
 20
-17.250000000069999
 30
0.0
 40
1.7499999999299991
 50
180.0
 51
0.0
  0
ARC
  5
4240
  8
247
  6
CONTINUOUS
 10
4.2500000000699742
 20
-10.557692308029999
 30
0.0
 40
1.7499999999299991
 50
0.0
 51
180.0
  0
LINE
  5
4241
  8
247
  6
CONTINUOUS
 10
2.500000000140004
 20
-16.38461538472
 30
0.0
 11
5.5000000000200071
 21
-17.244851541962021
 31
0.0
  0
LINE
  5
4242
  8
247
  6
CONTINUOUS
 10
3.923076923160008
 20
-15.48498381833582
 30
0.0
 11
3.923076923160008
 21
-16.79267612597582
 31
0.0
  0
ARC
  5
4243
  8
247
  6
CONTINUOUS
 10
3.04959866770298
 20
-15.14514381608978
 30
0.0
 40
0.5538165441895349
 50
72.997889675291773
 51
172.924166218512
  0
ARC
  5
4244
  8
247
  6
CONTINUOUS
 10
2.936033044465773
 20
-15.56687832302879
 30
0.0
 40
0.9904354236226808
 50
4.7429368522022122
 51
73.849226273266297
1001
GENIUS_GENOBJ-N-FIL_13
1002
{
1000
OWNER
1000
GEN
1002
}
1001
GENIUS_GENODEF_13
1002
{
1000
HIER
1070
     0
1002
}
1002
{
1000
MANEDIT
1070
     0
1002
}
1002
{
1000
NOSEL
1070
     0
1002
}
1002
{
1000
BEHIND
1070
     0
1002
}
1002
{
1000
OTHER
1070
     0
1002
}
1002
{
1000
REACTOR
1002
}
  0
LINE
  5
4245
  8
247
  6
CONTINUOUS
 10
5.5000000000200071
 20
-15.937159234321991
 30
0.0
 11
5.5000000000200071
 21
-17.244851541962021
 31
0.0
  0
LINE
  5
4246
  8
247
  6
CONTINUOUS
 10
2.500000000140004
 20
-16.38461538472
 30
0.0
 11
2.500000000140004
 21
-15.07692307707998
 31
0.0
  0
ARC
  5
4247
  8
247
  6
CONTINUOUS
 10
4.4820242326655331
 20
-15.56091963654697
 30
0.0
 40
0.5640818586791229
 50
65.990941652528889
 51
172.26344345906909
  0
ARC
  5
4248
  8
247
  6
CONTINUOUS
 10
4.487429039186563
 20
-16.03826268534706
 30
0.0
 40
1.0176059446230981
 50
5.7019851642580841
 51
77.277338436822376
1001
GENIUS_GENOBJ-N-FIL_13
1002
{
1000
OWNER
1000
GEN
1002
}
1001
GENIUS_GENODEF_13
1002
{
1000
HIER
1070
     0
1002
}
1002
{
1000
MANEDIT
1070
     0
1002
}
1002
{
1000
NOSEL
1070
     0
1002
}
1002
{
1000
BEHIND
1070
     0
1002
}
1002
{
1000
OTHER
1070
     0
1002
}
1002
{
1000
REACTOR
1002
}
  0
LINE
  5
4249
  8
247
  6
CONTINUOUS
 10
5.5000000000200071
 20
-14.283313080541999
 30
0.0
 11
2.500000000140004
 21
-13.423076923300011
 31
0.0
  0
LINE
  5
424A
  8
247
  6
CONTINUOUS
 10
2.500000000140004
 20
-11.00000000032
 30
0.0
 11
2.500000000140004
 21
-11.565736619456599
 31
0.0
  0
LINE
  5
424B
  8
247
  6
CONTINUOUS
 10
5.5000000000200071
 20
-12.461538461799989
 30
0.0
 11
5.5000000000200071
 21
-11.846153846440011
 31
0.0
  0
ARC
  5
424C
  8
247
  6
CONTINUOUS
 10
4.583285135973366
 20
-10.708791209122859
 30
0.0
 40
2.2526500823422122
 50
202.35948814152559
 51
254.99324854284609
  0
ARC
  5
424D
  8
247
  6
CONTINUOUS
 10
3.3083126551945261
 20
-11.37406947921323
 30
0.0
 40
0.8906723995727782
 50
94.994589319075317
 51
155.1663289573039
1001
GENIUS_GENOBJ-N-FIL_13
1002
{
1000
OWNER
1000
GEN
1002
}
1001
GENIUS_GENODEF_13
1002
{
1000
HIER
1070
     0
1002
}
1002
{
1000
MANEDIT
1070
     0
1002
}
1002
{
1000
NOSEL
1070
     0
1002
}
1002
{
1000
BEHIND
1070
     0
1002
}
1002
{
1000
OTHER
1070
     0
1002
}
1002
{
1000
REACTOR
1002
}
  0
ARC
  5
424E
  8
247
  6
CONTINUOUS
 10
4.160145888667782
 20
-12.22645888621258
 30
0.0
 40
1.392781735586712
 50
15.84609655577923
 51
82.325137004169065
  0
ARC
  5
424F
  8
247
  6
CONTINUOUS
 10
4.4592434315272831
 20
-11.64221272584035
 30
0.0
 40
1.324563662670287
 50
249.7136016704969
 51
321.78874565640928
1001
GENIUS_GENOBJ-N-FIL_13
1002
{
1000
OWNER
1000
GEN
1002
}
1001
GENIUS_GENODEF_13
1002
{
1000
HIER
1070
     0
1002
}
1002
{
1000
MANEDIT
1070
     0
1002
}
1002
{
1000
NOSEL
1070
     0
1002
}
1002
{
1000
BEHIND
1070
     0
1002
}
1002
{
1000
OTHER
1070
     0
1002
}
1002
{
1000
REACTOR
1002
}
  0
LINE
  5
4250
  8
247
  6
CONTINUOUS
 10
4.346153846219976
 20
-11.53846153876
 30
0.0
 11
4.346153846219976
 21
-10.84615384648
 31
0.0
  0
LINE
  5
4251
  8
247
  6
CONTINUOUS
 10
2.500000000139976
 20
-17.250000000069999
 30
0.0
 11
2.500000000139976
 21
-16.576923077020009
 31
0.0
  0
LINE
  5
4252
  8
240
  6
CONTINUOUS
 10
0.0
 20
21.630611991142189
 30
0.0
 11
-38.0
 21
20.680528494763109
 31
0.0
1001
GRPNAME
1000
PASTMD35
  0
LINE
  5
4253
  8
240
  6
CONTINUOUS
 10
0.0
 20
-21.630611991141851
 30
0.0
 11
-38.0
 21
-20.68052849476301
 31
0.0
1001
GRPNAME
1000
PASTMD35
  0
LINE
  5
4254
  8
240
  6
CONTINUOUS
 10
0.0
 20
31.5
 30
0.0
 11
22.0
 21
31.5
 31
0.0
  0
LINE
  5
4255
  8
240
  6
CONTINUOUS
 10
0.0
 20
-31.5
 30
0.0
 11
22.0
 21
-31.5
 31
0.0
  0
LINE
  5
4256
  8
241
  6
CONTINUOUS
 10
9.9499999999999869
 20
8.9923414211634736
 30
0.0
 11
9.9499999999999869
 21
30.18137425657125
 31
0.0
1001
GRPNAME
1000
PASTMD30
  0
LINE
  5
4257
  8
241
  6
CONTINUOUS
 10
9.9499999999999869
 20
30.18137425657125
 30
0.0
 11
14.05000000000001
 21
30.18137425657125
 31
0.0
1001
GRPNAME
1000
PASTMD30
  0
LINE
  5
4258
  8
241
  6
CONTINUOUS
 10
14.05000000000055
 20
8.9923414211634736
 30
0.0
 11
14.05000000000001
 21
30.18137425657125
 31
0.0
1001
GRPNAME
1000
PASTMD30
  0
LINE
  5
4259
  8
241
  6
CONTINUOUS
 10
9.9499999999999869
 20
8.9923414211634736
 30
0.0
 11
14.05000000000055
 21
8.9923414211634736
 31
0.0
1001
GRPNAME
1000
PASTMD30
  0
ARC
  5
425A
  8
241
  6
CONTINUOUS
 10
-16.228827256943418
 20
19.586857838866582
 30
0.0
 40
32.07882725694369
 50
340.71513450902091
 51
19.284865490980941
  0
ARC
  5
425B
  8
241
  6
CONTINUOUS
 10
40.228827256943717
 20
19.58685783886736
 30
0.0
 40
32.07882725694374
 50
160.71513450901909
 51
199.28486549098031
  0
LINE
  5
425C
  8
241
  6
CONTINUOUS
 10
9.9499999999999869
 20
-8.9923414211634736
 30
0.0
 11
9.9499999999999869
 21
-30.18137425657125
 31
0.0
1001
GRPNAME
1000
PASTMD30
  0
LINE
  5
425D
  8
241
  6
CONTINUOUS
 10
9.9499999999999869
 20
-30.18137425657125
 30
0.0
 11
14.05000000000001
 21
-30.18137425657125
 31
0.0
1001
GRPNAME
1000
PASTMD30
  0
LINE
  5
425E
  8
241
  6
CONTINUOUS
 10
14.05000000000055
 20
-8.9923414211634736
 30
0.0
 11
14.05000000000001
 21
-30.18137425657125
 31
0.0
1001
GRPNAME
1000
PASTMD30
  0
LINE
  5
425F
  8
241
  6
CONTINUOUS
 10
9.9499999999999869
 20
-8.9923414211634736
 30
0.0
 11
14.05000000000055
 21
-8.9923414211634736
 31
0.0
1001
GRPNAME
1000
PASTMD30
  0
ARC
  5
4260
  8
241
  6
CONTINUOUS
 10
-16.228827256943418
 20
-19.586857838866582
 30
0.0
 40
32.07882725694369
 50
340.71513450901892
 51
19.284865490979119
  0
ARC
  5
4261
  8
241
  6
CONTINUOUS
 10
40.228827256943717
 20
-19.58685783886736
 30
0.0
 40
32.07882725694374
 50
160.71513450901909
 51
199.28486549098031
  0
ARC
  5
4262
  8
241
  6
CONTINUOUS
 10
-33.93660144659556
 20
0.0
 30
0.0
 40
4.3146606720450169
 50
303.58253920472129
 51
56.417460795278693
  0
LINE
  5
426E
  8
240
  6
CONTINUOUS
 10
89.500000000000114
 20
12.00000000000005
 30
0.0
 11
27.0
 21
12.00000000000005
 31
0.0
  0
LINE
  5
426F
  8
240
  6
CONTINUOUS
 10
89.500000000000114
 20
-11.99999999999994
 30
0.0
 11
89.500000000000114
 21
12.00000000000005
 31
0.0
1001
GRPNAME
1000
PASTMD1R
  0
LINE
  5
4270
  8
240
  6
CONTINUOUS
 10
89.500000000000114
 20
-11.99999999999994
 30
0.0
 11
27.000000000000021
 21
-11.999999999999771
 31
0.0
1001
GRPNAME
1000
PASTMD1R
  0
ARC
  5
4271
  8
240
  6
CONTINUOUS
 10
27.0
 20
17.00000000000005
 30
0.0
 40
5.0
 50
180.0
 51
270.0
1001
GENIUS_GENODEF_13
1002
{
1000
HIER
1070
     0
1002
}
1002
{
1000
MANEDIT
1070
     0
1002
}
1002
{
1000
NOSEL
1070
     0
1002
}
1002
{
1000
BEHIND
1070
     0
1002
}
1002
{
1000
OTHER
1070
     0
1002
}
1002
{
1000
REACTOR
1002
}
1001
GENIUS_GENOBJ-N-FIL_13
1002
{
1000
OWNER
1000
GEN
1002
}
  0
ARC
  5
4273
  8
240
  6
CONTINUOUS
 10
27.0
 20
-16.999999999999758
 30
0.0
 40
5.0
 50
89.999999999999844
 51
180.0
1001
GENIUS_GENODEF_13
1002
{
1000
HIER
1070
     0
1002
}
1002
{
1000
MANEDIT
1070
     0
1002
}
1002
{
1000
NOSEL
1070
     0
1002
}
1002
{
1000
BEHIND
1070
     0
1002
}
1002
{
1000
OTHER
1070
     0
1002
}
1002
{
1000
REACTOR
1002
}
1001
GENIUS_GENOBJ-N-FIL_13
1002
{
1000
OWNER
1000
GEN
1002
}
  0
LINE
  5
427B
  8
240
  6
CONTINUOUS
 10
22.0
 20
17.00000000000005
 30
0.0
 11
22.0
 21
31.5
 31
0.0
  0
LINE
  5
427C
  8
241
  6
CONTINUOUS
 10
22.0
 20
-16.999999999999758
 30
0.0
 11
22.0
 21
17.00000000000005
 31
0.0
  0
LINE
  5
42A3
  8
243
  6
HIDDEN2
 10
71.950000000000045
 20
7.0
 30
0.0
 11
89.500000000000114
 21
7.0
 31
0.0
  0
LINE
  5
42A4
  8
243
  6
HIDDEN2
 10
71.950000000000045
 20
-7.0
 30
0.0
 11
89.500000000000114
 21
-7.0
 31
0.0
  0
LINE
  5
42A5
  8
250
  6
CONTINUOUS
 10
93.303560710000042
 20
25.87868594
 30
0.0
 11
106.3702273800001
 21
25.87868594
 31
0.0
1001
ITEMNAME
1000
LNSP2
  0
CIRCLE
  5
42A6
  8
241
  6
CONTINUOUS
 10
83.000000000000043
 20
0.0
 30
0.0
 40
2.6000000000000001
  0
CIRCLE
  5
42A7
  8
242
  6
CONTINUOUS
 10
83.000000000000043
 20
0.0
 30
0.0
 40
2.25
  0
LINE
  5
42A8
  8
245
  6
CENTER2
 10
83.000000000000043
 20
3.6000000000000001
 30
0.0
 11
83.000000000000043
 21
-3.6000000000000001
 31
0.0
  0
POLYLINE
  5
42A9
  8
241
  6
CONTINUOUS
 66
     1
 10
0.0
 20
0.0
 30
0.0
 70
     1
  0
VERTEX
  5
42AA
  8
241
  6
CONTINUOUS
 10
81.750000000000043
 20
-0.72168784
 30
0.0
  0
VERTEX
  5
42AB
  8
241
  6
CONTINUOUS
 10
83.000000000000043
 20
-1.443375669999998
 30
0.0
  0
VERTEX
  5
42AC
  8
241
  6
CONTINUOUS
 10
84.250000000000071
 20
-0.72168784
 30
0.0
  0
VERTEX
  5
42AD
  8
241
  6
CONTINUOUS
 10
84.250000000000071
 20
0.72168784
 30
0.0
  0
VERTEX
  5
42AE
  8
241
  6
CONTINUOUS
 10
83.000000000000043
 20
1.443375669999998
 30
0.0
  0
VERTEX
  5
42AF
  8
241
  6
CONTINUOUS
 10
81.750000000000043
 20
0.72168784
 30
0.0
  0
SEQEND
  5
42B0
  8
241
  6
CONTINUOUS
  0
TEXT
  5
42B1
  8
250
  6
CONTINUOUS
 10
95.703560710000033
 20
26.87868594
 30
0.0
 40
2.799999999999998
  1
CK2
  7
YOKO
1001
ITEMNAME
1000
LNSP3
1001
ACAD
1000
MTEXTBEGIN
1070
    73
1070
     1
1070
    44
1040
1.0
1070
    74
1070
     0
1000
MTEXTEND
1000
MTEXTBEGIN
1070
    73
1070
     1
1070
    44
1040
1.0
1070
    74
1070
     0
1000
MTEXTEND
  0
LINE
  5
42B2
  8
250
  6
CONTINUOUS
 10
90.000000000000057
 20
-12.0
 30
0.0
 11
99.000000000000057
 21
-12.0
 31
0.0
  0
LINE
  5
42B3
  8
250
  6
CONTINUOUS
 10
90.000000000000057
 20
12.0
 30
0.0
 11
99.000000000000057
 21
12.0
 31
0.0
  0
LINE
  5
42B4
  8
250
  6
CONTINUOUS
 10
98.000000000000043
 20
-9.7699999999999996
 30
0.0
 11
98.000000000000043
 21
9.7699999999999996
 31
0.0
  0
LINE
  5
42B5
  8
250
  6
CONTINUOUS
 10
86.290697649676446
 20
13.7320508077557
 30
0.0
 11
93.303560710000042
 21
25.87868594
 31
0.0
1001
ACAD
1000
DSTYLE
1002
{
1070
     6
1000
OPEN
1070
    41
1040
2.0
1070
    42
1040
2.0
1070
    44
1040
2.0
1070
    79
1070
     2
1070
   140
1040
4.0
1070
   179
1070
     3
1070
   343
1005
0
1070
   371
1070
    -1
1070
   372
1070
    -1
1002
}
  0
LINE
  5
42B6
  8
250
  6
CONTINUOUS
 10
86.579372784302421
 20
13.565384141142969
 30
0.0
 11
85.290697650000041
 21
12.0
 31
0.0
  0
LINE
  5
42B7
  8
250
  6
CONTINUOUS
 10
86.002022515050498
 20
13.898717474368439
 30
0.0
 11
85.290697650000041
 21
12.0
 31
0.0
  0
LINE
  5
42B8
  8
250
  6
CONTINUOUS
 10
85.290697650000041
 20
12.0
 30
0.0
 11
86.290697649676446
 21
13.7320508077557
 31
0.0
  0
TEXT
  5
42B9
  8
250
  6
CONTINUOUS
 10
97.000000000000043
 20
-3.9999999999999991
 30
0.0
 40
2.799999999999998
  1
\U+220524
 50
90.0
1001
ACAD
1000
MTEXTBEGIN
1070
    73
1070
     1
1070
    44
1040
1.0
1070
    74
1070
     0
1000
MTEXTEND
  0
LINE
  5
42BA
  8
250
  6
CONTINUOUS
 10
97.628333333333401
 20
9.7699999999999996
 30
0.0
 11
98.000000000000043
 21
12.0
 31
0.0
  0
LINE
  5
42BB
  8
250
  6
CONTINUOUS
 10
98.371666666666712
 20
9.7699999999999996
 30
0.0
 11
98.000000000000043
 21
12.0
 31
0.0
  0
LINE
  5
42BC
  8
250
  6
CONTINUOUS
 10
98.000000000000043
 20
12.0
 30
0.0
 11
98.000000000000043
 21
9.7699999999999996
 31
0.0
  0
LINE
  5
42BD
  8
250
  6
CONTINUOUS
 10
98.371666666666712
 20
-9.7699999999999996
 30
0.0
 11
98.000000000000043
 21
-12.0
 31
0.0
  0
LINE
  5
42BE
  8
250
  6
CONTINUOUS
 10
97.628333333333401
 20
-9.7699999999999996
 30
0.0
 11
98.000000000000043
 21
-12.0
 31
0.0
  0
LINE
  5
42BF
  8
250
  6
CONTINUOUS
 10
98.000000000000043
 20
-12.0
 30
0.0
 11
98.000000000000043
 21
-9.7699999999999996
 31
0.0
  0
TEXT
  5
42D2
  8
241
  6
CONTINUOUS
 10
-38.0
 20
56.0
 30
0.0
 40
5.0
  1
C6-CKB2-90
  7
YOKO
 11
-38.0
 21
56.0
 31
0.0
 73
     1
  0
LINE
  5
42D3
  8
250
  6
CONTINUOUS
 10
0.0
 20
31.9925
 30
0.0
 11
0.0
 21
43.0
 31
0.0
  0
LINE
  5
42D4
  8
250
  6
CONTINUOUS
 10
89.500000000000014
 20
12.5
 30
0.0
 11
89.500000000000014
 21
43.0
 31
0.0
  0
LINE
  5
42D5
  8
250
  6
CONTINUOUS
 10
2.2299999999999991
 20
42.0
 30
0.0
 11
87.269999999999982
 21
42.0
 31
0.0
  0
LINE
  5
42D6
  8
250
  6
CONTINUOUS
 10
2.2299999999999991
 20
41.62833333333333
 30
0.0
 11
0.0
 21
42.0
 31
0.0
  0
LINE
  5
42D7
  8
250
  6
CONTINUOUS
 10
2.2299999999999991
 20
42.371666666666663
 30
0.0
 11
0.0
 21
42.0
 31
0.0
  0
LINE
  5
42D8
  8
250
  6
CONTINUOUS
 10
0.0
 20
42.0
 30
0.0
 11
2.2299999999999991
 21
42.0
 31
0.0
  0
LINE
  5
42D9
  8
250
  6
CONTINUOUS
 10
87.269999999999982
 20
42.371666666666663
 30
0.0
 11
89.500000000000014
 21
42.0
 31
0.0
  0
LINE
  5
42DA
  8
250
  6
CONTINUOUS
 10
87.269999999999982
 20
41.62833333333333
 30
0.0
 11
89.500000000000014
 21
42.0
 31
0.0
  0
LINE
  5
42DB
  8
250
  6
CONTINUOUS
 10
89.500000000000014
 20
42.0
 30
0.0
 11
87.269999999999982
 21
42.0
 31
0.0
  0
TEXT
  5
42DC
  8
250
  6
CONTINUOUS
 10
39.75
 20
43.0
 30
0.0
 40
3.0
  1
89.5
1001
ACAD
1000
MTEXTBEGIN
1070
    73
1070
     1
1070
    44
1040
1.0
1070
    74
1070
     0
1000
MTEXTEND
  0
LINE
  5
47FF
  8
245
  6
CENTER2
 10
-76.999999999999815
 20
25.114855198717748
 30
0.0
 11
-76.999999999999815
 21
-23.89446977392112
 31
0.0
1001
GRPNAME
1000
PASTMD01
  0
LINE
  5
4800
  8
245
  6
CENTER2
 10
-51.283197423766069
 20
0.0
 30
0.0
 11
-100.1550187717223
 21
0.0
 31
0.0
  0
CIRCLE
  5
4801
  8
242
  6
CONTINUOUS
 10
-76.999999999999815
 20
0.0
 30
0.0
 40
10.0
  0
CIRCLE
  5
4802
  8
241
  6
CONTINUOUS
 10
-76.999999999999815
 20
0.0
 30
0.0
 40
13.99999999999997
  0
CIRCLE
  5
4803
  8
241
  6
CONTINUOUS
 10
-76.999999999999815
 20
0.0
 30
0.0
 40
9.0500000000000131
  0
ARC
  5
4804
  8
241
  6
CONTINUOUS
 10
-50.189999999999799
 20
0.0
 30
0.0
 40
6.0
 50
134.55380765322491
 51
225.44599696379231
  0
ARC
  5
4805
  8
241
  6
CONTINUOUS
 10
-100.9999999999998
 20
0.0
 30
0.0
 40
6.0
 50
308.67550996835593
 51
51.324339718951961
  0
POLYLINE
  5
4806
  8
240
 66
     1
 10
0.0
 20
0.0
 30
0.0
 70
     8
  0
VERTEX
  5
4807
  8
240
 10
-66.700000000000003
 20
17.8401
 30
0.0
 70
    32
  0
VERTEX
  5
4808
  8
240
 10
-66.421000000000006
 20
17.6799
 30
0.0
 70
    32
  0
VERTEX
  5
4809
  8
240
 10
-66.143699999999995
 20
17.517099999999999
 30
0.0
 70
    32
  0
VERTEX
  5
480A
  8
240
 10
-65.868099999999984
 20
17.352
 30
0.0
 70
    32
  0
VERTEX
  5
480B
  8
240
 10
-65.594300000000004
 20
17.1845
 30
0.0
 70
    32
  0
VERTEX
  5
480C
  8
240
 10
-65.322400000000002
 20
17.014700000000001
 30
0.0
 70
    32
  0
VERTEX
  5
480D
  8
240
 10
-65.052300000000002
 20
16.842600000000001
 30
0.0
 70
    32
  0
VERTEX
  5
480E
  8
240
 10
-64.784199999999984
 20
16.668199999999999
 30
0.0
 70
    32
  0
VERTEX
  5
480F
  8
240
 10
-64.518000000000001
 20
16.491499999999998
 30
0.0
 70
    32
  0
VERTEX
  5
4810
  8
240
 10
-64.253799999999998
 20
16.3126
 30
0.0
 70
    32
  0
VERTEX
  5
4811
  8
240
 10
-63.991799999999998
 20
16.131499999999999
 30
0.0
 70
    32
  0
VERTEX
  5
4812
  8
240
 10
-63.7318
 20
15.9483
 30
0.0
 70
    32
  0
VERTEX
  5
4813
  8
240
 10
-63.473999999999997
 20
15.763
 30
0.0
 70
    32
  0
VERTEX
  5
4814
  8
240
 10
-63.218400000000003
 20
15.5755
 30
0.0
 70
    32
  0
VERTEX
  5
4815
  8
240
 10
-62.9651
 20
15.385999999999999
 30
0.0
 70
    32
  0
VERTEX
  5
4816
  8
240
 10
-62.713999999999992
 20
15.1944
 30
0.0
 70
    32
  0
VERTEX
  5
4817
  8
240
 10
-62.465299999999992
 20
15.0009
 30
0.0
 70
    32
  0
VERTEX
  5
4818
  8
240
 10
-62.219000000000001
 20
14.805400000000001
 30
0.0
 70
    32
  0
VERTEX
  5
4819
  8
240
 10
-61.975200000000001
 20
14.607900000000001
 30
0.0
 70
    32
  0
VERTEX
  5
481A
  8
240
 10
-61.733899999999998
 20
14.4086
 30
0.0
 70
    32
  0
VERTEX
  5
481B
  8
240
 10
-61.49499999999999
 20
14.2073
 30
0.0
 70
    32
  0
VERTEX
  5
481C
  8
240
 10
-61.258800000000001
 20
14.004200000000001
 30
0.0
 70
    32
  0
VERTEX
  5
481D
  8
240
 10
-61.025199999999998
 20
13.799300000000001
 30
0.0
 70
    32
  0
VERTEX
  5
481E
  8
240
 10
-60.7943
 20
13.592700000000001
 30
0.0
 70
    32
  0
VERTEX
  5
481F
  8
240
 10
-60.566200000000002
 20
13.3842
 30
0.0
 70
    32
  0
VERTEX
  5
4820
  8
240
 10
-60.340800000000002
 20
13.174099999999999
 30
0.0
 70
    32
  0
VERTEX
  5
4821
  8
240
 10
-60.118200000000002
 20
12.962199999999999
 30
0.0
 70
    32
  0
VERTEX
  5
4822
  8
240
 10
-59.898499999999999
 20
12.748699999999999
 30
0.0
 70
    32
  0
VERTEX
  5
4823
  8
240
 10
-59.681699999999999
 20
12.5336
 30
0.0
 70
    32
  0
VERTEX
  5
4824
  8
240
 10
-59.4679
 20
12.316800000000001
 30
0.0
 70
    32
  0
VERTEX
  5
4825
  8
240
 10
-59.257100000000001
 20
12.0985
 30
0.0
 70
    32
  0
VERTEX
  5
4826
  8
240
 10
-59.049300000000002
 20
11.8787
 30
0.0
 70
    32
  0
VERTEX
  5
4827
  8
240
 10
-58.844700000000003
 20
11.657299999999999
 30
0.0
 70
    32
  0
VERTEX
  5
4828
  8
240
 10
-58.6432
 20
11.4345
 30
0.0
 70
    32
  0
VERTEX
  5
4829
  8
240
 10
-58.444899999999997
 20
11.2103
 30
0.0
 70
    32
  0
VERTEX
  5
482A
  8
240
 10
-58.24989999999999
 20
10.9846
 30
0.0
 70
    32
  0
VERTEX
  5
482B
  8
240
 10
-58.05810000000001
 20
10.7575
 30
0.0
 70
    32
  0
VERTEX
  5
482C
  8
240
 10
-57.869700000000002
 20
10.5291
 30
0.0
 70
    32
  0
VERTEX
  5
482D
  8
240
 10
-57.684699999999999
 20
10.2994
 30
0.0
 70
    32
  0
VERTEX
  5
482E
  8
240
 10
-57.503100000000003
 20
10.0684
 30
0.0
 70
    32
  0
VERTEX
  5
482F
  8
240
 10
-57.325000000000003
 20
9.8361600000000013
 30
0.0
 70
    32
  0
VERTEX
  5
4830
  8
240
 10
-57.150500000000001
 20
9.6026699999999998
 30
0.0
 70
    32
  0
VERTEX
  5
4831
  8
240
 10
-56.979500000000002
 20
9.3679899999999972
 30
0.0
 70
    32
  0
VERTEX
  5
4832
  8
240
 10
-56.812100000000001
 20
9.1321399999999997
 30
0.0
 70
    32
  0
VERTEX
  5
4833
  8
240
 10
-56.648499999999999
 20
8.8951600000000006
 30
0.0
 70
    32
  0
VERTEX
  5
4834
  8
240
 10
-56.488500000000002
 20
8.6570800000000006
 30
0.0
 70
    32
  0
VERTEX
  5
4835
  8
240
 10
-56.332299999999996
 20
8.4179300000000001
 30
0.0
 70
    32
  0
VERTEX
  5
4836
  8
240
 10
-56.179900000000004
 20
8.17774
 30
0.0
 70
    32
  0
VERTEX
  5
4837
  8
240
 10
-56.031399999999991
 20
7.936539999999999
 30
0.0
 70
    32
  0
VERTEX
  5
4838
  8
240
 10
-55.886800000000001
 20
7.6943599999999996
 30
0.0
 70
    32
  0
VERTEX
  5
4839
  8
240
 10
-55.746200000000002
 20
7.4512399999999994
 30
0.0
 70
    32
  0
VERTEX
  5
483A
  8
240
 10
-55.609499999999997
 20
7.2072000000000003
 30
0.0
 70
    32
  0
VERTEX
  5
483B
  8
240
 10
-55.476900000000001
 20
6.9622799999999998
 30
0.0
 70
    32
  0
VERTEX
  5
483C
  8
240
 10
-55.348399999999991
 20
6.7165100000000004
 30
0.0
 70
    32
  0
VERTEX
  5
483D
  8
240
 10
-55.2241
 20
6.4699099999999987
 30
0.0
 70
    32
  0
VERTEX
  5
483E
  8
240
 10
-55.10390000000001
 20
6.2225199999999994
 30
0.0
 70
    32
  0
VERTEX
  5
483F
  8
240
 10
-54.988
 20
5.97438
 30
0.0
 70
    32
  0
VERTEX
  5
4840
  8
240
 10
-54.87639999999999
 20
5.7255000000000003
 30
0.0
 70
    32
  0
VERTEX
  5
4841
  8
240
 10
-54.769100000000002
 20
5.4759199999999986
 30
0.0
 70
    32
  0
VERTEX
  5
4842
  8
240
 10
-54.666200000000003
 20
5.2256799999999997
 30
0.0
 70
    32
  0
VERTEX
  5
4843
  8
240
 10
-54.567700000000002
 20
4.9748000000000001
 30
0.0
 70
    32
  0
VERTEX
  5
4844
  8
240
 10
-54.473700000000001
 20
4.7233199999999993
 30
0.0
 70
    32
  0
VERTEX
  5
4845
  8
240
 10
-54.3842
 20
4.47126
 30
0.0
 70
    32
  0
VERTEX
  5
4846
  8
240
 10
-54.299300000000002
 20
4.218659999999999
 30
0.0
 70
    32
  0
VERTEX
  5
4847
  8
240
 10
-54.219000000000001
 20
3.965549999999999
 30
0.0
 70
    32
  0
VERTEX
  5
4848
  8
240
 10
-54.143300000000004
 20
3.711959999999999
 30
0.0
 70
    32
  0
VERTEX
  5
4849
  8
240
 10
-54.072400000000002
 20
3.4579199999999992
 30
0.0
 70
    32
  0
VERTEX
  5
484A
  8
240
 10
-54.006199999999993
 20
3.2034500000000001
 30
0.0
 70
    32
  0
VERTEX
  5
484B
  8
240
 10
-53.944899999999997
 20
2.94861
 30
0.0
 70
    32
  0
VERTEX
  5
484C
  8
240
 10
-53.888399999999997
 20
2.6934
 30
0.0
 70
    32
  0
VERTEX
  5
484D
  8
240
 10
-53.836799999999997
 20
2.4378700000000002
 30
0.0
 70
    32
  0
VERTEX
  5
484E
  8
240
 10
-53.790100000000002
 20
2.1820400000000002
 30
0.0
 70
    32
  0
VERTEX
  5
484F
  8
240
 10
-53.7485
 20
1.9259500000000001
 30
0.0
 70
    32
  0
VERTEX
  5
4850
  8
240
 10
-53.71179999999999
 20
1.6696299999999991
 30
0.0
 70
    32
  0
VERTEX
  5
4851
  8
240
 10
-53.680300000000003
 20
1.4131
 30
0.0
 70
    32
  0
VERTEX
  5
4852
  8
240
 10
-53.6539
 20
1.156409999999999
 30
0.0
 70
    32
  0
VERTEX
  5
4853
  8
240
 10
-53.632699999999993
 20
0.899573
 30
0.0
 70
    32
  0
VERTEX
  5
4854
  8
240
 10
-53.616700000000002
 20
0.6426300000000002
 30
0.0
 70
    32
  0
VERTEX
  5
4855
  8
240
 10
-53.606000000000002
 20
0.385609
 30
0.0
 70
    32
  0
VERTEX
  5
4856
  8
240
 10
-53.600700000000003
 20
0.128541
 30
0.0
 70
    32
  0
VERTEX
  5
4857
  8
240
 10
-53.600700000000003
 20
-0.128541
 30
0.0
 70
    32
  0
VERTEX
  5
4858
  8
240
 10
-53.606000000000002
 20
-0.385609
 30
0.0
 70
    32
  0
VERTEX
  5
4859
  8
240
 10
-53.616700000000002
 20
-0.6426300000000002
 30
0.0
 70
    32
  0
VERTEX
  5
485A
  8
240
 10
-53.632699999999993
 20
-0.899573
 30
0.0
 70
    32
  0
VERTEX
  5
485B
  8
240
 10
-53.6539
 20
-1.156409999999999
 30
0.0
 70
    32
  0
VERTEX
  5
485C
  8
240
 10
-53.680300000000003
 20
-1.4131
 30
0.0
 70
    32
  0
VERTEX
  5
485D
  8
240
 10
-53.71179999999999
 20
-1.6696299999999991
 30
0.0
 70
    32
  0
VERTEX
  5
485E
  8
240
 10
-53.7485
 20
-1.9259500000000001
 30
0.0
 70
    32
  0
VERTEX
  5
485F
  8
240
 10
-53.790100000000002
 20
-2.1820400000000002
 30
0.0
 70
    32
  0
VERTEX
  5
4860
  8
240
 10
-53.836799999999997
 20
-2.4378700000000002
 30
0.0
 70
    32
  0
VERTEX
  5
4861
  8
240
 10
-53.888399999999997
 20
-2.6934
 30
0.0
 70
    32
  0
VERTEX
  5
4862
  8
240
 10
-53.944899999999997
 20
-2.94861
 30
0.0
 70
    32
  0
VERTEX
  5
4863
  8
240
 10
-54.006199999999993
 20
-3.2034500000000001
 30
0.0
 70
    32
  0
VERTEX
  5
4864
  8
240
 10
-54.072400000000002
 20
-3.4579199999999992
 30
0.0
 70
    32
  0
VERTEX
  5
4865
  8
240
 10
-54.143300000000004
 20
-3.711959999999999
 30
0.0
 70
    32
  0
VERTEX
  5
4866
  8
240
 10
-54.219000000000001
 20
-3.965549999999999
 30
0.0
 70
    32
  0
VERTEX
  5
4867
  8
240
 10
-54.299300000000002
 20
-4.218659999999999
 30
0.0
 70
    32
  0
VERTEX
  5
4868
  8
240
 10
-54.3842
 20
-4.47126
 30
0.0
 70
    32
  0
VERTEX
  5
4869
  8
240
 10
-54.473700000000001
 20
-4.7233199999999993
 30
0.0
 70
    32
  0
VERTEX
  5
486A
  8
240
 10
-54.567700000000002
 20
-4.9748000000000001
 30
0.0
 70
    32
  0
VERTEX
  5
486B
  8
240
 10
-54.666200000000003
 20
-5.2256799999999997
 30
0.0
 70
    32
  0
VERTEX
  5
486C
  8
240
 10
-54.769100000000002
 20
-5.4759199999999986
 30
0.0
 70
    32
  0
VERTEX
  5
486D
  8
240
 10
-54.87639999999999
 20
-5.7255000000000003
 30
0.0
 70
    32
  0
VERTEX
  5
486E
  8
240
 10
-54.988
 20
-5.97438
 30
0.0
 70
    32
  0
VERTEX
  5
486F
  8
240
 10
-55.10390000000001
 20
-6.2225199999999994
 30
0.0
 70
    32
  0
VERTEX
  5
4870
  8
240
 10
-55.2241
 20
-6.4699099999999987
 30
0.0
 70
    32
  0
VERTEX
  5
4871
  8
240
 10
-55.348399999999991
 20
-6.7165100000000004
 30
0.0
 70
    32
  0
VERTEX
  5
4872
  8
240
 10
-55.476900000000001
 20
-6.9622799999999998
 30
0.0
 70
    32
  0
VERTEX
  5
4873
  8
240
 10
-55.609499999999997
 20
-7.2072000000000003
 30
0.0
 70
    32
  0
VERTEX
  5
4874
  8
240
 10
-55.746200000000002
 20
-7.4512399999999994
 30
0.0
 70
    32
  0
VERTEX
  5
4875
  8
240
 10
-55.886800000000001
 20
-7.6943599999999996
 30
0.0
 70
    32
  0
VERTEX
  5
4876
  8
240
 10
-56.031399999999991
 20
-7.936539999999999
 30
0.0
 70
    32
  0
VERTEX
  5
4877
  8
240
 10
-56.179900000000004
 20
-8.17774
 30
0.0
 70
    32
  0
VERTEX
  5
4878
  8
240
 10
-56.332299999999996
 20
-8.4179300000000001
 30
0.0
 70
    32
  0
VERTEX
  5
4879
  8
240
 10
-56.488500000000002
 20
-8.6570800000000006
 30
0.0
 70
    32
  0
VERTEX
  5
487A
  8
240
 10
-56.648499999999999
 20
-8.8951600000000006
 30
0.0
 70
    32
  0
VERTEX
  5
487B
  8
240
 10
-56.812100000000001
 20
-9.1321399999999997
 30
0.0
 70
    32
  0
VERTEX
  5
487C
  8
240
 10
-56.979500000000002
 20
-9.3679899999999972
 30
0.0
 70
    32
  0
VERTEX
  5
487D
  8
240
 10
-57.150500000000001
 20
-9.6026699999999998
 30
0.0
 70
    32
  0
VERTEX
  5
487E
  8
240
 10
-57.325000000000003
 20
-9.8361600000000013
 30
0.0
 70
    32
  0
VERTEX
  5
487F
  8
240
 10
-57.503100000000003
 20
-10.0684
 30
0.0
 70
    32
  0
VERTEX
  5
4880
  8
240
 10
-57.684699999999999
 20
-10.2994
 30
0.0
 70
    32
  0
VERTEX
  5
4881
  8
240
 10
-57.869700000000002
 20
-10.5291
 30
0.0
 70
    32
  0
VERTEX
  5
4882
  8
240
 10
-58.05810000000001
 20
-10.7575
 30
0.0
 70
    32
  0
VERTEX
  5
4883
  8
240
 10
-58.24989999999999
 20
-10.9846
 30
0.0
 70
    32
  0
VERTEX
  5
4884
  8
240
 10
-58.444899999999997
 20
-11.2103
 30
0.0
 70
    32
  0
VERTEX
  5
4885
  8
240
 10
-58.6432
 20
-11.4345
 30
0.0
 70
    32
  0
VERTEX
  5
4886
  8
240
 10
-58.844700000000003
 20
-11.657299999999999
 30
0.0
 70
    32
  0
VERTEX
  5
4887
  8
240
 10
-59.049300000000002
 20
-11.8787
 30
0.0
 70
    32
  0
VERTEX
  5
4888
  8
240
 10
-59.257100000000001
 20
-12.0985
 30
0.0
 70
    32
  0
VERTEX
  5
4889
  8
240
 10
-59.4679
 20
-12.316800000000001
 30
0.0
 70
    32
  0
VERTEX
  5
488A
  8
240
 10
-59.681699999999999
 20
-12.5336
 30
0.0
 70
    32
  0
VERTEX
  5
488B
  8
240
 10
-59.898499999999999
 20
-12.748699999999999
 30
0.0
 70
    32
  0
VERTEX
  5
488C
  8
240
 10
-60.118200000000002
 20
-12.962199999999999
 30
0.0
 70
    32
  0
VERTEX
  5
488D
  8
240
 10
-60.340800000000002
 20
-13.174099999999999
 30
0.0
 70
    32
  0
VERTEX
  5
488E
  8
240
 10
-60.566200000000002
 20
-13.3842
 30
0.0
 70
    32
  0
VERTEX
  5
488F
  8
240
 10
-60.7943
 20
-13.592700000000001
 30
0.0
 70
    32
  0
VERTEX
  5
4890
  8
240
 10
-61.025199999999998
 20
-13.799300000000001
 30
0.0
 70
    32
  0
VERTEX
  5
4891
  8
240
 10
-61.258800000000001
 20
-14.004200000000001
 30
0.0
 70
    32
  0
VERTEX
  5
4892
  8
240
 10
-61.49499999999999
 20
-14.2073
 30
0.0
 70
    32
  0
VERTEX
  5
4893
  8
240
 10
-61.733899999999998
 20
-14.4086
 30
0.0
 70
    32
  0
VERTEX
  5
4894
  8
240
 10
-61.975200000000001
 20
-14.607900000000001
 30
0.0
 70
    32
  0
VERTEX
  5
4895
  8
240
 10
-62.219000000000001
 20
-14.805400000000001
 30
0.0
 70
    32
  0
VERTEX
  5
4896
  8
240
 10
-62.465299999999992
 20
-15.0009
 30
0.0
 70
    32
  0
VERTEX
  5
4897
  8
240
 10
-62.713999999999992
 20
-15.1944
 30
0.0
 70
    32
  0
VERTEX
  5
4898
  8
240
 10
-62.9651
 20
-15.385999999999999
 30
0.0
 70
    32
  0
VERTEX
  5
4899
  8
240
 10
-63.218400000000003
 20
-15.5755
 30
0.0
 70
    32
  0
VERTEX
  5
489A
  8
240
 10
-63.473999999999997
 20
-15.763
 30
0.0
 70
    32
  0
VERTEX
  5
489B
  8
240
 10
-63.7318
 20
-15.9483
 30
0.0
 70
    32
  0
VERTEX
  5
489C
  8
240
 10
-63.991799999999998
 20
-16.131499999999999
 30
0.0
 70
    32
  0
VERTEX
  5
489D
  8
240
 10
-64.253799999999998
 20
-16.3126
 30
0.0
 70
    32
  0
VERTEX
  5
489E
  8
240
 10
-64.518000000000001
 20
-16.491499999999998
 30
0.0
 70
    32
  0
VERTEX
  5
489F
  8
240
 10
-64.784199999999984
 20
-16.668199999999999
 30
0.0
 70
    32
  0
VERTEX
  5
48A0
  8
240
 10
-65.052300000000002
 20
-16.842600000000001
 30
0.0
 70
    32
  0
VERTEX
  5
48A1
  8
240
 10
-65.322400000000002
 20
-17.014700000000001
 30
0.0
 70
    32
  0
VERTEX
  5
48A2
  8
240
 10
-65.594300000000004
 20
-17.1845
 30
0.0
 70
    32
  0
VERTEX
  5
48A3
  8
240
 10
-65.868099999999984
 20
-17.352
 30
0.0
 70
    32
  0
VERTEX
  5
48A4
  8
240
 10
-66.143699999999995
 20
-17.517099999999999
 30
0.0
 70
    32
  0
VERTEX
  5
48A5
  8
240
 10
-66.421000000000006
 20
-17.6799
 30
0.0
 70
    32
  0
VERTEX
  5
48A6
  8
240
 10
-66.700000000000003
 20
-17.8401
 30
0.0
 70
    32
  0
SEQEND
  5
48A7
  8
240
  0
POLYLINE
  5
48A8
  8
240
 66
     1
 10
0.0
 20
0.0
 30
0.0
 70
     8
  0
VERTEX
  5
48A9
  8
240
 10
-97.599999999999994
 20
0.0000000000000562
 30
0.0
 70
    32
  0
VERTEX
  5
48AA
  8
240
 10
-97.600700000000003
 20
0.321754
 30
0.0
 70
    32
  0
VERTEX
  5
48AB
  8
240
 10
-97.598399999999998
 20
0.643262
 30
0.0
 70
    32
  0
VERTEX
  5
48AC
  8
240
 10
-97.593199999999996
 20
0.9644669999999999
 30
0.0
 70
    32
  0
VERTEX
  5
48AD
  8
240
 10
-97.585100000000011
 20
1.2853099999999991
 30
0.0
 70
    32
  0
VERTEX
  5
48AE
  8
240
 10
-97.573999999999998
 20
1.6057399999999991
 30
0.0
 70
    32
  0
VERTEX
  5
48AF
  8
240
 10
-97.559899999999999
 20
1.9256999999999991
 30
0.0
 70
    32
  0
VERTEX
  5
48B0
  8
240
 10
-97.543000000000006
 20
2.2451300000000001
 30
0.0
 70
    32
  0
VERTEX
  5
48B1
  8
240
 10
-97.523100000000014
 20
2.563979999999999
 30
0.0
 70
    32
  0
VERTEX
  5
48B2
  8
240
 10
-97.500200000000007
 20
2.8821899999999991
 30
0.0
 70
    32
  0
VERTEX
  5
48B3
  8
240
 10
-97.474400000000003
 20
3.1996899999999999
 30
0.0
 70
    32
  0
VERTEX
  5
48B4
  8
240
 10
-97.445700000000016
 20
3.516449999999999
 30
0.0
 70
    32
  0
VERTEX
  5
48B5
  8
240
 10
-97.414100000000005
 20
3.8323900000000002
 30
0.0
 70
    32
  0
VERTEX
  5
48B6
  8
240
 10
-97.379600000000011
 20
4.1474699999999993
 30
0.0
 70
    32
  0
VERTEX
  5
48B7
  8
240
 10
-97.342100000000002
 20
4.4616300000000004
 30
0.0
 70
    32
  0
VERTEX
  5
48B8
  8
240
 10
-97.3018
 20
4.774799999999999
 30
0.0
 70
    32
  0
VERTEX
  5
48B9
  8
240
 10
-97.258500000000012
 20
5.0869400000000002
 30
0.0
 70
    32
  0
VERTEX
  5
48BA
  8
240
 10
-97.212299999999999
 20
5.3979900000000001
 30
0.0
 70
    32
  0
VERTEX
  5
48BB
  8
240
 10
-97.163200000000003
 20
5.707889999999999
 30
0.0
 70
    32
  0
VERTEX
  5
48BC
  8
240
 10
-97.1113
 20
6.0165800000000003
 30
0.0
 70
    32
  0
VERTEX
  5
48BD
  8
240
 10
-97.056399999999996
 20
6.3240199999999991
 30
0.0
 70
    32
  0
VERTEX
  5
48BE
  8
240
 10
-96.99860000000001
 20
6.6301300000000003
 30
0.0
 70
    32
  0
VERTEX
  5
48BF
  8
240
 10
-96.938000000000017
 20
6.9348700000000001
 30
0.0
 70
    32
  0
VERTEX
  5
48C0
  8
240
 10
-96.874399999999994
 20
7.2381799999999998
 30
0.0
 70
    32
  0
VERTEX
  5
48C1
  8
240
 10
-96.808000000000007
 20
7.5400099999999997
 30
0.0
 70
    32
  0
VERTEX
  5
48C2
  8
240
 10
-96.738699999999994
 20
7.8402899999999986
 30
0.0
 70
    32
  0
VERTEX
  5
48C3
  8
240
 10
-96.666499999999999
 20
8.1389700000000005
 30
0.0
 70
    32
  0
VERTEX
  5
48C4
  8
240
 10
-96.591499999999996
 20
8.4359899999999985
 30
0.0
 70
    32
  0
VERTEX
  5
48C5
  8
240
 10
-96.513499999999993
 20
8.7312999999999992
 30
0.0
 70
    32
  0
VERTEX
  5
48C6
  8
240
 10
-96.432700000000011
 20
9.0248500000000007
 30
0.0
 70
    32
  0
VERTEX
  5
48C7
  8
240
 10
-96.349100000000007
 20
9.3165600000000008
 30
0.0
 70
    32
  0
VERTEX
  5
48C8
  8
240
 10
-96.26260000000002
 20
9.6064000000000007
 30
0.0
 70
    32
  0
VERTEX
  5
48C9
  8
240
 10
-96.173199999999994
 20
9.8942999999999994
 30
0.0
 70
    32
  0
VERTEX
  5
48CA
  8
240
 10
-96.081000000000003
 20
10.180199999999999
 30
0.0
 70
    32
  0
VERTEX
  5
48CB
  8
240
 10
-95.985899999999987
 20
10.4641
 30
0.0
 70
    32
  0
VERTEX
  5
48CC
  8
240
 10
-95.888000000000005
 20
10.745799999999999
 30
0.0
 70
    32
  0
VERTEX
  5
48CD
  8
240
 10
-95.787300000000002
 20
11.025399999999999
 30
0.0
 70
    32
  0
VERTEX
  5
48CE
  8
240
 10
-95.683699999999988
 20
11.3027
 30
0.0
 70
    32
  0
VERTEX
  5
48CF
  8
240
 10
-95.577200000000005
 20
11.5778
 30
0.0
 70
    32
  0
VERTEX
  5
48D0
  8
240
 10
-95.467899999999986
 20
11.8506
 30
0.0
 70
    32
  0
VERTEX
  5
48D1
  8
240
 10
-95.355800000000016
 20
12.120900000000001
 30
0.0
 70
    32
  0
VERTEX
  5
48D2
  8
240
 10
-95.240899999999996
 20
12.3889
 30
0.0
 70
    32
  0
VERTEX
  5
48D3
  8
240
 10
-95.123199999999997
 20
12.654299999999999
 30
0.0
 70
    32
  0
VERTEX
  5
48D4
  8
240
 10
-95.002600000000001
 20
12.9171
 30
0.0
 70
    32
  0
VERTEX
  5
48D5
  8
240
 10
-94.879199999999997
 20
13.1774
 30
0.0
 70
    32
  0
VERTEX
  5
48D6
  8
240
 10
-94.753
 20
13.434900000000001
 30
0.0
 70
    32
  0
VERTEX
  5
48D7
  8
240
 10
-94.623999999999995
 20
13.6898
 30
0.0
 70
    32
  0
VERTEX
  5
48D8
  8
240
 10
-94.492199999999997
 20
13.941800000000001
 30
0.0
 70
    32
  0
VERTEX
  5
48D9
  8
240
 10
-94.357500000000002
 20
14.1911
 30
0.0
 70
    32
  0
VERTEX
  5
48DA
  8
240
 10
-94.220100000000002
 20
14.4374
 30
0.0
 70
    32
  0
VERTEX
  5
48DB
  8
240
 10
-94.079899999999995
 20
14.6807
 30
0.0
 70
    32
  0
VERTEX
  5
48DC
  8
240
 10
-93.936899999999994
 20
14.921099999999999
 30
0.0
 70
    32
  0
VERTEX
  5
48DD
  8
240
 10
-93.790999999999997
 20
15.1584
 30
0.0
 70
    32
  0
VERTEX
  5
48DE
  8
240
 10
-93.642499999999998
 20
15.3926
 30
0.0
 70
    32
  0
VERTEX
  5
48DF
  8
240
 10
-93.491100000000003
 20
15.6235
 30
0.0
 70
    32
  0
VERTEX
  5
48E0
  8
240
 10
-93.3369
 20
15.8513
 30
0.0
 70
    32
  0
VERTEX
  5
48E1
  8
240
 10
-93.180000000000007
 20
16.075800000000001
 30
0.0
 70
    32
  0
VERTEX
  5
48E2
  8
240
 10
-93.020200000000003
 20
16.296900000000001
 30
0.0
 70
    32
  0
VERTEX
  5
48E3
  8
240
 10
-92.857699999999994
 20
16.514600000000002
 30
0.0
 70
    32
  0
VERTEX
  5
48E4
  8
240
 10
-92.692499999999995
 20
16.7288
 30
0.0
 70
    32
  0
VERTEX
  5
48E5
  8
240
 10
-92.524500000000003
 20
16.939599999999999
 30
0.0
 70
    32
  0
VERTEX
  5
48E6
  8
240
 10
-92.353700000000003
 20
17.146699999999999
 30
0.0
 70
    32
  0
VERTEX
  5
48E7
  8
240
 10
-92.180099999999996
 20
17.350200000000001
 30
0.0
 70
    32
  0
VERTEX
  5
48E8
  8
240
 10
-92.003799999999998
 20
17.5501
 30
0.0
 70
    32
  0
VERTEX
  5
48E9
  8
240
 10
-91.824799999999996
 20
17.746200000000002
 30
0.0
 70
    32
  0
VERTEX
  5
48EA
  8
240
 10
-91.643000000000001
 20
17.938500000000001
 30
0.0
 70
    32
  0
VERTEX
  5
48EB
  8
240
 10
-91.458399999999983
 20
18.126899999999999
 30
0.0
 70
    32
  0
VERTEX
  5
48EC
  8
240
 10
-91.271199999999993
 20
18.311499999999999
 30
0.0
 70
    32
  0
VERTEX
  5
48ED
  8
240
 10
-91.081100000000006
 20
18.492000000000001
 30
0.0
 70
    32
  0
VERTEX
  5
48EE
  8
240
 10
-90.888400000000004
 20
18.668600000000001
 30
0.0
 70
    32
  0
VERTEX
  5
48EF
  8
240
 10
-90.692899999999995
 20
18.841000000000001
 30
0.0
 70
    32
  0
VERTEX
  5
48F0
  8
240
 10
-90.494600000000005
 20
19.0093
 30
0.0
 70
    32
  0
VERTEX
  5
48F1
  8
240
 10
-90.293700000000001
 20
19.173400000000001
 30
0.0
 70
    32
  0
VERTEX
  5
48F2
  8
240
 10
-90.090000000000003
 20
19.333300000000001
 30
0.0
 70
    32
  0
VERTEX
  5
48F3
  8
240
 10
-89.883600000000001
 20
19.488900000000001
 30
0.0
 70
    32
  0
VERTEX
  5
48F4
  8
240
 10
-89.674499999999995
 20
19.6401
 30
0.0
 70
    32
  0
VERTEX
  5
48F5
  8
240
 10
-89.462699999999998
 20
19.786899999999999
 30
0.0
 70
    32
  0
VERTEX
  5
48F6
  8
240
 10
-89.248199999999997
 20
19.929200000000002
 30
0.0
 70
    32
  0
VERTEX
  5
48F7
  8
240
 10
-89.030900000000003
 20
20.067
 30
0.0
 70
    32
  0
VERTEX
  5
48F8
  8
240
 10
-88.811000000000007
 20
20.200099999999999
 30
0.0
 70
    32
  0
VERTEX
  5
48F9
  8
240
 10
-88.588300000000004
 20
20.328700000000001
 30
0.0
 70
    32
  0
VERTEX
  5
48FA
  8
240
 10
-88.362999999999985
 20
20.4526
 30
0.0
 70
    32
  0
VERTEX
  5
48FB
  8
240
 10
-88.135099999999994
 20
20.5718
 30
0.0
 70
    32
  0
VERTEX
  5
48FC
  8
240
 10
-87.904600000000016
 20
20.686399999999999
 30
0.0
 70
    32
  0
VERTEX
  5
48FD
  8
240
 10
-87.671599999999998
 20
20.796500000000002
 30
0.0
 70
    32
  0
VERTEX
  5
48FE
  8
240
 10
-87.436099999999996
 20
20.902000000000001
 30
0.0
 70
    32
  0
VERTEX
  5
48FF
  8
240
 10
-87.198099999999997
 20
21.003
 30
0.0
 70
    32
  0
VERTEX
  5
4900
  8
240
 10
-86.957800000000006
 20
21.099399999999999
 30
0.0
 70
    32
  0
VERTEX
  5
4901
  8
240
 10
-86.715199999999996
 20
21.191400000000002
 30
0.0
 70
    32
  0
VERTEX
  5
4902
  8
240
 10
-86.470399999999998
 20
21.2789
 30
0.0
 70
    32
  0
VERTEX
  5
4903
  8
240
 10
-86.223299999999995
 20
21.361999999999998
 30
0.0
 70
    32
  0
VERTEX
  5
4904
  8
240
 10
-85.974000000000004
 20
21.4406
 30
0.0
 70
    32
  0
VERTEX
  5
4905
  8
240
 10
-85.722599999999986
 20
21.514900000000001
 30
0.0
 70
    32
  0
VERTEX
  5
4906
  8
240
 10
-85.469200000000001
 20
21.584800000000001
 30
0.0
 70
    32
  0
VERTEX
  5
4907
  8
240
 10
-85.213700000000003
 20
21.650400000000001
 30
0.0
 70
    32
  0
VERTEX
  5
4908
  8
240
 10
-84.956299999999999
 20
21.7117
 30
0.0
 70
    32
  0
VERTEX
  5
4909
  8
240
 10
-84.696899999999985
 20
21.768699999999999
 30
0.0
 70
    32
  0
VERTEX
  5
490A
  8
240
 10
-84.435699999999997
 20
21.8215
 30
0.0
 70
    32
  0
VERTEX
  5
490B
  8
240
 10
-84.172700000000006
 20
21.870000000000001
 30
0.0
 70
    32
  0
VERTEX
  5
490C
  8
240
 10
-83.907899999999998
 20
21.914400000000001
 30
0.0
 70
    32
  0
VERTEX
  5
490D
  8
240
 10
-83.641300000000015
 20
21.954499999999999
 30
0.0
 70
    32
  0
VERTEX
  5
490E
  8
240
 10
-83.373199999999997
 20
21.990500000000001
 30
0.0
 70
    32
  0
VERTEX
  5
490F
  8
240
 10
-83.103399999999993
 20
22.022400000000001
 30
0.0
 70
    32
  0
VERTEX
  5
4910
  8
240
 10
-82.831999999999994
 20
22.0501
 30
0.0
 70
    32
  0
VERTEX
  5
4911
  8
240
 10
-82.559200000000004
 20
22.073799999999999
 30
0.0
 70
    32
  0
VERTEX
  5
4912
  8
240
 10
-82.284899999999979
 20
22.093499999999999
 30
0.0
 70
    32
  0
VERTEX
  5
4913
  8
240
 10
-82.009100000000004
 20
22.109100000000002
 30
0.0
 70
    32
  0
VERTEX
  5
4914
  8
240
 10
-81.731999999999985
 20
22.120699999999999
 30
0.0
 70
    32
  0
VERTEX
  5
4915
  8
240
 10
-81.453599999999994
 20
22.128299999999999
 30
0.0
 70
    32
  0
VERTEX
  5
4916
  8
240
 10
-81.174000000000007
 20
22.132000000000001
 30
0.0
 70
    32
  0
VERTEX
  5
4917
  8
240
 10
-80.893100000000004
 20
22.131699999999999
 30
0.0
 70
    32
  0
VERTEX
  5
4918
  8
240
 10
-80.611000000000004
 20
22.127600000000001
 30
0.0
 70
    32
  0
VERTEX
  5
4919
  8
240
 10
-80.3279
 20
22.119599999999998
 30
0.0
 70
    32
  0
VERTEX
  5
491A
  8
240
 10
-80.043699999999987
 20
22.107700000000001
 30
0.0
 70
    32
  0
VERTEX
  5
491B
  8
240
 10
-79.758499999999998
 20
22.091999999999999
 30
0.0
 70
    32
  0
VERTEX
  5
491C
  8
240
 10
-79.472300000000004
 20
22.072500000000002
 30
0.0
 70
    32
  0
VERTEX
  5
491D
  8
240
 10
-79.185299999999998
 20
22.049299999999999
 30
0.0
 70
    32
  0
VERTEX
  5
491E
  8
240
 10
-78.897300000000001
 20
22.022300000000001
 30
0.0
 70
    32
  0
VERTEX
  5
491F
  8
240
 10
-78.608599999999996
 20
21.991499999999998
 30
0.0
 70
    32
  0
VERTEX
  5
4920
  8
240
 10
-78.319100000000006
 20
21.957100000000001
 30
0.0
 70
    32
  0
VERTEX
  5
4921
  8
240
 10
-78.028899999999993
 20
21.919
 30
0.0
 70
    32
  0
VERTEX
  5
4922
  8
240
 10
-77.738100000000003
 20
21.877300000000002
 30
0.0
 70
    32
  0
VERTEX
  5
4923
  8
240
 10
-77.446600000000004
 20
21.831900000000001
 30
0.0
 70
    32
  0
VERTEX
  5
4924
  8
240
 10
-77.154600000000002
 20
21.782900000000001
 30
0.0
 70
    32
  0
VERTEX
  5
4925
  8
240
 10
-76.862099999999984
 20
21.730399999999999
 30
0.0
 70
    32
  0
VERTEX
  5
4926
  8
240
 10
-76.569199999999995
 20
21.674299999999999
 30
0.0
 70
    32
  0
VERTEX
  5
4927
  8
240
 10
-76.275800000000004
 20
21.614699999999999
 30
0.0
 70
    32
  0
VERTEX
  5
4928
  8
240
 10
-75.982100000000003
 20
21.551600000000001
 30
0.0
 70
    32
  0
VERTEX
  5
4929
  8
240
 10
-75.688100000000006
 20
21.485099999999999
 30
0.0
 70
    32
  0
VERTEX
  5
492A
  8
240
 10
-75.393799999999999
 20
21.415099999999999
 30
0.0
 70
    32
  0
VERTEX
  5
492B
  8
240
 10
-75.099400000000003
 20
21.341699999999999
 30
0.0
 70
    32
  0
VERTEX
  5
492C
  8
240
 10
-74.8048
 20
21.264900000000001
 30
0.0
 70
    32
  0
VERTEX
  5
492D
  8
240
 10
-74.510099999999994
 20
21.184699999999999
 30
0.0
 70
    32
  0
VERTEX
  5
492E
  8
240
 10
-74.215299999999999
 20
21.101199999999999
 30
0.0
 70
    32
  0
VERTEX
  5
492F
  8
240
 10
-73.920500000000004
 20
21.014399999999998
 30
0.0
 70
    32
  0
VERTEX
  5
4930
  8
240
 10
-73.625799999999998
 20
20.924199999999999
 30
0.0
 70
    32
  0
VERTEX
  5
4931
  8
240
 10
-73.331199999999995
 20
20.8308
 30
0.0
 70
    32
  0
VERTEX
  5
4932
  8
240
 10
-73.036799999999985
 20
20.734200000000001
 30
0.0
 70
    32
  0
VERTEX
  5
4933
  8
240
 10
-72.742599999999996
 20
20.634399999999999
 30
0.0
 70
    32
  0
VERTEX
  5
4934
  8
240
 10
-72.448599999999999
 20
20.531300000000002
 30
0.0
 70
    32
  0
VERTEX
  5
4935
  8
240
 10
-72.154899999999984
 20
20.4252
 30
0.0
 70
    32
  0
VERTEX
  5
4936
  8
240
 10
-71.861599999999996
 20
20.315799999999999
 30
0.0
 70
    32
  0
VERTEX
  5
4937
  8
240
 10
-71.568600000000004
 20
20.203399999999998
 30
0.0
 70
    32
  0
VERTEX
  5
4938
  8
240
 10
-71.276200000000003
 20
20.087800000000001
 30
0.0
 70
    32
  0
VERTEX
  5
4939
  8
240
 10
-70.984200000000001
 20
19.969200000000001
 30
0.0
 70
    32
  0
VERTEX
  5
493A
  8
240
 10
-70.692800000000005
 20
19.8476
 30
0.0
 70
    32
  0
VERTEX
  5
493B
  8
240
 10
-70.402000000000001
 20
19.722999999999999
 30
0.0
 70
    32
  0
VERTEX
  5
493C
  8
240
 10
-70.111900000000006
 20
19.595300000000002
 30
0.0
 70
    32
  0
VERTEX
  5
493D
  8
240
 10
-69.822500000000005
 20
19.4648
 30
0.0
 70
    32
  0
VERTEX
  5
493E
  8
240
 10
-69.533799999999999
 20
19.331199999999999
 30
0.0
 70
    32
  0
VERTEX
  5
493F
  8
240
 10
-69.245900000000006
 20
19.194800000000001
 30
0.0
 70
    32
  0
VERTEX
  5
4940
  8
240
 10
-68.9589
 20
19.055499999999999
 30
0.0
 70
    32
  0
VERTEX
  5
4941
  8
240
 10
-68.672899999999998
 20
18.9133
 30
0.0
 70
    32
  0
VERTEX
  5
4942
  8
240
 10
-68.387699999999995
 20
18.7683
 30
0.0
 70
    32
  0
VERTEX
  5
4943
  8
240
 10
-68.1036
 20
18.6205
 30
0.0
 70
    32
  0
VERTEX
  5
4944
  8
240
 10
-67.820599999999999
 20
18.469899999999999
 30
0.0
 70
    32
  0
VERTEX
  5
4945
  8
240
 10
-67.538600000000002
 20
18.316500000000001
 30
0.0
 70
    32
  0
VERTEX
  5
4946
  8
240
 10
-67.257900000000006
 20
18.160399999999999
 30
0.0
 70
    32
  0
VERTEX
  5
4947
  8
240
 10
-66.978300000000004
 20
18.0016
 30
0.0
 70
    32
  0
VERTEX
  5
4948
  8
240
 10
-66.700000000000003
 20
17.8401
 30
0.0
 70
    32
  0
SEQEND
  5
4949
  8
240
  0
POLYLINE
  5
494A
  8
240
 66
     1
 10
0.0
 20
0.0
 30
0.0
 70
     8
  0
VERTEX
  5
494B
  8
240
 10
-66.700000000000003
 20
-17.8401
 30
0.0
 70
    32
  0
VERTEX
  5
494C
  8
240
 10
-66.978300000000004
 20
-18.0016
 30
0.0
 70
    32
  0
VERTEX
  5
494D
  8
240
 10
-67.257900000000006
 20
-18.160399999999999
 30
0.0
 70
    32
  0
VERTEX
  5
494E
  8
240
 10
-67.538600000000002
 20
-18.316500000000001
 30
0.0
 70
    32
  0
VERTEX
  5
494F
  8
240
 10
-67.820599999999999
 20
-18.469899999999999
 30
0.0
 70
    32
  0
VERTEX
  5
4950
  8
240
 10
-68.1036
 20
-18.6205
 30
0.0
 70
    32
  0
VERTEX
  5
4951
  8
240
 10
-68.387699999999995
 20
-18.7683
 30
0.0
 70
    32
  0
VERTEX
  5
4952
  8
240
 10
-68.672899999999998
 20
-18.9133
 30
0.0
 70
    32
  0
VERTEX
  5
4953
  8
240
 10
-68.9589
 20
-19.055499999999999
 30
0.0
 70
    32
  0
VERTEX
  5
4954
  8
240
 10
-69.245900000000006
 20
-19.194800000000001
 30
0.0
 70
    32
  0
VERTEX
  5
4955
  8
240
 10
-69.533799999999999
 20
-19.331199999999999
 30
0.0
 70
    32
  0
VERTEX
  5
4956
  8
240
 10
-69.822500000000005
 20
-19.4648
 30
0.0
 70
    32
  0
VERTEX
  5
4957
  8
240
 10
-70.111900000000006
 20
-19.595300000000002
 30
0.0
 70
    32
  0
VERTEX
  5
4958
  8
240
 10
-70.402000000000001
 20
-19.722999999999999
 30
0.0
 70
    32
  0
VERTEX
  5
4959
  8
240
 10
-70.692800000000005
 20
-19.8476
 30
0.0
 70
    32
  0
VERTEX
  5
495A
  8
240
 10
-70.984200000000001
 20
-19.969200000000001
 30
0.0
 70
    32
  0
VERTEX
  5
495B
  8
240
 10
-71.276200000000003
 20
-20.087800000000001
 30
0.0
 70
    32
  0
VERTEX
  5
495C
  8
240
 10
-71.568600000000004
 20
-20.203399999999998
 30
0.0
 70
    32
  0
VERTEX
  5
495D
  8
240
 10
-71.861599999999996
 20
-20.315799999999999
 30
0.0
 70
    32
  0
VERTEX
  5
495E
  8
240
 10
-72.154899999999984
 20
-20.4252
 30
0.0
 70
    32
  0
VERTEX
  5
495F
  8
240
 10
-72.448599999999999
 20
-20.531300000000002
 30
0.0
 70
    32
  0
VERTEX
  5
4960
  8
240
 10
-72.742599999999996
 20
-20.634399999999999
 30
0.0
 70
    32
  0
VERTEX
  5
4961
  8
240
 10
-73.036799999999985
 20
-20.734200000000001
 30
0.0
 70
    32
  0
VERTEX
  5
4962
  8
240
 10
-73.331199999999995
 20
-20.8308
 30
0.0
 70
    32
  0
VERTEX
  5
4963
  8
240
 10
-73.625799999999998
 20
-20.924199999999999
 30
0.0
 70
    32
  0
VERTEX
  5
4964
  8
240
 10
-73.920500000000004
 20
-21.014399999999998
 30
0.0
 70
    32
  0
VERTEX
  5
4965
  8
240
 10
-74.215299999999999
 20
-21.101199999999999
 30
0.0
 70
    32
  0
VERTEX
  5
4966
  8
240
 10
-74.510099999999994
 20
-21.184699999999999
 30
0.0
 70
    32
  0
VERTEX
  5
4967
  8
240
 10
-74.8048
 20
-21.264900000000001
 30
0.0
 70
    32
  0
VERTEX
  5
4968
  8
240
 10
-75.099400000000003
 20
-21.341699999999999
 30
0.0
 70
    32
  0
VERTEX
  5
4969
  8
240
 10
-75.393799999999999
 20
-21.415099999999999
 30
0.0
 70
    32
  0
VERTEX
  5
496A
  8
240
 10
-75.688100000000006
 20
-21.485099999999999
 30
0.0
 70
    32
  0
VERTEX
  5
496B
  8
240
 10
-75.982100000000003
 20
-21.551600000000001
 30
0.0
 70
    32
  0
VERTEX
  5
496C
  8
240
 10
-76.275800000000004
 20
-21.614699999999999
 30
0.0
 70
    32
  0
VERTEX
  5
496D
  8
240
 10
-76.569199999999995
 20
-21.674299999999999
 30
0.0
 70
    32
  0
VERTEX
  5
496E
  8
240
 10
-76.862099999999984
 20
-21.730399999999999
 30
0.0
 70
    32
  0
VERTEX
  5
496F
  8
240
 10
-77.154600000000002
 20
-21.782900000000001
 30
0.0
 70
    32
  0
VERTEX
  5
4970
  8
240
 10
-77.446600000000004
 20
-21.831900000000001
 30
0.0
 70
    32
  0
VERTEX
  5
4971
  8
240
 10
-77.738100000000003
 20
-21.877300000000002
 30
0.0
 70
    32
  0
VERTEX
  5
4972
  8
240
 10
-78.028899999999993
 20
-21.919
 30
0.0
 70
    32
  0
VERTEX
  5
4973
  8
240
 10
-78.319100000000006
 20
-21.957100000000001
 30
0.0
 70
    32
  0
VERTEX
  5
4974
  8
240
 10
-78.608599999999996
 20
-21.991499999999998
 30
0.0
 70
    32
  0
VERTEX
  5
4975
  8
240
 10
-78.897300000000001
 20
-22.022300000000001
 30
0.0
 70
    32
  0
VERTEX
  5
4976
  8
240
 10
-79.185299999999998
 20
-22.049299999999999
 30
0.0
 70
    32
  0
VERTEX
  5
4977
  8
240
 10
-79.472300000000004
 20
-22.072500000000002
 30
0.0
 70
    32
  0
VERTEX
  5
4978
  8
240
 10
-79.758499999999998
 20
-22.091999999999999
 30
0.0
 70
    32
  0
VERTEX
  5
4979
  8
240
 10
-80.043699999999987
 20
-22.107700000000001
 30
0.0
 70
    32
  0
VERTEX
  5
497A
  8
240
 10
-80.3279
 20
-22.119599999999998
 30
0.0
 70
    32
  0
VERTEX
  5
497B
  8
240
 10
-80.611000000000004
 20
-22.127600000000001
 30
0.0
 70
    32
  0
VERTEX
  5
497C
  8
240
 10
-80.893100000000004
 20
-22.131699999999999
 30
0.0
 70
    32
  0
VERTEX
  5
497D
  8
240
 10
-81.174000000000007
 20
-22.132000000000001
 30
0.0
 70
    32
  0
VERTEX
  5
497E
  8
240
 10
-81.453599999999994
 20
-22.128299999999999
 30
0.0
 70
    32
  0
VERTEX
  5
497F
  8
240
 10
-81.731999999999985
 20
-22.120699999999999
 30
0.0
 70
    32
  0
VERTEX
  5
4980
  8
240
 10
-82.009100000000004
 20
-22.109100000000002
 30
0.0
 70
    32
  0
VERTEX
  5
4981
  8
240
 10
-82.284899999999979
 20
-22.093499999999999
 30
0.0
 70
    32
  0
VERTEX
  5
4982
  8
240
 10
-82.559200000000004
 20
-22.073799999999999
 30
0.0
 70
    32
  0
VERTEX
  5
4983
  8
240
 10
-82.831999999999994
 20
-22.0501
 30
0.0
 70
    32
  0
VERTEX
  5
4984
  8
240
 10
-83.103399999999993
 20
-22.022400000000001
 30
0.0
 70
    32
  0
VERTEX
  5
4985
  8
240
 10
-83.373199999999997
 20
-21.990500000000001
 30
0.0
 70
    32
  0
VERTEX
  5
4986
  8
240
 10
-83.641300000000015
 20
-21.954499999999999
 30
0.0
 70
    32
  0
VERTEX
  5
4987
  8
240
 10
-83.907899999999998
 20
-21.914400000000001
 30
0.0
 70
    32
  0
VERTEX
  5
4988
  8
240
 10
-84.172700000000006
 20
-21.870000000000001
 30
0.0
 70
    32
  0
VERTEX
  5
4989
  8
240
 10
-84.435699999999997
 20
-21.8215
 30
0.0
 70
    32
  0
VERTEX
  5
498A
  8
240
 10
-84.696899999999985
 20
-21.768699999999999
 30
0.0
 70
    32
  0
VERTEX
  5
498B
  8
240
 10
-84.956299999999999
 20
-21.7117
 30
0.0
 70
    32
  0
VERTEX
  5
498C
  8
240
 10
-85.213700000000003
 20
-21.650400000000001
 30
0.0
 70
    32
  0
VERTEX
  5
498D
  8
240
 10
-85.469200000000001
 20
-21.584800000000001
 30
0.0
 70
    32
  0
VERTEX
  5
498E
  8
240
 10
-85.722599999999986
 20
-21.514900000000001
 30
0.0
 70
    32
  0
VERTEX
  5
498F
  8
240
 10
-85.974000000000004
 20
-21.4406
 30
0.0
 70
    32
  0
VERTEX
  5
4990
  8
240
 10
-86.223299999999995
 20
-21.361999999999998
 30
0.0
 70
    32
  0
VERTEX
  5
4991
  8
240
 10
-86.470399999999998
 20
-21.2789
 30
0.0
 70
    32
  0
VERTEX
  5
4992
  8
240
 10
-86.715199999999996
 20
-21.191400000000002
 30
0.0
 70
    32
  0
VERTEX
  5
4993
  8
240
 10
-86.957800000000006
 20
-21.099399999999999
 30
0.0
 70
    32
  0
VERTEX
  5
4994
  8
240
 10
-87.198099999999997
 20
-21.003
 30
0.0
 70
    32
  0
VERTEX
  5
4995
  8
240
 10
-87.436099999999996
 20
-20.902000000000001
 30
0.0
 70
    32
  0
VERTEX
  5
4996
  8
240
 10
-87.671599999999998
 20
-20.796500000000002
 30
0.0
 70
    32
  0
VERTEX
  5
4997
  8
240
 10
-87.904600000000016
 20
-20.686399999999999
 30
0.0
 70
    32
  0
VERTEX
  5
4998
  8
240
 10
-88.135099999999994
 20
-20.5718
 30
0.0
 70
    32
  0
VERTEX
  5
4999
  8
240
 10
-88.362999999999985
 20
-20.4526
 30
0.0
 70
    32
  0
VERTEX
  5
499A
  8
240
 10
-88.588300000000004
 20
-20.328700000000001
 30
0.0
 70
    32
  0
VERTEX
  5
499B
  8
240
 10
-88.811000000000007
 20
-20.200099999999999
 30
0.0
 70
    32
  0
VERTEX
  5
499C
  8
240
 10
-89.030900000000003
 20
-20.067
 30
0.0
 70
    32
  0
VERTEX
  5
499D
  8
240
 10
-89.248199999999997
 20
-19.929200000000002
 30
0.0
 70
    32
  0
VERTEX
  5
499E
  8
240
 10
-89.462699999999998
 20
-19.786899999999999
 30
0.0
 70
    32
  0
VERTEX
  5
499F
  8
240
 10
-89.674499999999995
 20
-19.6401
 30
0.0
 70
    32
  0
VERTEX
  5
49A0
  8
240
 10
-89.883600000000001
 20
-19.488900000000001
 30
0.0
 70
    32
  0
VERTEX
  5
49A1
  8
240
 10
-90.090000000000003
 20
-19.333300000000001
 30
0.0
 70
    32
  0
VERTEX
  5
49A2
  8
240
 10
-90.293700000000001
 20
-19.173400000000001
 30
0.0
 70
    32
  0
VERTEX
  5
49A3
  8
240
 10
-90.494600000000005
 20
-19.0093
 30
0.0
 70
    32
  0
VERTEX
  5
49A4
  8
240
 10
-90.692899999999995
 20
-18.841000000000001
 30
0.0
 70
    32
  0
VERTEX
  5
49A5
  8
240
 10
-90.888400000000004
 20
-18.668600000000001
 30
0.0
 70
    32
  0
VERTEX
  5
49A6
  8
240
 10
-91.081100000000006
 20
-18.492000000000001
 30
0.0
 70
    32
  0
VERTEX
  5
49A7
  8
240
 10
-91.271199999999993
 20
-18.311499999999999
 30
0.0
 70
    32
  0
VERTEX
  5
49A8
  8
240
 10
-91.458399999999983
 20
-18.126899999999999
 30
0.0
 70
    32
  0
VERTEX
  5
49A9
  8
240
 10
-91.643000000000001
 20
-17.938500000000001
 30
0.0
 70
    32
  0
VERTEX
  5
49AA
  8
240
 10
-91.824799999999996
 20
-17.746200000000002
 30
0.0
 70
    32
  0
VERTEX
  5
49AB
  8
240
 10
-92.003799999999998
 20
-17.5501
 30
0.0
 70
    32
  0
VERTEX
  5
49AC
  8
240
 10
-92.180099999999996
 20
-17.350200000000001
 30
0.0
 70
    32
  0
VERTEX
  5
49AD
  8
240
 10
-92.353700000000003
 20
-17.146699999999999
 30
0.0
 70
    32
  0
VERTEX
  5
49AE
  8
240
 10
-92.524500000000003
 20
-16.939599999999999
 30
0.0
 70
    32
  0
VERTEX
  5
49AF
  8
240
 10
-92.692499999999995
 20
-16.7288
 30
0.0
 70
    32
  0
VERTEX
  5
49B0
  8
240
 10
-92.857699999999994
 20
-16.514600000000002
 30
0.0
 70
    32
  0
VERTEX
  5
49B1
  8
240
 10
-93.020200000000003
 20
-16.296900000000001
 30
0.0
 70
    32
  0
VERTEX
  5
49B2
  8
240
 10
-93.180000000000007
 20
-16.075800000000001
 30
0.0
 70
    32
  0
VERTEX
  5
49B3
  8
240
 10
-93.3369
 20
-15.8513
 30
0.0
 70
    32
  0
VERTEX
  5
49B4
  8
240
 10
-93.491100000000003
 20
-15.6235
 30
0.0
 70
    32
  0
VERTEX
  5
49B5
  8
240
 10
-93.642499999999998
 20
-15.3926
 30
0.0
 70
    32
  0
VERTEX
  5
49B6
  8
240
 10
-93.790999999999997
 20
-15.1584
 30
0.0
 70
    32
  0
VERTEX
  5
49B7
  8
240
 10
-93.936899999999994
 20
-14.921099999999999
 30
0.0
 70
    32
  0
VERTEX
  5
49B8
  8
240
 10
-94.079899999999995
 20
-14.6807
 30
0.0
 70
    32
  0
VERTEX
  5
49B9
  8
240
 10
-94.220100000000002
 20
-14.4374
 30
0.0
 70
    32
  0
VERTEX
  5
49BA
  8
240
 10
-94.357500000000002
 20
-14.1911
 30
0.0
 70
    32
  0
VERTEX
  5
49BB
  8
240
 10
-94.492199999999997
 20
-13.941800000000001
 30
0.0
 70
    32
  0
VERTEX
  5
49BC
  8
240
 10
-94.623999999999995
 20
-13.6898
 30
0.0
 70
    32
  0
VERTEX
  5
49BD
  8
240
 10
-94.753
 20
-13.434900000000001
 30
0.0
 70
    32
  0
VERTEX
  5
49BE
  8
240
 10
-94.879199999999997
 20
-13.1774
 30
0.0
 70
    32
  0
VERTEX
  5
49BF
  8
240
 10
-95.002600000000001
 20
-12.9171
 30
0.0
 70
    32
  0
VERTEX
  5
49C0
  8
240
 10
-95.123199999999997
 20
-12.654299999999999
 30
0.0
 70
    32
  0
VERTEX
  5
49C1
  8
240
 10
-95.240899999999996
 20
-12.3889
 30
0.0
 70
    32
  0
VERTEX
  5
49C2
  8
240
 10
-95.355800000000016
 20
-12.120900000000001
 30
0.0
 70
    32
  0
VERTEX
  5
49C3
  8
240
 10
-95.467899999999986
 20
-11.8506
 30
0.0
 70
    32
  0
VERTEX
  5
49C4
  8
240
 10
-95.577200000000005
 20
-11.5778
 30
0.0
 70
    32
  0
VERTEX
  5
49C5
  8
240
 10
-95.683699999999988
 20
-11.3027
 30
0.0
 70
    32
  0
VERTEX
  5
49C6
  8
240
 10
-95.787300000000002
 20
-11.025399999999999
 30
0.0
 70
    32
  0
VERTEX
  5
49C7
  8
240
 10
-95.888000000000005
 20
-10.745799999999999
 30
0.0
 70
    32
  0
VERTEX
  5
49C8
  8
240
 10
-95.985899999999987
 20
-10.4641
 30
0.0
 70
    32
  0
VERTEX
  5
49C9
  8
240
 10
-96.081000000000003
 20
-10.180199999999999
 30
0.0
 70
    32
  0
VERTEX
  5
49CA
  8
240
 10
-96.173199999999994
 20
-9.8942999999999994
 30
0.0
 70
    32
  0
VERTEX
  5
49CB
  8
240
 10
-96.26260000000002
 20
-9.6064000000000007
 30
0.0
 70
    32
  0
VERTEX
  5
49CC
  8
240
 10
-96.349100000000007
 20
-9.3165600000000008
 30
0.0
 70
    32
  0
VERTEX
  5
49CD
  8
240
 10
-96.432700000000011
 20
-9.0248500000000007
 30
0.0
 70
    32
  0
VERTEX
  5
49CE
  8
240
 10
-96.513499999999993
 20
-8.7312999999999992
 30
0.0
 70
    32
  0
VERTEX
  5
49CF
  8
240
 10
-96.591499999999996
 20
-8.4359899999999985
 30
0.0
 70
    32
  0
VERTEX
  5
49D0
  8
240
 10
-96.666499999999999
 20
-8.1389700000000005
 30
0.0
 70
    32
  0
VERTEX
  5
49D1
  8
240
 10
-96.738699999999994
 20
-7.8402899999999986
 30
0.0
 70
    32
  0
VERTEX
  5
49D2
  8
240
 10
-96.808000000000007
 20
-7.5400099999999997
 30
0.0
 70
    32
  0
VERTEX
  5
49D3
  8
240
 10
-96.874399999999994
 20
-7.2381799999999998
 30
0.0
 70
    32
  0
VERTEX
  5
49D4
  8
240
 10
-96.938000000000017
 20
-6.9348700000000001
 30
0.0
 70
    32
  0
VERTEX
  5
49D5
  8
240
 10
-96.99860000000001
 20
-6.6301300000000003
 30
0.0
 70
    32
  0
VERTEX
  5
49D6
  8
240
 10
-97.056399999999996
 20
-6.3240199999999991
 30
0.0
 70
    32
  0
VERTEX
  5
49D7
  8
240
 10
-97.1113
 20
-6.0165800000000003
 30
0.0
 70
    32
  0
VERTEX
  5
49D8
  8
240
 10
-97.163200000000003
 20
-5.707889999999999
 30
0.0
 70
    32
  0
VERTEX
  5
49D9
  8
240
 10
-97.212299999999999
 20
-5.3979900000000001
 30
0.0
 70
    32
  0
VERTEX
  5
49DA
  8
240
 10
-97.258500000000012
 20
-5.0869400000000002
 30
0.0
 70
    32
  0
VERTEX
  5
49DB
  8
240
 10
-97.3018
 20
-4.774799999999999
 30
0.0
 70
    32
  0
VERTEX
  5
49DC
  8
240
 10
-97.342100000000002
 20
-4.4616300000000004
 30
0.0
 70
    32
  0
VERTEX
  5
49DD
  8
240
 10
-97.379600000000011
 20
-4.1474699999999993
 30
0.0
 70
    32
  0
VERTEX
  5
49DE
  8
240
 10
-97.414100000000005
 20
-3.8323900000000002
 30
0.0
 70
    32
  0
VERTEX
  5
49DF
  8
240
 10
-97.445700000000016
 20
-3.516449999999999
 30
0.0
 70
    32
  0
VERTEX
  5
49E0
  8
240
 10
-97.474400000000003
 20
-3.1996899999999999
 30
0.0
 70
    32
  0
VERTEX
  5
49E1
  8
240
 10
-97.500200000000007
 20
-2.8821899999999991
 30
0.0
 70
    32
  0
VERTEX
  5
49E2
  8
240
 10
-97.523100000000014
 20
-2.563979999999999
 30
0.0
 70
    32
  0
VERTEX
  5
49E3
  8
240
 10
-97.543000000000006
 20
-2.2451300000000001
 30
0.0
 70
    32
  0
VERTEX
  5
49E4
  8
240
 10
-97.559899999999999
 20
-1.9256999999999991
 30
0.0
 70
    32
  0
VERTEX
  5
49E5
  8
240
 10
-97.573999999999998
 20
-1.6057399999999991
 30
0.0
 70
    32
  0
VERTEX
  5
49E6
  8
240
 10
-97.585100000000011
 20
-1.2853099999999991
 30
0.0
 70
    32
  0
VERTEX
  5
49E7
  8
240
 10
-97.593199999999996
 20
-0.9644669999999999
 30
0.0
 70
    32
  0
VERTEX
  5
49E8
  8
240
 10
-97.598399999999998
 20
-0.643262
 30
0.0
 70
    32
  0
VERTEX
  5
49E9
  8
240
 10
-97.600700000000003
 20
-0.321754
 30
0.0
 70
    32
  0
VERTEX
  5
49EA
  8
240
 10
-97.599999999999994
 20
0.0000000000138786
 30
0.0
 70
    32
  0
SEQEND
  5
49EB
  8
240
  0
VIEWPORT
  5
22
 67
     1
  8
0
 10
261.51769911504419
 20
148.5
 30
0.0
 40
523.0353982300885
 41
297.0
 68
     1
 69
     1
1001
ACAD
1000
MVIEW
1002
{
1070
    16
1010
0.0
1020
0.0
1030
0.0
1010
0.0
1020
0.0
1030
1.0
1040
0.0
1040
297.0
1040
261.51769911504419
1040
148.5
1040
50.0
1040
0.0
1040
0.0
1070
     0
1070
   100
1070
     1
1070
     1
1070
     0
1070
     0
1070
     0
1070
     0
1040
0.0
1040
0.0
1040
0.0
1040
1.0
1040
1.0
1040
10.0
1040
10.0
1070
     0
1002
{
1002
}
1002
}
1001
GENIUS_GENODEF_13
1002
{
1000
HIER
1070
     0
1002
}
1002
{
1000
MANEDIT
1070
     0
1002
}
1002
{
1000
NOSEL
1070
     0
1002
}
1002
{
1000
BEHIND
1070
     0
1002
}
1002
{
1000
OTHER
1070
     0
1002
}
1002
{
1000
REACTOR
1002
}
1001
GENIUS_GENOBJ-N-SDF_13
1002
{
1000
OWNER
1000
GEN
1002
}
1001
GENIUS_GENSCREG_15
1000
PF
1040
1.0
1000
DF
1040
1.0
1000
MIN
1011
0.0
1021
0.0
1031
0.0
1021
0.0
1031
0.0
1000
MAX
1011
523.0353982300885
1021
0.0
1031
0.0
1021
297.0
1031
0.0
1000
FLAGS
1070
     4
  0
ENDSEC
  0
EOF
