  0
SECTION
  2
HEADER
  9
$ACADVER
  1
AC1009
  9
$INSBASE
 10
0.0
 20
0.0
 30
0.0
  9
$EXTMIN
 10
-39.0
 20
-40.0
 30
0.0
  9
$EXTMAX
 10
151.5
 20
82.000000000000014
 30
0.0
  9
$LIMMIN
 10
0.0
 20
0.0
  9
$LIMMAX
 10
297.0
 20
210.0
  9
$ORTHOMODE
 70
     0
  9
$REGENMODE
 70
     1
  9
$FILLMODE
 70
     1
  9
$QTEXTMODE
 70
     0
  9
$MIRRTEXT
 70
     1
  9
$DRAGMODE
 70
     2
  9
$LTSCALE
 40
10.0
  9
$OSMODE
 70
    45
  9
$ATTMODE
 70
     1
  9
$TEXTSIZE
 40
3.0
  9
$TRACEWID
 40
1.0
  9
$TEXTSTYLE
  7
YOKO
  9
$CLAYER
  8
241
  9
$CELTYPE
  6
BYLAYER
  9
$CECOLOR
 62
   256
  9
$DIMSCALE
 40
1.0
  9
$DIMASZ
 40
2.2299999999999991
  9
$DIMEXO
 40
0.5
  9
$DIMDLI
 40
7.0
  9
$DIMRND
 40
0.0
  9
$DIMDLE
 40
0.0
  9
$DIMEXE
 40
1.0
  9
$DIMTP
 40
0.0
  9
$DIMTM
 40
0.01
  9
$DIMTXT
 40
2.7999999999999989
  9
$DIMCEN
 40
0.0
  9
$DIMTSZ
 40
0.0
  9
$DIMTOL
 70
     0
  9
$DIMLIM
 70
     0
  9
$DIMTIH
 70
     0
  9
$DIMTOH
 70
     0
  9
$DIMSE1
 70
     0
  9
$DIMSE2
 70
     0
  9
$DIMTAD
 70
     3
  9
$DIMZIN
 70
     9
  9
$DIMBLK
  1
OPEN
  9
$DIMASO
 70
     1
  9
$DIMSHO
 70
     1
  9
$DIMPOST
  1

  9
$DIMAPOST
  1

  9
$DIMALT
 70
     0
  9
$DIMALTD
 70
     2
  9
$DIMALTF
 40
25.399999999999999
  9
$DIMLFAC
 40
1.0
  9
$DIMTOFL
 70
     1
  9
$DIMTVP
 40
0.0
  9
$DIMTIX
 70
     1
  9
$DIMSOXD
 70
     0
  9
$DIMSAH
 70
     0
  9
$DIMBLK1
  1

  9
$DIMBLK2
  1

  9
$DIMSTYLE
  2
BIGT
  9
$DIMCLRD
 70
   256
  9
$DIMCLRE
 70
   256
  9
$DIMCLRT
 70
    40
  9
$DIMTFAC
 40
1.0
  9
$DIMGAP
 40
1.0
  9
$LUNITS
 70
     2
  9
$LUPREC
 70
     6
  9
$SKETCHINC
 40
1.0
  9
$FILLETRAD
 40
0.0
  9
$AUNITS
 70
     0
  9
$AUPREC
 70
     6
  9
$MENU
  1
.
  9
$ELEVATION
 40
0.0
  9
$PELEVATION
 40
0.0
  9
$THICKNESS
 40
0.0
  9
$LIMCHECK
 70
     0
  9
$BLIPMODE
 70
     0
  9
$CHAMFERA
 40
0.2
  9
$CHAMFERB
 40
0.2
  9
$SKPOLY
 70
     0
  9
$TDCREATE
 40
2457865.7611159259
  9
$TDUPDATE
 40
2457865.771556343
  9
$TDINDWG
 40
0.0072196412
  9
$TDUSRTIMER
 40
0.0072196181
  9
$USRTIMER
 70
     1
  9
$ANGBASE
 50
0.0
  9
$ANGDIR
 70
     0
  9
$PDMODE
 70
     1
  9
$PDSIZE
 40
0.0
  9
$PLINEWID
 40
0.0
  9
$COORDS
 70
     1
  9
$SPLFRAME
 70
     0
  9
$SPLINETYPE
 70
     6
  9
$SPLINESEGS
 70
     4
  9
$ATTDIA
 70
     1
  9
$ATTREQ
 70
     1
  9
$HANDLING
 70
     1
  9
$HANDSEED
  5
459A
  9
$SURFTAB1
 70
     6
  9
$SURFTAB2
 70
     6
  9
$SURFTYPE
 70
     6
  9
$SURFU
 70
     6
  9
$SURFV
 70
     6
  9
$UCSNAME
  2

  9
$UCSORG
 10
0.0
 20
0.0
 30
0.0
  9
$UCSXDIR
 10
1.0
 20
0.0
 30
0.0
  9
$UCSYDIR
 10
0.0
 20
1.0
 30
0.0
  9
$PUCSNAME
  2

  9
$PUCSORG
 10
0.0
 20
0.0
 30
0.0
  9
$PUCSXDIR
 10
1.0
 20
0.0
 30
0.0
  9
$PUCSYDIR
 10
0.0
 20
1.0
 30
0.0
  9
$USERI1
 70
     1
  9
$USERI2
 70
     0
  9
$USERI3
 70
     0
  9
$USERI4
 70
     0
  9
$USERI5
 70
     0
  9
$USERR1
 40
0.0
  9
$USERR2
 40
0.0
  9
$USERR3
 40
0.0
  9
$USERR4
 40
0.0
  9
$USERR5
 40
0.0
  9
$WORLDVIEW
 70
     1
  9
$SHADEDGE
 70
     3
  9
$SHADEDIF
 70
    70
  9
$TILEMODE
 70
     1
  9
$MAXACTVP
 70
    16
  9
$PLIMCHECK
 70
     0
  9
$PEXTMIN
 10
1.0000000000000000E+020
 20
1.0000000000000000E+020
 30
1.0000000000000000E+020
  9
$PEXTMAX
 10
-1.0000000000000000E+020
 20
-1.0000000000000000E+020
 30
-1.0000000000000000E+020
  9
$PLIMMIN
 10
0.0
 20
0.0
  9
$PLIMMAX
 10
420.0
 20
297.0
  9
$UNITMODE
 70
     0
  9
$VISRETAIN
 70
     1
  9
$PLINEGEN
 70
     0
  9
$PSLTSCALE
 70
     1
  0
ENDSEC
  0
SECTION
  2
TABLES
  0
TABLE
  2
VPORT
 70
     1
  0
VPORT
  2
*ACTIVE
 70
     0
 10
0.0
 20
0.0
 11
1.0
 21
1.0
 12
44.355293544245853
 22
9.176029112834442
 13
0.0
 23
0.0
 14
7.0
 24
7.0
 15
7.0
 25
7.0
 16
0.0
 26
0.0
 36
1.0
 17
0.0
 27
0.0
 37
0.0
 40
168.8061893051034
 41
1.7003792667509481
 42
50.0
 43
0.0
 44
0.0
 50
0.0
 51
0.0
 71
     0
 72
  2000
 73
     1
 74
     0
 75
     0
 76
     1
 77
     0
 78
     0
  0
ENDTAB
  0
TABLE
  2
LTYPE
 70
    21
  0
LTYPE
  2
CONTINUOUS
 70
     0
  3
Solid line
 72
    65
 73
     0
 40
0.0
  0
LTYPE
  2
CENTER2
 70
     0
  3
___ _ ___ _ ___ _ ___ _ ___ _ ___ _ ___ _ ___ _
 72
    65
 73
     4
 40
1.125
 49
0.75
 49
-0.125
 49
0.125
 49
-0.125
  0
LTYPE
  2
HIDDEN2
 70
     0
  3
_ _ _ _ _ _ _ _ _ _ _ _ _ _ _ _ _ _ _ _ _ _ _ _
 72
    65
 73
     2
 40
0.1875
 49
0.125
 49
-0.0625
  0
LTYPE
  2
AM_ISO02W050
 70
     0
  3
__ __ __ __ __ __ __ __ __ __ __ __ __ __ __
 72
    65
 73
     2
 40
7.5
 49
6.0
 49
-1.5
  0
LTYPE
  2
AMCONSTR
 70
     0
  3
_______________________
 72
    65
 73
     2
 40
9999.0
 49
9999.0
 49
0.0
  0
LTYPE
  2
ACISOWELD
 70
     0
  3
_ _ _ _ _
 72
    65
 73
     2
 40
2.0
 49
2.0
 49
-1.0
  0
LTYPE
  2
ACISOTGB
 70
     0
  3
__ . . __ . .
 72
    65
 73
     6
 40
9.0
 49
4.0
 49
-1.0
 49
1.0
 49
-1.0
 49
1.0
 49
-1.0
  0
LTYPE
  2
ACISOTGL
 70
     0
  3
_ _ _ _ _
 72
    65
 73
     2
 40
3.0
 49
2.0
 49
-1.0
  0
LTYPE
  2
AM_ISO08W050
 70
     0
  3
____ . ____ . ____ . ____ . ____ . ____ . ____
 72
    65
 73
     4
 40
18.0
 49
12.0
 49
-1.5
 49
3.0
 49
-1.5
  0
LTYPE
  2
AM_ISO09W050
 70
     0
  3
_____ . . _____ . . _____ . . ____ .. ____
 72
    65
 73
     6
 40
22.5
 49
12.0
 49
-1.5
 49
3.0
 49
-1.5
 49
3.0
 49
-1.5
  0
LTYPE
  2
AM_ISO08W050X2
 70
     0
  3
__ . __ . __ . __ . __ . __
 72
    65
 73
     4
 40
9.0
 49
6.0
 49
-0.75
 49
1.5
 49
-0.75
  0
LTYPE
  2
AM_ISO02W050X2
 70
     0
  3
 _ _ _ _ _ _ _ _ _ _ _ _
 72
    65
 73
     2
 40
3.75
 49
3.0
 49
-0.75
  0
LTYPE
  2
AMZIGZAG
 70
     0
  3
/\/-/\/-/\/-/\/-/\/-/\/
 72
    65
 73
     2
 40
11.0001
 49
0.0001
 49
-11.0
  0
ENDTAB
  0
TABLE
  2
LAYER
 70
    10
  0
LAYER
  2
0
 70
     0
 62
     7
  6
CONTINUOUS
  0
LAYER
  2
DEFPOINTS
 70
     0
 62
     7
  6
CONTINUOUS
  0
LAYER
  2
245
 70
     0
 62
     2
  6
CENTER2
  0
LAYER
  2
240
 70
     0
 62
     4
  6
CONTINUOUS
  0
LAYER
  2
241
 70
     0
 62
   211
  6
CONTINUOUS
  0
LAYER
  2
242
 70
     0
 62
     3
  6
CONTINUOUS
  0
LAYER
  2
243
 70
     0
 62
   211
  6
HIDDEN2
  0
LAYER
  2
247
 70
     0
 62
    60
  6
CONTINUOUS
  0
LAYER
  2
250
 70
     0
 62
     3
  6
CONTINUOUS
  0
ENDTAB
  0
TABLE
  2
STYLE
 70
     8
  0
STYLE
  2
STANDARD
 70
     0
 40
0.0
 41
1.0
 50
0.0
 71
     0
 42
3.0
  3
romans.shx
  4
extfont.shx
  0
STYLE
  2
ACISOGDT
 70
     0
 40
0.0
 41
1.0
 50
0.0
 71
     0
 42
3.0
  3
amgdt.shx
  4
extfont.shx
  0
STYLE
  2
YOKO
 70
     0
 40
0.0
 41
1.0
 50
0.0
 71
     0
 42
3.0
  3
romans.shx
  4
extfont.shx
  0
STYLE
  2

 70
     1
 40
0.0
 41
1.0
 50
0.0
 71
     0
 42
3.0
  3
genltshp.shx
  4

  0
ENDTAB
  0
TABLE
  2
VIEW
 70
     0
  0
ENDTAB
  0
TABLE
  2
UCS
 70
     0
  0
ENDTAB
  0
TABLE
  2
APPID
 70
    38
  0
APPID
  2
ACAD
 70
     0
  0
APPID
  2
GLOBAL
 70
     0
  0
APPID
  2
DETAIL
 70
     0
  0
APPID
  2
GRPNAME
 70
     0
  0
APPID
  2
GPARA
 70
     0
  0
APPID
  2
MCAD_NO_VIS
 70
     0
  0
APPID
  2
ACAD_TEMP_GRAPHIC
 70
     0
  0
APPID
  2
ACATTRIBSERVICES
 70
     0
  0
APPID
  2
GENIUS_GENSCREG_15
 70
     0
  0
APPID
  2
GENIUS_GENODEF_13
 70
     0
  0
APPID
  2
GENIUS_GENOBJ-N-SDF_13
 70
     0
  0
APPID
  2
GENIUS_GENREC_14
 70
     0
  0
APPID
  2
GENIUS_GENOBJ-N-REC_13
 70
     0
  0
APPID
  2
GENIUS_GENDIMSH_14
 70
     0
  0
APPID
  2
GENIUS_GENOBJ-N-DIM_13
 70
     0
  0
APPID
  2
GENIUS_GENDIM_13
 70
     0
  0
APPID
  2
GENIUS_GENDTOL_13
 70
     0
  0
APPID
  2
GENIUS_GENOLIS_13
 70
     0
  0
APPID
  2
GENIUS_GENOENT_13
 70
     0
  0
APPID
  2
GENIUS_GENOBJ-F-FEM_13
 70
     0
  0
APPID
  2
GENIUS_GENOREF_13
 70
     0
  0
APPID
  2
GENIUS_GEFFEM_13
 70
     0
  0
APPID
  2
GENIUS_GEFFEMP_13
 70
     0
  0
APPID
  2
AD_DRAW
 70
     0
  0
APPID
  2
DESIGNERASSEMBLIES
 70
     0
  0
APPID
  2
ACADM_DIM_EDIT
 70
     0
  0
APPID
  2
AMDT_DM_ADJ
 70
     0
  0
APPID
  2
ITEMNAME
 70
     0
  0
APPID
  2
GENIUS_GENOBJ-N-FIL_13
 70
     0
  0
APPID
  2
GENIUS_GENFIL_13
 70
     0
  0
APPID
  2
GENIUS_GENOBJ-N-CHA_13
 70
     0
  0
APPID
  2
ACAECLAYERSTANDARD
 70
     0
  0
APPID
  2
ACAD_NAV_VCDISPLAY
 70
     0
  0
APPID
  2
ACAD_DSTYLE_DIMJAG
 70
     0
  0
APPID
  2
ACAD_DSTYLE_DIMBREAK
 70
     0
  0
APPID
  2
ACAD_EXEMPT_FROM_CAD_STANDARDS
 70
     0
  0
APPID
  2
ACAD_PSEXT
 70
     0
  0
APPID
  2
ACAD_MLEADERVER
 70
     0
  0
ENDTAB
  0
TABLE
  2
DIMSTYLE
 70
    32
  0
DIMSTYLE
  2
BIGT
 70
     0
  3

  4

  5
OPEN
  6

  7

 40
1.0
 41
2.2299999999999991
 42
0.5
 43
7.0
 44
1.0
 45
0.0
 46
0.0
 47
0.0
 48
0.01
140
2.7999999999999989
141
0.0
142
0.0
143
25.399999999999999
144
1.0
145
0.0
146
1.0
147
1.0
 71
     0
 72
     0
 73
     0
 74
     0
 75
     0
 76
     0
 77
     3
 78
     9
170
     0
171
     2
172
     1
173
     0
174
     1
175
     0
176
   256
177
   256
178
    40
  0
DIMSTYLE
  2
AM_ISO
 70
     0
  3

  4
"
  5

  6

  7

 40
1.0
 41
2.5
 42
1.0
 43
10.0
 44
1.0
 45
0.0
 46
0.0
 47
0.1
 48
0.1
140
3.5
141
0.0
142
0.0
143
0.0393701
144
1.0
145
0.0
146
0.71
147
1.5
 71
     0
 72
     0
 73
     0
 74
     0
 75
     0
 76
     0
 77
     1
 78
     8
170
     0
171
     2
172
     1
173
     0
174
     0
175
     0
176
   256
177
   256
178
     2
  0
DIMSTYLE
  2
AM_ISO$3
 70
     0
  3

  4
"
  5

  6

  7

 40
1.0
 41
2.5
 42
1.0
 43
10.0
 44
1.0
 45
0.0
 46
0.0
 47
0.1
 48
0.1
140
3.5
141
0.0
142
0.0
143
0.0393701
144
1.0
145
0.0
146
0.71
147
1.5
 71
     0
 72
     0
 73
     0
 74
     1
 75
     0
 76
     0
 77
     1
 78
     8
170
     0
171
     2
172
     0
173
     0
174
     0
175
     0
176
   256
177
   256
178
     2
  0
DIMSTYLE
  2
AM_ISO$4
 70
     0
  3

  4
"
  5

  6

  7

 40
1.0
 41
2.5
 42
1.0
 43
10.0
 44
1.0
 45
0.0
 46
0.0
 47
0.1
 48
0.1
140
3.5
141
0.0
142
0.0
143
0.0393701
144
1.0
145
0.0
146
0.71
147
1.5
 71
     0
 72
     0
 73
     0
 74
     1
 75
     0
 76
     0
 77
     1
 78
     8
170
     0
171
     2
172
     0
173
     0
174
     0
175
     0
176
   256
177
   256
178
     2
  0
DIMSTYLE
  2
AM_ISO$6
 70
     0
  3

  4
"
  5

  6

  7

 40
1.0
 41
2.5
 42
1.0
 43
10.0
 44
1.0
 45
0.0
 46
0.0
 47
0.1
 48
0.1
140
3.5
141
0.0
142
0.0
143
0.0393701
144
1.0
145
0.0
146
0.71
147
1.5
 71
     0
 72
     0
 73
     0
 74
     0
 75
     0
 76
     0
 77
     0
 78
     8
170
     0
171
     2
172
     1
173
     0
174
     0
175
     0
176
   256
177
   256
178
     2
  0
DIMSTYLE
  2
AM_ISO$7
 70
     0
  3

  4
"
  5

  6

  7

 40
1.0
 41
2.5
 42
1.0
 43
10.0
 44
1.0
 45
0.0
 46
0.0
 47
0.1
 48
0.1
140
5.0
141
0.0
142
0.0
143
0.0393701
144
1.0
145
0.0
146
0.71
147
1.5
 71
     0
 72
     0
 73
     0
 74
     0
 75
     0
 76
     0
 77
     1
 78
     8
170
     0
171
     2
172
     1
173
     0
174
     0
175
     0
176
   256
177
   256
178
     2
  0
DIMSTYLE
  2
AM_ISO$SF
 70
     0
  3

  4
"
  5

  6

  7

 40
1.0
 41
2.5
 42
1.0
 43
10.0
 44
1.0
 45
0.0
 46
0.0
 47
0.1
 48
0.1
140
3.5
141
0.0
142
0.0
143
0.0393701
144
1.0
145
0.0
146
0.71
147
1.5
 71
     0
 72
     0
 73
     0
 74
     0
 75
     1
 76
     1
 77
     1
 78
     8
170
     0
171
     2
172
     1
173
     0
174
     0
175
     0
176
   256
177
   256
178
     2
  0
DIMSTYLE
  2
AM_ISO$SH
 70
     0
  3

  4
"
  5

  6
GENAXEH
  7

 40
1.0
 41
2.5
 42
1.0
 43
10.0
 44
1.0
 45
0.0
 46
0.0
 47
0.1
 48
0.1
140
3.5
141
0.0
142
0.0
143
0.0393701
144
2.0
145
0.0
146
0.71
147
1.5
 71
     0
 72
     0
 73
     0
 74
     0
 75
     1
 76
     1
 77
     1
 78
     8
170
     0
171
     2
172
     1
173
     1
174
     0
175
     0
176
   256
177
   256
178
     2
  0
ENDTAB
  0
ENDSEC
  0
SECTION
  2
BLOCKS
  0
BLOCK
  8
0
  2
$MODEL_SPACE
 70
     0
 10
0.0
 20
0.0
 30
0.0
  3
$MODEL_SPACE
  1

  0
ENDBLK
  5
1C
  8
0
  0
BLOCK
 67
     1
  8
0
  2
$PAPER_SPACE
 70
     0
 10
0.0
 20
0.0
 30
0.0
  3
$PAPER_SPACE
  1

  0
ENDBLK
  5
19
 67
     1
  8
0
  0
BLOCK
  8
0
  2
_OPEN
 70
     0
 10
0.0
 20
0.0
 30
0.0
  3
_OPEN
  1

  0
LINE
  5
3E1A
  8
0
  6
BYBLOCK
 62
     0
 10
-1.0
 20
0.1666666666666666
 30
0.0
 11
0.0
 21
0.0
 31
0.0
  0
LINE
  5
3E1B
  8
0
  6
BYBLOCK
 62
     0
 10
-1.0
 20
-0.1666666666666666
 30
0.0
 11
0.0
 21
0.0
 31
0.0
  0
LINE
  5
3E1C
  8
0
  6
BYBLOCK
 62
     0
 10
0.0
 20
0.0
 30
0.0
 11
-1.0
 21
0.0
 31
0.0
  0
ENDBLK
  5
3E1D
  8
0
  0
BLOCK
  8
0
  2
GENAXEH
 70
     0
 10
0.0
 20
0.0
 30
0.0
  3
GENAXEH
  1

  0
LINE
  5
3E45
  8
0
 10
-1.0
 20
0.0
 30
0.0
 11
1.0
 21
0.0
 31
0.0
  0
ENDBLK
  5
3E46
  8
0
  0
ENDSEC
  0
SECTION
  2
ENTITIES
  0
LINE
  5
42A1
  8
245
  6
CENTER2
 10
-39.0
 20
0.0
 30
0.0
 11
133.0
 21
0.0
 31
0.0
  0
LINE
  5
42A2
  8
240
  6
CONTINUOUS
 10
0.0
 20
31.5
 30
0.0
 11
0.0
 21
21.630611991142189
 31
0.0
  0
LINE
  5
42A3
  8
240
  6
CONTINUOUS
 10
-38.0
 20
-20.68052849476301
 30
0.0
 11
-38.0
 21
20.680528494763141
 31
0.0
  0
LINE
  5
42A4
  8
243
  6
HIDDEN2
 10
-38.0
 20
-3.594500000000008
 30
0.0
 11
-31.800000000000011
 21
-3.594500000000008
 31
0.0
  0
LINE
  5
42A5
  8
243
  6
HIDDEN2
 10
-38.0
 20
3.594500000000008
 30
0.0
 11
-31.800000000000011
 21
3.594500000000008
 31
0.0
  0
LINE
  5
42A6
  8
243
  6
HIDDEN2
 10
-31.800000000000011
 20
-3.594500000000008
 30
0.0
 11
-31.800000000000011
 21
3.594500000000008
 31
0.0
  0
LINE
  5
42A8
  8
240
  6
CONTINUOUS
 10
0.0
 20
-31.5
 30
0.0
 11
0.0
 21
-21.630611991141851
 31
0.0
  0
LINE
  5
42A9
  8
241
  6
CONTINUOUS
 10
0.0
 20
-21.630611991141851
 30
0.0
 11
0.0
 21
21.630611991142189
 31
0.0
  0
LINE
  5
42AA
  8
250
  6
CONTINUOUS
 10
-18.785867276320712
 20
-22.942252325237192
 30
0.0
 11
-17.348994501247521
 21
-21.196849008131231
 31
0.0
  0
LINE
  5
42AB
  8
250
  6
CONTINUOUS
 10
-18.142121726174281
 20
-23.313918991903861
 30
0.0
 11
-17.348994501247521
 21
-21.196849008131231
 31
0.0
  0
LINE
  5
42AC
  8
250
  6
CONTINUOUS
 10
-17.348994501247521
 20
-21.196849008131231
 30
0.0
 11
-18.46399450124753
 21
-23.128085658570541
 31
0.0
  0
POLYLINE
  5
42AD
  8
250
  6
CONTINUOUS
 66
     1
 10
0.0
 20
0.0
 30
0.0
  0
VERTEX
  5
42AE
  8
250
  6
CONTINUOUS
 10
-18.46399450124753
 20
-23.128085658570541
 30
0.0
  0
VERTEX
  5
42AF
  8
250
  6
CONTINUOUS
 10
-23.84889586488546
 20
-32.455008414138391
 30
0.0
  0
SEQEND
  5
42B0
  8
250
  6
CONTINUOUS
  0
TEXT
  5
42B1
  8
250
  6
CONTINUOUS
 10
-31.715562531552141
 20
-31.455008414138391
 30
0.0
 40
2.799999999999998
  1
C6
  7
YOKO
1001
ITEMNAME
1000
LNSP3
  0
LINE
  5
42B2
  8
250
  6
CONTINUOUS
 10
-23.84889586488546
 20
-32.455008414138391
 30
0.0
 11
-34.115562531552108
 21
-32.455008414138391
 31
0.0
1001
ITEMNAME
1000
LNSP2
  0
LINE
  5
42B3
  8
247
  6
CONTINUOUS
 10
6.0
 20
-17.250000000069999
 30
0.0
 11
6.0
 21
-10.557692308029999
 31
0.0
  0
ARC
  5
42B4
  8
247
  6
CONTINUOUS
 10
4.2500000000699742
 20
-17.250000000069999
 30
0.0
 40
1.7499999999299991
 50
180.0
 51
0.0
  0
ARC
  5
42B5
  8
247
  6
CONTINUOUS
 10
4.2500000000699742
 20
-10.557692308029999
 30
0.0
 40
1.7499999999299991
 50
0.0
 51
180.0
  0
LINE
  5
42B6
  8
247
  6
CONTINUOUS
 10
2.500000000140004
 20
-16.38461538472
 30
0.0
 11
5.5000000000200071
 21
-17.244851541962021
 31
0.0
  0
LINE
  5
42B7
  8
247
  6
CONTINUOUS
 10
3.923076923160008
 20
-15.48498381833582
 30
0.0
 11
3.923076923160008
 21
-16.79267612597582
 31
0.0
  0
ARC
  5
42B8
  8
247
  6
CONTINUOUS
 10
3.04959866770298
 20
-15.14514381608978
 30
0.0
 40
0.5538165441895349
 50
72.997889675291773
 51
172.924166218512
  0
ARC
  5
42B9
  8
247
  6
CONTINUOUS
 10
2.936033044465773
 20
-15.56687832302879
 30
0.0
 40
0.9904354236226808
 50
4.7429368522022122
 51
73.849226273266297
1001
GENIUS_GENOBJ-N-FIL_13
1002
{
1000
OWNER
1000
GEN
1002
}
1001
GENIUS_GENODEF_13
1002
{
1000
HIER
1070
     0
1002
}
1002
{
1000
MANEDIT
1070
     0
1002
}
1002
{
1000
NOSEL
1070
     0
1002
}
1002
{
1000
BEHIND
1070
     0
1002
}
1002
{
1000
OTHER
1070
     0
1002
}
1002
{
1000
REACTOR
1002
}
  0
LINE
  5
42BA
  8
247
  6
CONTINUOUS
 10
5.5000000000200071
 20
-15.937159234321991
 30
0.0
 11
5.5000000000200071
 21
-17.244851541962021
 31
0.0
  0
LINE
  5
42BB
  8
247
  6
CONTINUOUS
 10
2.500000000140004
 20
-16.38461538472
 30
0.0
 11
2.500000000140004
 21
-15.07692307707998
 31
0.0
  0
ARC
  5
42BC
  8
247
  6
CONTINUOUS
 10
4.482024232665534
 20
-15.56091963654697
 30
0.0
 40
0.5640818586791229
 50
65.990941652528889
 51
172.26344345906909
  0
ARC
  5
42BD
  8
247
  6
CONTINUOUS
 10
4.487429039186563
 20
-16.03826268534706
 30
0.0
 40
1.0176059446230981
 50
5.7019851642580841
 51
77.277338436822376
1001
GENIUS_GENOBJ-N-FIL_13
1002
{
1000
OWNER
1000
GEN
1002
}
1001
GENIUS_GENODEF_13
1002
{
1000
HIER
1070
     0
1002
}
1002
{
1000
MANEDIT
1070
     0
1002
}
1002
{
1000
NOSEL
1070
     0
1002
}
1002
{
1000
BEHIND
1070
     0
1002
}
1002
{
1000
OTHER
1070
     0
1002
}
1002
{
1000
REACTOR
1002
}
  0
LINE
  5
42BE
  8
247
  6
CONTINUOUS
 10
5.5000000000200071
 20
-14.283313080541999
 30
0.0
 11
2.500000000140004
 21
-13.423076923300011
 31
0.0
  0
LINE
  5
42BF
  8
247
  6
CONTINUOUS
 10
2.500000000140004
 20
-11.00000000032
 30
0.0
 11
2.500000000140004
 21
-11.565736619456599
 31
0.0
  0
LINE
  5
42C0
  8
247
  6
CONTINUOUS
 10
5.5000000000200071
 20
-12.461538461799989
 30
0.0
 11
5.5000000000200071
 21
-11.846153846440011
 31
0.0
  0
ARC
  5
42C1
  8
247
  6
CONTINUOUS
 10
4.583285135973366
 20
-10.708791209122859
 30
0.0
 40
2.2526500823422122
 50
202.35948814152559
 51
254.99324854284609
  0
ARC
  5
42C2
  8
247
  6
CONTINUOUS
 10
3.3083126551945261
 20
-11.37406947921323
 30
0.0
 40
0.8906723995727782
 50
94.994589319075317
 51
155.1663289573039
1001
GENIUS_GENOBJ-N-FIL_13
1002
{
1000
OWNER
1000
GEN
1002
}
1001
GENIUS_GENODEF_13
1002
{
1000
HIER
1070
     0
1002
}
1002
{
1000
MANEDIT
1070
     0
1002
}
1002
{
1000
NOSEL
1070
     0
1002
}
1002
{
1000
BEHIND
1070
     0
1002
}
1002
{
1000
OTHER
1070
     0
1002
}
1002
{
1000
REACTOR
1002
}
  0
ARC
  5
42C3
  8
247
  6
CONTINUOUS
 10
4.160145888667782
 20
-12.22645888621258
 30
0.0
 40
1.392781735586712
 50
15.84609655577923
 51
82.325137004169065
  0
ARC
  5
42C4
  8
247
  6
CONTINUOUS
 10
4.4592434315272831
 20
-11.64221272584035
 30
0.0
 40
1.324563662670287
 50
249.7136016704969
 51
321.78874565640928
1001
GENIUS_GENOBJ-N-FIL_13
1002
{
1000
OWNER
1000
GEN
1002
}
1001
GENIUS_GENODEF_13
1002
{
1000
HIER
1070
     0
1002
}
1002
{
1000
MANEDIT
1070
     0
1002
}
1002
{
1000
NOSEL
1070
     0
1002
}
1002
{
1000
BEHIND
1070
     0
1002
}
1002
{
1000
OTHER
1070
     0
1002
}
1002
{
1000
REACTOR
1002
}
  0
LINE
  5
42C5
  8
247
  6
CONTINUOUS
 10
4.346153846219976
 20
-11.53846153876
 30
0.0
 11
4.346153846219976
 21
-10.84615384648
 31
0.0
  0
LINE
  5
42C6
  8
247
  6
CONTINUOUS
 10
2.500000000139976
 20
-17.250000000069999
 30
0.0
 11
2.500000000139976
 21
-16.576923077020009
 31
0.0
  0
LINE
  5
42C7
  8
240
  6
CONTINUOUS
 10
0.0
 20
21.630611991142189
 30
0.0
 11
-38.0
 21
20.680528494763109
 31
0.0
1001
GRPNAME
1000
PASTMD35
  0
LINE
  5
42C8
  8
240
  6
CONTINUOUS
 10
0.0
 20
-21.630611991141851
 30
0.0
 11
-38.0
 21
-20.68052849476301
 31
0.0
1001
GRPNAME
1000
PASTMD35
  0
LINE
  5
42C9
  8
240
  6
CONTINUOUS
 10
0.0
 20
31.5
 30
0.0
 11
24.594396264151811
 21
31.5
 31
0.0
  0
LINE
  5
42CA
  8
240
  6
CONTINUOUS
 10
0.0
 20
-31.5
 30
0.0
 11
24.594396264151811
 21
-31.5
 31
0.0
  0
LINE
  5
42CB
  8
241
  6
CONTINUOUS
 10
9.9499999999999869
 20
8.9923414211634736
 30
0.0
 11
9.9499999999999869
 21
30.18137425657125
 31
0.0
1001
GRPNAME
1000
PASTMD30
  0
LINE
  5
42CC
  8
241
  6
CONTINUOUS
 10
9.9499999999999869
 20
30.18137425657125
 30
0.0
 11
14.05000000000001
 21
30.18137425657125
 31
0.0
1001
GRPNAME
1000
PASTMD30
  0
LINE
  5
42CD
  8
241
  6
CONTINUOUS
 10
14.05000000000055
 20
8.9923414211634736
 30
0.0
 11
14.05000000000001
 21
30.18137425657125
 31
0.0
1001
GRPNAME
1000
PASTMD30
  0
LINE
  5
42CE
  8
241
  6
CONTINUOUS
 10
9.9499999999999869
 20
8.9923414211634736
 30
0.0
 11
14.05000000000055
 21
8.9923414211634736
 31
0.0
1001
GRPNAME
1000
PASTMD30
  0
ARC
  5
42CF
  8
241
  6
CONTINUOUS
 10
-16.228827256943418
 20
19.586857838866582
 30
0.0
 40
32.07882725694369
 50
340.71513450902091
 51
19.284865490980941
  0
ARC
  5
42D0
  8
241
  6
CONTINUOUS
 10
40.228827256943717
 20
19.58685783886736
 30
0.0
 40
32.07882725694374
 50
160.71513450901909
 51
199.28486549098031
  0
LINE
  5
42D1
  8
241
  6
CONTINUOUS
 10
9.9499999999999869
 20
-8.9923414211634736
 30
0.0
 11
9.9499999999999869
 21
-30.18137425657125
 31
0.0
1001
GRPNAME
1000
PASTMD30
  0
LINE
  5
42D2
  8
241
  6
CONTINUOUS
 10
9.9499999999999869
 20
-30.18137425657125
 30
0.0
 11
14.05000000000001
 21
-30.18137425657125
 31
0.0
1001
GRPNAME
1000
PASTMD30
  0
LINE
  5
42D3
  8
241
  6
CONTINUOUS
 10
14.05000000000055
 20
-8.9923414211634736
 30
0.0
 11
14.05000000000001
 21
-30.18137425657125
 31
0.0
1001
GRPNAME
1000
PASTMD30
  0
LINE
  5
42D4
  8
241
  6
CONTINUOUS
 10
9.9499999999999869
 20
-8.9923414211634736
 30
0.0
 11
14.05000000000055
 21
-8.9923414211634736
 31
0.0
1001
GRPNAME
1000
PASTMD30
  0
ARC
  5
42D5
  8
241
  6
CONTINUOUS
 10
-16.228827256943418
 20
-19.586857838866582
 30
0.0
 40
32.07882725694369
 50
340.71513450901892
 51
19.284865490979119
  0
ARC
  5
42D6
  8
241
  6
CONTINUOUS
 10
40.228827256943717
 20
-19.58685783886736
 30
0.0
 40
32.07882725694374
 50
160.71513450901909
 51
199.28486549098031
  0
ARC
  5
42D7
  8
243
  6
HIDDEN2
 10
-34.186601446595553
 20
0.0
 30
0.0
 40
4.3146606720450178
 50
303.58253920472129
 51
56.417460795278693
  0
TEXT
  5
4373
  8
241
  6
CONTINUOUS
 10
-38.0
 20
77.0
 30
0.0
 40
5.0
  1
C6-BSL40-130
  7
YOKO
 11
-38.0
 21
77.0
 31
0.0
 73
     1
  0
LINE
  5
4374
  8
250
  6
CONTINUOUS
 10
37.0
 20
20.5
 30
0.0
 11
37.0
 21
57.0
 31
0.0
  0
LINE
  5
4376
  8
250
  6
CONTINUOUS
 10
39.229999999999997
 20
56.0
 30
0.0
 11
127.77
 21
56.0
 31
0.0
  0
LINE
  5
4377
  8
250
  6
CONTINUOUS
 10
39.229999999999997
 20
55.628333325900002
 30
0.0
 11
37.0
 21
56.0
 31
0.0
  0
LINE
  5
4378
  8
250
  6
CONTINUOUS
 10
39.229999999999997
 20
56.371666674099991
 30
0.0
 11
37.0
 21
56.0
 31
0.0
  0
LINE
  5
4379
  8
250
  6
CONTINUOUS
 10
37.0
 20
56.0
 30
0.0
 11
39.229999999999997
 21
56.0
 31
0.0
  0
LINE
  5
437A
  8
250
  6
CONTINUOUS
 10
127.77
 20
56.371666674099991
 30
0.0
 11
130.0
 21
56.0
 31
0.0
  0
LINE
  5
437B
  8
250
  6
CONTINUOUS
 10
127.77
 20
55.628333325900002
 30
0.0
 11
130.0
 21
56.0
 31
0.0
  0
LINE
  5
437C
  8
250
  6
CONTINUOUS
 10
130.0
 20
56.0
 30
0.0
 11
127.77
 21
56.0
 31
0.0
  0
TEXT
  5
437D
  8
250
  6
CONTINUOUS
 10
72.172645743333334
 20
57.0
 30
0.0
 40
2.7999999999999989
  1
üimax.93üj
1001
ACAD
1000
MTEXTBEGIN
1070
    73
1070
     1
1070
    44
1040
1.0
1070
    74
1070
     0
1000
MTEXTEND
1000
MTEXTBEGIN
1070
    73
1070
     1
1070
    44
1040
1.0
1070
    74
1070
     0
1000
MTEXTEND
  0
LINE
  5
437E
  8
250
  6
CONTINUOUS
 10
0.0
 20
31.9925
 30
0.0
 11
0.0
 21
64.0
 31
0.0
  0
LINE
  5
437F
  8
250
  6
CONTINUOUS
 10
130.0
 20
23.931851653154261
 30
0.0
 11
130.0
 21
64.0
 31
0.0
  0
LINE
  5
4380
  8
250
  6
CONTINUOUS
 10
2.2299999999999991
 20
63.0
 30
0.0
 11
127.77
 21
63.0
 31
0.0
  0
LINE
  5
4381
  8
250
  6
CONTINUOUS
 10
2.2299999999999991
 20
62.628333325900002
 30
0.0
 11
0.0
 21
63.0
 31
0.0
  0
LINE
  5
4382
  8
250
  6
CONTINUOUS
 10
2.2299999999999991
 20
63.371666674099998
 30
0.0
 11
0.0
 21
63.0
 31
0.0
  0
LINE
  5
4383
  8
250
  6
CONTINUOUS
 10
0.0
 20
63.0
 30
0.0
 11
2.2299999999999991
 21
63.0
 31
0.0
  0
LINE
  5
4384
  8
250
  6
CONTINUOUS
 10
127.77
 20
63.371666674099998
 30
0.0
 11
130.0
 21
63.0
 31
0.0
  0
LINE
  5
4385
  8
250
  6
CONTINUOUS
 10
127.77
 20
62.628333325900002
 30
0.0
 11
130.0
 21
63.0
 31
0.0
  0
LINE
  5
4386
  8
250
  6
CONTINUOUS
 10
130.0
 20
63.0
 30
0.0
 11
127.77
 21
63.0
 31
0.0
  0
TEXT
  5
4387
  8
250
  6
CONTINUOUS
 10
65.799999999999997
 20
64.0
 30
0.0
 40
2.7999999999999989
  1
130
1001
ACAD
1000
MTEXTBEGIN
1070
    73
1070
     1
1070
    44
1040
1.0
1070
    74
1070
     0
1000
MTEXTEND
1000
MTEXTBEGIN
1070
    73
1070
     1
1070
    44
1040
1.0
1070
    74
1070
     0
1000
MTEXTEND
  0
LINE
  5
4388
  8
250
  6
CONTINUOUS
 10
130.5
 20
20.0
 30
0.0
 11
144.5
 21
20.0
 31
0.0
  0
LINE
  5
4389
  8
250
  6
CONTINUOUS
 10
143.5
 20
-17.77
 30
0.0
 11
143.5
 21
17.77
 31
0.0
  0
LINE
  5
438A
  8
250
  6
CONTINUOUS
 10
143.1283333259
 20
17.77
 30
0.0
 11
143.5
 21
20.0
 31
0.0
  0
LINE
  5
438B
  8
250
  6
CONTINUOUS
 10
143.8716666741
 20
17.77
 30
0.0
 11
143.5
 21
20.0
 31
0.0
  0
LINE
  5
438C
  8
250
  6
CONTINUOUS
 10
143.5
 20
20.0
 30
0.0
 11
143.5
 21
17.77
 31
0.0
  0
TEXT
  5
438D
  8
250
  6
CONTINUOUS
 10
142.5
 20
-3.9333333333333318
 30
0.0
 40
2.7999999999999989
  1
\U+220540
 50
90.0
1001
ACAD
1000
MTEXTBEGIN
1070
    73
1070
     1
1070
    44
1040
1.0
1070
    74
1070
     0
1000
MTEXTEND
1000
MTEXTBEGIN
1070
    73
1070
     1
1070
    44
1040
1.0
1070
    74
1070
     0
1000
MTEXTEND
1000
MTEXTBEGIN
1070
    73
1070
     1
1070
    44
1040
1.0
1070
    74
1070
     0
1000
MTEXTEND
  0
LINE
  5
438E
  8
250
  6
CONTINUOUS
 10
125.6945526232477
 20
-40.0
 30
0.0
 11
151.5
 21
-40.0
 31
0.0
  0
LINE
  5
438F
  8
250
  6
CONTINUOUS
 10
125.6945526232477
 20
40.0
 30
0.0
 11
151.5
 21
40.0
 31
0.0
  0
LINE
  5
4390
  8
250
  6
CONTINUOUS
 10
150.5
 20
-37.77000000000001
 30
0.0
 11
150.5
 21
37.77000000000001
 31
0.0
  0
LINE
  5
4391
  8
250
  6
CONTINUOUS
 10
150.8716666741
 20
-37.77000000000001
 30
0.0
 11
150.5
 21
-40.0
 31
0.0
  0
LINE
  5
4392
  8
250
  6
CONTINUOUS
 10
150.1283333259
 20
-37.77000000000001
 30
0.0
 11
150.5
 21
-40.0
 31
0.0
  0
LINE
  5
4393
  8
250
  6
CONTINUOUS
 10
150.5
 20
-40.0
 30
0.0
 11
150.5
 21
-37.77000000000001
 31
0.0
  0
LINE
  5
4394
  8
250
  6
CONTINUOUS
 10
150.1283333259
 20
37.77000000000001
 30
0.0
 11
150.5
 21
40.0
 31
0.0
  0
LINE
  5
4395
  8
250
  6
CONTINUOUS
 10
150.8716666741
 20
37.77000000000001
 30
0.0
 11
150.5
 21
40.0
 31
0.0
  0
LINE
  5
4396
  8
250
  6
CONTINUOUS
 10
150.5
 20
40.0
 30
0.0
 11
150.5
 21
37.77000000000001
 31
0.0
  0
TEXT
  5
4397
  8
250
  6
CONTINUOUS
 10
149.5
 20
-3.9333333333333331
 30
0.0
 40
2.7999999999999989
  1
\U+220580
 50
90.0
1001
ACAD
1000
MTEXTBEGIN
1070
    73
1070
     1
1070
    44
1040
1.0
1070
    74
1070
     0
1000
MTEXTEND
1000
MTEXTBEGIN
1070
    73
1070
     1
1070
    44
1040
1.0
1070
    74
1070
     0
1000
MTEXTEND
1000
MTEXTBEGIN
1070
    73
1070
     1
1070
    44
1040
1.0
1070
    74
1070
     0
1000
MTEXTEND
  0
CIRCLE
  5
4398
  8
241
  6
CONTINUOUS
 10
48.0
 20
0.0
 30
0.0
 40
8.0
  0
CIRCLE
  5
4399
  8
242
  6
CONTINUOUS
 10
48.0
 20
0.0
 30
0.0
 40
7.25
  0
LINE
  5
439A
  8
241
  6
CONTINUOUS
 10
44.0
 20
-2.3094010800000002
 30
0.0
 11
48.0
 21
-4.6188021499999987
 31
0.0
  0
LINE
  5
439B
  8
241
  6
CONTINUOUS
 10
48.0
 20
-4.6188021499999987
 30
0.0
 11
52.0
 21
-2.3094010800000002
 31
0.0
  0
LINE
  5
439C
  8
241
  6
CONTINUOUS
 10
52.0
 20
-2.3094010800000002
 30
0.0
 11
52.0
 21
2.3094010800000002
 31
0.0
  0
LINE
  5
439D
  8
241
  6
CONTINUOUS
 10
52.0
 20
2.3094010800000002
 30
0.0
 11
48.0
 21
4.6188021499999987
 31
0.0
  0
LINE
  5
439E
  8
241
  6
CONTINUOUS
 10
48.0
 20
4.6188021499999987
 30
0.0
 11
44.0
 21
2.3094010800000002
 31
0.0
  0
LINE
  5
439F
  8
241
  6
CONTINUOUS
 10
44.0
 20
2.3094010800000002
 30
0.0
 11
44.0
 21
-2.3094010800000002
 31
0.0
  0
LINE
  5
43A1
  8
243
  6
HIDDEN2
 10
37.0
 20
20.0
 30
0.0
 11
130.0
 21
20.0
 31
0.0
  0
LINE
  5
43A4
  8
241
  6
CONTINUOUS
 10
24.594396264151811
 20
-31.5
 30
0.0
 11
24.594396264151811
 21
31.5
 31
0.0
1001
GRPNAME
1000
PASTMD0F
  0
LINE
  5
43AB
  8
240
  6
CONTINUOUS
 10
130.0
 20
22.000000001979259
 30
0.0
 11
125.17691453301561
 21
40.0
 31
0.0
  0
CIRCLE
  5
43B5
  8
241
  6
CONTINUOUS
 10
112.0
 20
0.0
 30
0.0
 40
8.0
  0
CIRCLE
  5
43B6
  8
242
  6
CONTINUOUS
 10
112.0
 20
0.0
 30
0.0
 40
7.25
  0
LINE
  5
43B7
  8
240
  6
CONTINUOUS
 10
125.17691453301561
 20
-40.0
 30
0.0
 11
35.886751345949392
 21
-40.0
 31
0.0
  0
LINE
  5
43B8
  8
241
  6
CONTINUOUS
 10
60.633974600000002
 20
-40.0
 30
0.0
 11
60.633974600000002
 21
40.0
 31
0.0
  0
LINE
  5
43B9
  8
241
  6
CONTINUOUS
 10
62.366025399999991
 20
-40.0
 30
0.0
 11
62.366025399999991
 21
40.0
 31
0.0
  0
LINE
  5
43BA
  8
241
  6
CONTINUOUS
 10
65.633974600000002
 20
-40.0
 30
0.0
 11
65.633974600000002
 21
40.0
 31
0.0
  0
LINE
  5
43BB
  8
241
  6
CONTINUOUS
 10
67.366025400000012
 20
-40.0
 30
0.0
 11
67.366025400000012
 21
40.0
 31
0.0
  0
LINE
  5
43BC
  8
241
  6
CONTINUOUS
 10
92.633974599999974
 20
-40.0
 30
0.0
 11
92.633974599999974
 21
40.0
 31
0.0
  0
LINE
  5
43BD
  8
241
  6
CONTINUOUS
 10
94.366025399999998
 20
-40.0
 30
0.0
 11
94.366025399999998
 21
40.0
 31
0.0
  0
LINE
  5
43BE
  8
241
  6
CONTINUOUS
 10
97.633974600000002
 20
-40.0
 30
0.0
 11
97.633974600000002
 21
40.0
 31
0.0
  0
LINE
  5
43BF
  8
241
  6
CONTINUOUS
 10
99.366025400000026
 20
-40.0
 30
0.0
 11
99.366025400000026
 21
40.0
 31
0.0
  0
CIRCLE
  5
43CF
  8
242
  6
CONTINUOUS
 10
80.0
 20
0.0
 30
0.0
 40
7.25
  0
LINE
  5
43D0
  8
241
  6
CONTINUOUS
 10
76.0
 20
-2.3094010800000002
 30
0.0
 11
80.0
 21
-4.6188021499999987
 31
0.0
  0
LINE
  5
43D1
  8
241
  6
CONTINUOUS
 10
80.0
 20
-4.6188021499999987
 30
0.0
 11
84.0
 21
-2.3094010800000002
 31
0.0
  0
LINE
  5
43D2
  8
241
  6
CONTINUOUS
 10
84.0
 20
-2.3094010800000002
 30
0.0
 11
84.0
 21
2.3094010800000002
 31
0.0
  0
LINE
  5
43D3
  8
241
  6
CONTINUOUS
 10
84.0
 20
2.3094010800000002
 30
0.0
 11
80.0
 21
4.6188021499999987
 31
0.0
  0
LINE
  5
43D4
  8
241
  6
CONTINUOUS
 10
80.0
 20
4.6188021499999987
 30
0.0
 11
76.0
 21
2.3094010800000002
 31
0.0
  0
LINE
  5
43D5
  8
241
  6
CONTINUOUS
 10
76.0
 20
2.3094010800000002
 30
0.0
 11
76.0
 21
-2.3094010800000002
 31
0.0
  0
CIRCLE
  5
43D6
  8
241
  6
CONTINUOUS
 10
80.0
 20
0.0
 30
0.0
 40
8.0
  0
LINE
  5
43D7
  8
245
  6
CENTER2
 10
80.0
 20
9.0
 30
0.0
 11
80.0
 21
-9.0
 31
0.0
  0
LINE
  5
43D8
  8
245
  6
CENTER2
 10
48.0
 20
9.0
 30
0.0
 11
48.0
 21
-9.0
 31
0.0
  0
LINE
  5
43D9
  8
245
  6
CENTER2
 10
112.0
 20
9.0
 30
0.0
 11
112.0
 21
-9.0
 31
0.0
  0
LINE
  5
43DA
  8
241
  6
CONTINUOUS
 10
108.0
 20
-2.3094010800000002
 30
0.0
 11
112.0
 21
-4.6188021499999987
 31
0.0
  0
LINE
  5
43DB
  8
241
  6
CONTINUOUS
 10
112.0
 20
-4.6188021499999987
 30
0.0
 11
116.0
 21
-2.3094010800000002
 31
0.0
  0
LINE
  5
43DC
  8
241
  6
CONTINUOUS
 10
116.0
 20
-2.3094010800000002
 30
0.0
 11
116.0
 21
2.3094010800000002
 31
0.0
  0
LINE
  5
43DD
  8
241
  6
CONTINUOUS
 10
116.0
 20
2.3094010800000002
 30
0.0
 11
112.0
 21
4.6188021499999987
 31
0.0
  0
LINE
  5
43DE
  8
241
  6
CONTINUOUS
 10
112.0
 20
4.6188021499999987
 30
0.0
 11
108.0
 21
2.3094010800000002
 31
0.0
  0
LINE
  5
43DF
  8
241
  6
CONTINUOUS
 10
108.0
 20
2.3094010800000002
 30
0.0
 11
108.0
 21
-2.3094010800000002
 31
0.0
  0
LINE
  5
43E0
  8
240
  6
CONTINUOUS
 10
130.0
 20
-22.000000001979259
 30
0.0
 11
125.17691453301561
 21
-40.0
 31
0.0
  0
LINE
  5
43E1
  8
241
  6
CONTINUOUS
 10
125.1769145399999
 20
-40.0
 30
0.0
 11
125.17691454
 21
39.999999973934059
 31
0.0
  0
LINE
  5
43E5
  8
240
  6
CONTINUOUS
 10
130.0
 20
22.000000001979259
 30
0.0
 11
130.0
 21
-22.000000001979259
 31
0.0
  0
LINE
  5
43E7
  8
240
  6
CONTINUOUS
 10
125.17691453301561
 20
40.0
 30
0.0
 11
35.886751345949392
 21
40.0
 31
0.0
  0
LINE
  5
4403
  8
250
  6
CONTINUOUS
 10
130.5
 20
-20.0
 30
0.0
 11
144.5
 21
-20.0
 31
0.0
  0
LINE
  5
4404
  8
250
  6
CONTINUOUS
 10
143.1283333259
 20
-17.77
 30
0.0
 11
143.5
 21
-20.0
 31
0.0
  0
LINE
  5
4405
  8
250
  6
CONTINUOUS
 10
143.8716666741
 20
-17.77
 30
0.0
 11
143.5
 21
-20.0
 31
0.0
  0
LINE
  5
4406
  8
250
  6
CONTINUOUS
 10
143.5
 20
-20.0
 30
0.0
 11
143.5
 21
-17.77
 31
0.0
  0
LINE
  5
4407
  8
243
  6
HIDDEN2
 10
37.0
 20
-20.0
 30
0.0
 11
130.0
 21
-20.0
 31
0.0
  0
LINE
  5
448F
  8
240
  6
CONTINUOUS
 10
24.594396264151811
 20
31.5
 30
0.0
 11
31.437907409139971
 21
34.349562001752084
 31
0.0
  0
LINE
  5
4490
  8
240
  6
CONTINUOUS
 10
35.886751345949392
 20
40.0
 30
0.0
 11
33.846050065303587
 21
36.465401698850712
 31
0.0
  0
ARC
  5
4491
  8
240
  6
CONTINUOUS
 10
29.515923046381399
 20
38.965401698850712
 30
0.0
 40
5.0
 50
292.60630247946642
 51
329.99999999999869
  0
LINE
  5
4492
  8
240
  6
CONTINUOUS
 10
24.594396264151811
 20
-31.5
 30
0.0
 11
31.437907409139971
 21
-34.349562001752084
 31
0.0
  0
LINE
  5
4493
  8
240
  6
CONTINUOUS
 10
35.886751345949392
 20
-40.0
 30
0.0
 11
33.846050065303587
 21
-36.465401698850712
 31
0.0
  0
ARC
  5
4494
  8
240
  6
CONTINUOUS
 10
29.515923046381399
 20
-38.965401698850712
 30
0.0
 40
5.0
 50
30.000000000001251
 51
67.393697520533578
  0
LINE
  5
4495
  8
241
  6
CONTINUOUS
 10
35.886751345949392
 20
-40.0
 30
0.0
 11
35.886751345949392
 21
40.0
 31
0.0
  0
VIEWPORT
  5
22
 67
     1
  8
0
 10
261.51769911504419
 20
148.5
 30
0.0
 40
523.0353982300885
 41
297.0
 68
     1
 69
     1
1001
ACAD
1000
MVIEW
1002
{
1070
    16
1010
0.0
1020
0.0
1030
0.0
1010
0.0
1020
0.0
1030
1.0
1040
0.0
1040
297.0
1040
261.51769911504419
1040
148.5
1040
50.0
1040
0.0
1040
0.0
1070
     0
1070
   100
1070
     1
1070
     1
1070
     0
1070
     0
1070
     0
1070
     0
1040
0.0
1040
0.0
1040
0.0
1040
1.0
1040
1.0
1040
10.0
1040
10.0
1070
     0
1002
{
1002
}
1002
}
1001
GENIUS_GENODEF_13
1002
{
1000
HIER
1070
     0
1002
}
1002
{
1000
MANEDIT
1070
     0
1002
}
1002
{
1000
NOSEL
1070
     0
1002
}
1002
{
1000
BEHIND
1070
     0
1002
}
1002
{
1000
OTHER
1070
     0
1002
}
1002
{
1000
REACTOR
1002
}
1001
GENIUS_GENOBJ-N-SDF_13
1002
{
1000
OWNER
1000
GEN
1002
}
1001
GENIUS_GENSCREG_15
1000
PF
1040
1.0
1000
DF
1040
1.0
1000
MIN
1011
0.0
1021
0.0
1031
0.0
1021
0.0
1031
0.0
1000
MAX
1011
523.0353982300885
1021
0.0
1031
0.0
1021
297.0
1031
0.0
1000
FLAGS
1070
     4
  0
ENDSEC
  0
EOF
