  0
SECTION
  2
HEADER
  9
$ACADVER
  1
AC1009
  9
$INSBASE
 10
0.0
 20
0.0
 30
0.0
  9
$EXTMIN
 10
-39.014006499682978
 20
-42.010344669700537
 30
-0.0015258207003583
  9
$EXTMAX
 10
262.81407254097758
 20
75.022659832638055
 30
0.0000000349246037
  9
$LIMMIN
 10
0.0
 20
0.0
  9
$LIMMAX
 10
420.0
 20
297.0
  9
$ORTHOMODE
 70
     1
  9
$REGENMODE
 70
     1
  9
$FILLMODE
 70
     1
  9
$QTEXTMODE
 70
     0
  9
$MIRRTEXT
 70
     1
  9
$DRAGMODE
 70
     2
  9
$LTSCALE
 40
10.0
  9
$OSMODE
 70
  3071
  9
$ATTMODE
 70
     1
  9
$TEXTSIZE
 40
3.0
  9
$TRACEWID
 40
1.0
  9
$TEXTSTYLE
  7
YOKO
  9
$CLAYER
  8
245
  9
$CELTYPE
  6
BYLAYER
  9
$CECOLOR
 62
   256
  9
$DIMSCALE
 40
1.0
  9
$DIMASZ
 40
2.2299999999999991
  9
$DIMEXO
 40
0.5
  9
$DIMDLI
 40
2.5
  9
$DIMRND
 40
0.0
  9
$DIMDLE
 40
0.0
  9
$DIMEXE
 40
1.0
  9
$DIMTP
 40
0.0
  9
$DIMTM
 40
0.0
  9
$DIMTXT
 40
2.799999999999998
  9
$DIMCEN
 40
0.0
  9
$DIMTSZ
 40
0.0
  9
$DIMTOL
 70
     0
  9
$DIMLIM
 70
     0
  9
$DIMTIH
 70
     0
  9
$DIMTOH
 70
     0
  9
$DIMSE1
 70
     0
  9
$DIMSE2
 70
     0
  9
$DIMTAD
 70
     3
  9
$DIMZIN
 70
     8
  9
$DIMBLK
  1

  9
$DIMASO
 70
     1
  9
$DIMSHO
 70
     1
  9
$DIMPOST
  1

  9
$DIMAPOST
  1

  9
$DIMALT
 70
     0
  9
$DIMALTD
 70
     2
  9
$DIMALTF
 40
25.399999999999999
  9
$DIMLFAC
 40
1.0
  9
$DIMTOFL
 70
     1
  9
$DIMTVP
 40
0.0
  9
$DIMTIX
 70
     1
  9
$DIMSOXD
 70
     0
  9
$DIMSAH
 70
     1
  9
$DIMBLK1
  1
OPEN
  9
$DIMBLK2
  1
OPEN
  9
$DIMSTYLE
  2
BIGT
  9
$DIMCLRD
 70
   256
  9
$DIMCLRE
 70
   256
  9
$DIMCLRT
 70
    40
  9
$DIMTFAC
 40
1.0
  9
$DIMGAP
 40
1.0
  9
$LUNITS
 70
     2
  9
$LUPREC
 70
     3
  9
$SKETCHINC
 40
1.0
  9
$FILLETRAD
 40
0.0
  9
$AUNITS
 70
     0
  9
$AUPREC
 70
     3
  9
$MENU
  1
.
  9
$ELEVATION
 40
0.0
  9
$PELEVATION
 40
0.0
  9
$THICKNESS
 40
0.0
  9
$LIMCHECK
 70
     0
  9
$BLIPMODE
 70
     0
  9
$CHAMFERA
 40
10.0
  9
$CHAMFERB
 40
10.0
  9
$SKPOLY
 70
     0
  9
$TDCREATE
 40
2455106.5918198382
  9
$TDUPDATE
 40
2455905.4088334488
  9
$TDINDWG
 40
0.0718884375
  9
$TDUSRTIMER
 40
0.0718875231
  9
$USRTIMER
 70
     1
  9
$ANGBASE
 50
0.0
  9
$ANGDIR
 70
     0
  9
$PDMODE
 70
     1
  9
$PDSIZE
 40
-5.0
  9
$PLINEWID
 40
0.0
  9
$COORDS
 70
     2
  9
$SPLFRAME
 70
     0
  9
$SPLINETYPE
 70
     6
  9
$SPLINESEGS
 70
     8
  9
$ATTDIA
 70
     1
  9
$ATTREQ
 70
     1
  9
$HANDLING
 70
     1
  9
$HANDSEED
  5
1876
  9
$SURFTAB1
 70
     6
  9
$SURFTAB2
 70
     6
  9
$SURFTYPE
 70
     6
  9
$SURFU
 70
     6
  9
$SURFV
 70
     6
  9
$UCSNAME
  2

  9
$UCSORG
 10
0.0
 20
0.0
 30
0.0
  9
$UCSXDIR
 10
1.0
 20
0.0
 30
0.0
  9
$UCSYDIR
 10
0.0
 20
1.0
 30
0.0
  9
$PUCSNAME
  2

  9
$PUCSORG
 10
0.0
 20
0.0
 30
0.0
  9
$PUCSXDIR
 10
1.0
 20
0.0
 30
0.0
  9
$PUCSYDIR
 10
0.0
 20
1.0
 30
0.0
  9
$USERI1
 70
     1
  9
$USERI2
 70
     0
  9
$USERI3
 70
     0
  9
$USERI4
 70
     0
  9
$USERI5
 70
     0
  9
$USERR1
 40
0.0
  9
$USERR2
 40
0.0
  9
$USERR3
 40
0.0
  9
$USERR4
 40
0.0
  9
$USERR5
 40
0.0
  9
$WORLDVIEW
 70
     1
  9
$SHADEDGE
 70
     3
  9
$SHADEDIF
 70
    70
  9
$TILEMODE
 70
     1
  9
$MAXACTVP
 70
    16
  9
$PLIMCHECK
 70
     0
  9
$PEXTMIN
 10
1.0000000000000000E+020
 20
1.0000000000000000E+020
 30
1.0000000000000000E+020
  9
$PEXTMAX
 10
-1.0000000000000000E+020
 20
-1.0000000000000000E+020
 30
-1.0000000000000000E+020
  9
$PLIMMIN
 10
0.0
 20
0.0
  9
$PLIMMAX
 10
420.0
 20
297.0
  9
$UNITMODE
 70
     0
  9
$VISRETAIN
 70
     0
  9
$PLINEGEN
 70
     0
  9
$PSLTSCALE
 70
     1
  0
ENDSEC
  0
SECTION
  2
TABLES
  0
TABLE
  2
VPORT
 70
     3
  0
VPORT
  2
*ACTIVE
 70
     0
 10
0.0
 20
0.0
 11
1.0
 21
1.0
 12
111.9000330206473
 22
16.506157581468749
 13
0.0
 23
0.0
 14
7.0
 24
7.0
 15
7.0
 25
7.0
 16
0.0
 26
0.0
 36
1.0
 17
0.0
 27
0.0
 37
0.0
 40
182.16388948829149
 41
1.664215686274509
 42
50.0
 43
0.0
 44
0.0
 50
0.0
 51
0.0
 71
     0
 72
  2000
 73
     1
 74
     0
 75
     0
 76
     1
 77
     0
 78
     0
  0
ENDTAB
  0
TABLE
  2
LTYPE
 70
    16
  0
LTYPE
  2
CONTINUOUS
 70
     0
  3
Solid line
 72
    65
 73
     0
 40
0.0
  0
LTYPE
  2
CENTER2
 70
     0
  3
___ _ ___ _ ___ _ ___ _ ___ _ ___ _ ___ _ ___ _
 72
    65
 73
     4
 40
1.125
 49
0.75
 49
-0.125
 49
0.125
 49
-0.125
  0
LTYPE
  2
HIDDEN2
 70
     0
  3
_ _ _ _ _ _ _ _ _ _ _ _ _ _ _ _ _ _ _ _ _ _ _ _
 72
    65
 73
     2
 40
0.1875
 49
0.125
 49
-0.0625
  0
LTYPE
  2
PHANTOM2
 70
     0
  3
___ _ _ ___ _ _ ___ _ _ ___ _ _ ___ _ _ ___ _ _
 72
    65
 73
     6
 40
1.25
 49
0.625
 49
-0.125
 49
0.125
 49
-0.125
 49
0.125
 49
-0.125
  0
LTYPE
  2
AMCONSTR
 70
     0
  3
_______________________
 72
    65
 73
     2
 40
9999.0
 49
9999.0
 49
0.0
  0
LTYPE
  2
HIDDEN
 70
     0
  3
Hidden __ __ __ __ __ __ __ __ __ __ __ __ __ _
 72
    65
 73
     2
 40
9.5249999999999986
 49
6.3499999999999979
 49
-3.174999999999998
  0
LTYPE
  2
CENTER
 70
     0
  3
____ _ ____ _ ____ _ ____ _ ____ _ ____ _ ____ 
 72
    65
 73
     4
 40
2.0
 49
1.25
 49
-0.25
 49
0.25
 49
-0.25
  0
LTYPE
  2
AMZIGZAG2
 70
     0
  3
/\/-/\/-/\/-/\/-/\/-/\/
 72
    65
 73
     2
 40
0.4401
 49
0.0001
 49
-0.4400000000000001
  0
LTYPE
  2
ACANSTGB
 70
     0
  3
__ . . __ . .
 72
    65
 73
     6
 40
0.35433070866
 49
0.15748031496
 49
-0.03937007874
 49
0.03937007874
 49
-0.03937007874
 49
0.03937007874
 49
-0.03937007874
  0
LTYPE
  2
ACANSTGL
 70
     0
  3
_ _ _ _ _
 72
    65
 73
     2
 40
0.11811023622
 49
0.07874015748
 49
-0.03937007874
  0
LTYPE
  2
AM_ISO02W050
 70
     0
  3
__ __ __ __ __ __ __ __ __ __ __ __ __ __ __
 72
    65
 73
     2
 40
7.5
 49
6.0
 49
-1.5
  0
LTYPE
  2
AM_ISO08W050
 70
     0
  3
____ . ____ . ____ . ____ . ____ . ____ . ____
 72
    65
 73
     4
 40
18.0
 49
12.0
 49
-1.5
 49
3.0
 49
-1.5
  0
LTYPE
  2
AM_ISO09W050
 70
     0
  3
_____ . . _____ . . _____ . . ____ .. ____
 72
    65
 73
     6
 40
22.5
 49
12.0
 49
-1.5
 49
3.0
 49
-1.5
 49
3.0
 49
-1.5
  0
LTYPE
  2
AM_ISO08W050X2
 70
     0
  3
__ . __ . __ . __ . __ . __
 72
    65
 73
     4
 40
9.0
 49
6.0
 49
-0.75
 49
1.5
 49
-0.75
  0
LTYPE
  2
AM_ISO02W050X2
 70
     0
  3
 _ _ _ _ _ _ _ _ _ _ _ _
 72
    65
 73
     2
 40
3.75
 49
3.0
 49
-0.75
  0
LTYPE
  2
AMZIGZAG
 70
     0
  3
/\/-/\/-/\/-/\/-/\/-/\/
 72
    65
 73
     2
 40
11.0001
 49
0.0001
 49
-11.0
  0
ENDTAB
  0
TABLE
  2
LAYER
 70
     9
  0
LAYER
  2
0
 70
     0
 62
     7
  6
CONTINUOUS
  0
LAYER
  2
245
 70
     0
 62
     2
  6
CENTER2
  0
LAYER
  2
240
 70
     0
 62
     4
  6
CONTINUOUS
  0
LAYER
  2
241
 70
     0
 62
   211
  6
CONTINUOUS
  0
LAYER
  2
242
 70
     0
 62
     3
  6
CONTINUOUS
  0
LAYER
  2
250
 70
     0
 62
     3
  6
CONTINUOUS
  0
LAYER
  2
251
 70
     0
 62
    40
  6
CONTINUOUS
  0
LAYER
  2
DEFPOINTS
 70
     0
 62
     7
  6
CONTINUOUS
  0
LAYER
  2
243
 70
     0
 62
   211
  6
HIDDEN2
  0
ENDTAB
  0
TABLE
  2
STYLE
 70
     5
  0
STYLE
  2
STANDARD
 70
     0
 40
0.0
 41
1.0
 50
0.0
 71
     0
 42
3.0
  3
romans.shx
  4
BIGFONT.SHX
  0
STYLE
  2
YOKO
 70
     0
 40
0.0
 41
1.0
 50
0.0
 71
     0
 42
3.0
  3
romans.shx
  4
extfont.shx
  0
STYLE
  2

 70
     1
 40
0.0
 41
1.0
 50
0.0
 71
     0
 42
3.0
  3
ltypeshp.shx
  4

  0
STYLE
  2
ACANSTS
 70
     0
 40
1.0
 41
1.0
 50
0.0
 71
     0
 42
3.0
  3
romans.shx
  4
extfont.shx
  0
STYLE
  2
ACANSGDT
 70
     0
 40
0.0
 41
1.0
 50
0.0
 71
     0
 42
3.0
  3
amgdtans.shx
  4

  0
ENDTAB
  0
TABLE
  2
VIEW
 70
     0
  0
ENDTAB
  0
TABLE
  2
UCS
 70
     0
  0
ENDTAB
  0
TABLE
  2
APPID
 70
    37
  0
APPID
  2
ACAD
 70
     0
  0
APPID
  2
GLOBAL
 70
     0
  0
APPID
  2
DETAIL
 70
     0
  0
APPID
  2
GRPNAME
 70
     0
  0
APPID
  2
GPARA
 70
     0
  0
APPID
  2
DCO15
 70
     0
  0
APPID
  2
ITEMNAME
 70
     0
  0
APPID
  2
GRADE_0
 70
     0
  0
APPID
  2
CONTENTBLOCKICON
 70
     0
  0
APPID
  2
MCAD_NO_VIS
 70
     0
  0
APPID
  2
ACAD_TEMP_GRAPHIC
 70
     0
  0
APPID
  2
ACATTRIBSERVICES
 70
     0
  0
APPID
  2
GENIUS_GENSCREG_15
 70
     0
  0
APPID
  2
GENIUS_GENODEF_13
 70
     0
  0
APPID
  2
GENIUS_GENOBJ-N-SDF_13
 70
     0
  0
APPID
  2
GENIUS_GENREC_14
 70
     0
  0
APPID
  2
GENIUS_GENOBJ-N-REC_13
 70
     0
  0
APPID
  2
GENIUS_GENDIMSH_14
 70
     0
  0
APPID
  2
GENIUS_GENOBJ-N-DIM_13
 70
     0
  0
APPID
  2
GENIUS_GENDIM_13
 70
     0
  0
APPID
  2
GENIUS_GENDTOL_13
 70
     0
  0
APPID
  2
GENIUS_GENOLIS_13
 70
     0
  0
APPID
  2
GENIUS_GENOENT_13
 70
     0
  0
APPID
  2
GENIUS_GENOBJ-F-FEM_13
 70
     0
  0
APPID
  2
GENIUS_GENOREF_13
 70
     0
  0
APPID
  2
GENIUS_GEFFEM_13
 70
     0
  0
APPID
  2
GENIUS_GEFFEMP_13
 70
     0
  0
APPID
  2
AD_DRAW
 70
     0
  0
APPID
  2
DESIGNERASSEMBLIES
 70
     0
  0
APPID
  2
ACADM_DIM_EDIT
 70
     0
  0
APPID
  2
AMDT_DM_ADJ
 70
     0
  0
APPID
  2
LAYER_SCALE
 70
     0
  0
APPID
  2
ACAD_PSEXT
 70
     0
  0
APPID
  2
ASK_MEN_XD
 70
     0
  0
APPID
  2
ACAD_DSTYLE_DIMRADIAL_EXTENSION
 70
     0
  0
APPID
  2
ASKLEADERCHILD
 70
     0
  0
APPID
  2
GENIUS_GENOBJ-N-FIL_13
 70
     0
  0
ENDTAB
  0
TABLE
  2
DIMSTYLE
 70
     8
  0
DIMSTYLE
  2
BIGT
 70
     0
  3

  4

  5

  6

  7

 40
1.0
 41
2.2299999999999991
 42
0.5
 43
7.0
 44
1.0
 45
0.0
 46
0.0
 47
0.0
 48
0.01
140
2.799999999999998
141
0.0
142
0.0
143
25.399999999999999
144
1.0
145
0.0
146
1.0
147
1.0
 71
     0
 72
     0
 73
     0
 74
     0
 75
     0
 76
     0
 77
     3
 78
     9
170
     0
171
     2
172
     1
173
     0
174
     1
175
     0
176
   256
177
   256
178
    40
  0
DIMSTYLE
  2
STANDARD
 70
     0
  3

  4

  5

  6

  7

 40
1.0
 41
0.18
 42
0.0625
 43
0.38
 44
0.18
 45
0.0
 46
0.0
 47
0.0
 48
0.0
140
0.18
141
0.09
142
0.0
143
25.399999999999999
144
1.0
145
0.0
146
1.0
147
0.09
 71
     0
 72
     0
 73
     1
 74
     1
 75
     0
 76
     0
 77
     0
 78
     0
170
     0
171
     2
172
     0
173
     0
174
     0
175
     0
176
     0
177
     0
178
     0
  0
DIMSTYLE
  2
AM_ANSI
 70
     0
  3

  4
mm
  5

  6

  7

 40
1.0
 41
0.1
 42
0.05
 43
0.5
 44
0.1
 45
0.0
 46
0.0
 47
0.1
 48
0.1
140
0.12
141
0.0
142
0.0
143
25.399999999999999
144
1.0
145
0.0
146
0.71
147
0.06
 71
     0
 72
     0
 73
     1
 74
     1
 75
     0
 76
     0
 77
     0
 78
     7
170
     0
171
     2
172
     0
173
     0
174
     0
175
     0
176
   256
177
   256
178
     2
  0
DIMSTYLE
  2
AM_ANSI$3
 70
     0
  3

  4
mm
  5

  6

  7

 40
1.0
 41
0.1
 42
0.05
 43
0.5
 44
0.1
 45
0.0
 46
0.0
 47
0.1
 48
0.1
140
0.12
141
0.0
142
0.0
143
25.399999999999999
144
1.0
145
0.0
146
0.71
147
0.06
 71
     0
 72
     0
 73
     1
 74
     1
 75
     0
 76
     0
 77
     0
 78
     7
170
     0
171
     2
172
     0
173
     0
174
     0
175
     0
176
   256
177
   256
178
     2
  0
DIMSTYLE
  2
AM_ANSI$4
 70
     0
  3

  4
mm
  5

  6

  7

 40
1.0
 41
0.1
 42
0.05
 43
0.5
 44
0.1
 45
0.0
 46
0.0
 47
0.1
 48
0.1
140
0.12
141
0.0
142
0.0
143
25.399999999999999
144
1.0
145
0.0
146
0.71
147
0.06
 71
     0
 72
     0
 73
     1
 74
     1
 75
     0
 76
     0
 77
     0
 78
     7
170
     0
171
     2
172
     0
173
     0
174
     0
175
     0
176
   256
177
   256
178
     2
  0
DIMSTYLE
  2
AM_ANSI$7
 70
     0
  3

  4
mm
  5

  6

  7

 40
1.0
 41
0.1
 42
0.05
 43
0.5
 44
0.1
 45
0.0
 46
0.0
 47
0.1
 48
0.1
140
0.24
141
0.0
142
0.0
143
25.399999999999999
144
1.0
145
0.0
146
0.71
147
0.06
 71
     0
 72
     0
 73
     1
 74
     1
 75
     0
 76
     0
 77
     0
 78
     7
170
     0
171
     2
172
     0
173
     0
174
     0
175
     0
176
   256
177
   256
178
     2
  0
DIMSTYLE
  2
AM_ANSI$SF
 70
     0
  3

  4
mm
  5

  6

  7

 40
1.0
 41
0.1
 42
0.05
 43
0.5
 44
0.1
 45
0.0
 46
0.0
 47
0.1
 48
0.1
140
0.12
141
0.0
142
0.0
143
25.399999999999999
144
1.0
145
0.0
146
0.71
147
0.06
 71
     0
 72
     0
 73
     1
 74
     1
 75
     1
 76
     1
 77
     0
 78
     7
170
     0
171
     2
172
     0
173
     0
174
     0
175
     0
176
   256
177
   256
178
     2
  0
DIMSTYLE
  2
AM_ANSI$SH
 70
     0
  3

  4
mm
  5

  6
GENAXEH
  7

 40
1.0
 41
0.1
 42
0.05
 43
0.5
 44
0.1
 45
0.0
 46
0.0
 47
0.1
 48
0.1
140
0.12
141
0.0
142
0.0
143
25.399999999999999
144
1.0
145
0.0
146
0.71
147
0.06
 71
     0
 72
     0
 73
     1
 74
     1
 75
     1
 76
     1
 77
     0
 78
     7
170
     0
171
     2
172
     0
173
     1
174
     0
175
     0
176
   256
177
   256
178
     2
  0
ENDTAB
  0
ENDSEC
  0
SECTION
  2
BLOCKS
  0
BLOCK
  8
0
  2
$MODEL_SPACE
 70
     0
 10
0.0
 20
0.0
 30
0.0
  3
$MODEL_SPACE
  1

  0
ENDBLK
  5
1535
  8
0
  0
BLOCK
 67
     1
  8
0
  2
$PAPER_SPACE
 70
     0
 10
0.0
 20
0.0
 30
0.0
  3
$PAPER_SPACE
  1

  0
ENDBLK
  5
1531
 67
     1
  8
0
  0
BLOCK
  8
0
  2
_OPEN
 70
     0
 10
0.0
 20
0.0
 30
0.0
  3
_OPEN
  1

  0
LINE
  5
D21
  8
0
  6
BYBLOCK
 62
     0
 10
-1.0
 20
0.1666666666666666
 30
0.0
 11
0.0
 21
0.0
 31
0.0
  0
LINE
  5
D22
  8
0
  6
BYBLOCK
 62
     0
 10
-1.0
 20
-0.1666666666666666
 30
0.0
 11
0.0
 21
0.0
 31
0.0
  0
LINE
  5
D23
  8
0
  6
BYBLOCK
 62
     0
 10
0.0
 20
0.0
 30
0.0
 11
-1.0
 21
0.0
 31
0.0
  0
ENDBLK
  5
D24
  8
0
  0
BLOCK
  8
0
  2
矢印なし
 70
     0
 10
0.0
 20
0.0
 30
0.0
  3
矢印なし
  1

  0
ENDBLK
  5
6E5
  8
0
  0
BLOCK
  8
0
  2
GENAXEH
 70
     0
 10
0.0
 20
0.0
 30
0.0
  3
GENAXEH
  1

  0
LINE
  5
D4C
  8
0
 10
-1.0
 20
0.0
 30
0.0
 11
1.0
 21
0.0
 31
0.0
  0
ENDBLK
  5
D4D
  8
0
  0
ENDSEC
  0
SECTION
  2
ENTITIES
  0
INSERT
  5
6E6
  8
245
  2
矢印なし
 10
175.62382697000001
 20
90.551235719999994
 30
0.0
  0
TEXT
  5
812
  8
241
 10
-38.0
 20
70.0
 30
0.0
 40
5.0
  1
C6-180-BH25R-32120S
  7
YOKO
 11
-38.0
 21
70.0
 31
0.0
 73
     1
  0
LINE
  5
BB1
  8
250
  6
CONTINUOUS
 10
-22.392419010000001
 20
-28.409010649999999
 30
0.0
 11
-32.659085679999997
 21
-28.409010649999999
 31
0.0
1001
ITEMNAME
1000
LNSP2
  0
LINE
  5
D93
  8
240
  6
CONTINUOUS
 10
22.0
 20
31.5
 30
0.0
 11
0.0
 21
31.5
 31
0.0
  0
LINE
  5
D94
  8
245
  6
CENTER2
 10
-39.0
 20
0.0
 30
0.0
 11
126.0
 21
0.0
 31
0.0
  0
CIRCLE
  5
D96
  8
242
 10
57.000000177395009
 20
17.003750000000078
 30
0.0
 40
5.125
  0
CIRCLE
  5
D97
  8
241
 10
57.000000177395009
 20
17.003750000000078
 30
0.0
 40
6.0
  0
LINE
  5
D9A
  8
241
 10
22.0
 20
0.0
 30
0.0
 11
22.0
 21
31.5
 31
0.0
  0
POLYLINE
  5
11E8
  8
241
 66
     1
 10
0.0
 20
0.0
 30
0.0
 70
     8
  0
VERTEX
  5
11E9
  8
241
 10
9.9499999999999993
 20
8.9923399999999987
 30
0.0
 70
    32
  0
VERTEX
  5
11EA
  8
241
 10
9.9163199999999971
 20
9.1256099999999982
 30
0.0
 70
    32
  0
VERTEX
  5
11EB
  8
241
 10
9.8826499999999982
 20
9.2588699999999982
 30
0.0
 70
    32
  0
VERTEX
  5
11EC
  8
241
 10
9.8490099999999998
 20
9.3921299999999999
 30
0.0
 70
    32
  0
VERTEX
  5
11ED
  8
241
 10
9.8153899999999972
 20
9.5253999999999994
 30
0.0
 70
    32
  0
VERTEX
  5
11EE
  8
241
 10
9.7818199999999997
 20
9.6586600000000011
 30
0.0
 70
    32
  0
VERTEX
  5
11EF
  8
241
 10
9.7483000000000004
 20
9.7919300000000007
 30
0.0
 70
    32
  0
VERTEX
  5
11F0
  8
241
 10
9.7148500000000002
 20
9.9251899999999988
 30
0.0
 70
    32
  0
VERTEX
  5
11F1
  8
241
 10
9.6814699999999991
 20
10.0585
 30
0.0
 70
    32
  0
VERTEX
  5
11F2
  8
241
 10
9.6481700000000004
 20
10.191700000000001
 30
0.0
 70
    32
  0
VERTEX
  5
11F3
  8
241
 10
9.6149699999999996
 20
10.324999999999999
 30
0.0
 70
    32
  0
VERTEX
  5
11F4
  8
241
 10
9.5818799999999982
 20
10.4582
 30
0.0
 70
    32
  0
VERTEX
  5
11F5
  8
241
 10
9.5489100000000011
 20
10.5915
 30
0.0
 70
    32
  0
VERTEX
  5
11F6
  8
241
 10
9.5160600000000013
 20
10.7248
 30
0.0
 70
    32
  0
VERTEX
  5
11F7
  8
241
 10
9.4833499999999997
 20
10.858000000000001
 30
0.0
 70
    32
  0
VERTEX
  5
11F8
  8
241
 10
9.4507899999999996
 20
10.991300000000001
 30
0.0
 70
    32
  0
VERTEX
  5
11F9
  8
241
 10
9.4183899999999987
 20
11.124599999999999
 30
0.0
 70
    32
  0
VERTEX
  5
11FA
  8
241
 10
9.3861600000000003
 20
11.2578
 30
0.0
 70
    32
  0
VERTEX
  5
11FB
  8
241
 10
9.3541199999999982
 20
11.3911
 30
0.0
 70
    32
  0
VERTEX
  5
11FC
  8
241
 10
9.3222599999999982
 20
11.5244
 30
0.0
 70
    32
  0
VERTEX
  5
11FD
  8
241
 10
9.2906099999999991
 20
11.6576
 30
0.0
 70
    32
  0
VERTEX
  5
11FE
  8
241
 10
9.2591699999999992
 20
11.790900000000001
 30
0.0
 70
    32
  0
VERTEX
  5
11FF
  8
241
 10
9.2279499999999999
 20
11.924200000000001
 30
0.0
 70
    32
  0
VERTEX
  5
1200
  8
241
 10
9.1969700000000003
 20
12.057399999999999
 30
0.0
 70
    32
  0
VERTEX
  5
1201
  8
241
 10
9.1662300000000005
 20
12.1907
 30
0.0
 70
    32
  0
VERTEX
  5
1202
  8
241
 10
9.1357499999999998
 20
12.324
 30
0.0
 70
    32
  0
VERTEX
  5
1203
  8
241
 10
9.1055399999999995
 20
12.4572
 30
0.0
 70
    32
  0
VERTEX
  5
1204
  8
241
 10
9.0755999999999997
 20
12.5905
 30
0.0
 70
    32
  0
VERTEX
  5
1205
  8
241
 10
9.0459499999999995
 20
12.723699999999999
 30
0.0
 70
    32
  0
VERTEX
  5
1206
  8
241
 10
9.0166000000000004
 20
12.856999999999999
 30
0.0
 70
    32
  0
VERTEX
  5
1207
  8
241
 10
8.9875600000000002
 20
12.9903
 30
0.0
 70
    32
  0
VERTEX
  5
1208
  8
241
 10
8.9588300000000007
 20
13.1235
 30
0.0
 70
    32
  0
VERTEX
  5
1209
  8
241
 10
8.930439999999999
 20
13.2568
 30
0.0
 70
    32
  0
VERTEX
  5
120A
  8
241
 10
8.9023899999999987
 20
13.3901
 30
0.0
 70
    32
  0
VERTEX
  5
120B
  8
241
 10
8.8746899999999993
 20
13.523300000000001
 30
0.0
 70
    32
  0
VERTEX
  5
120C
  8
241
 10
8.8473500000000005
 20
13.656599999999999
 30
0.0
 70
    32
  0
VERTEX
  5
120D
  8
241
 10
8.8203899999999997
 20
13.789899999999999
 30
0.0
 70
    32
  0
VERTEX
  5
120E
  8
241
 10
8.7938100000000006
 20
13.9231
 30
0.0
 70
    32
  0
VERTEX
  5
120F
  8
241
 10
8.7676199999999991
 20
14.0564
 30
0.0
 70
    32
  0
VERTEX
  5
1210
  8
241
 10
8.7418399999999998
 20
14.1897
 30
0.0
 70
    32
  0
VERTEX
  5
1211
  8
241
 10
8.7164800000000007
 20
14.322900000000001
 30
0.0
 70
    32
  0
VERTEX
  5
1212
  8
241
 10
8.6915399999999998
 20
14.456200000000001
 30
0.0
 70
    32
  0
VERTEX
  5
1213
  8
241
 10
8.6670400000000001
 20
14.589399999999999
 30
0.0
 70
    32
  0
VERTEX
  5
1214
  8
241
 10
8.6429799999999997
 20
14.7227
 30
0.0
 70
    32
  0
VERTEX
  5
1215
  8
241
 10
8.6193899999999992
 20
14.856
 30
0.0
 70
    32
  0
VERTEX
  5
1216
  8
241
 10
8.5962599999999991
 20
14.9892
 30
0.0
 70
    32
  0
VERTEX
  5
1217
  8
241
 10
8.5736100000000004
 20
15.1225
 30
0.0
 70
    32
  0
VERTEX
  5
1218
  8
241
 10
8.5514500000000009
 20
15.255800000000001
 30
0.0
 70
    32
  0
VERTEX
  5
1219
  8
241
 10
8.5297999999999998
 20
15.388999999999999
 30
0.0
 70
    32
  0
VERTEX
  5
121A
  8
241
 10
8.5086499999999994
 20
15.5223
 30
0.0
 70
    32
  0
VERTEX
  5
121B
  8
241
 10
8.4880300000000002
 20
15.6556
 30
0.0
 70
    32
  0
VERTEX
  5
121C
  8
241
 10
8.4679399999999987
 20
15.7888
 30
0.0
 70
    32
  0
VERTEX
  5
121D
  8
241
 10
8.4483899999999998
 20
15.9221
 30
0.0
 70
    32
  0
VERTEX
  5
121E
  8
241
 10
8.4293999999999993
 20
16.055399999999999
 30
0.0
 70
    32
  0
VERTEX
  5
121F
  8
241
 10
8.4109800000000003
 20
16.188600000000001
 30
0.0
 70
    32
  0
VERTEX
  5
1220
  8
241
 10
8.3931199999999997
 20
16.321899999999999
 30
0.0
 70
    32
  0
VERTEX
  5
1221
  8
241
 10
8.3758600000000012
 20
16.455100000000002
 30
0.0
 70
    32
  0
VERTEX
  5
1222
  8
241
 10
8.3591899999999981
 20
16.5884
 30
0.0
 70
    32
  0
VERTEX
  5
1223
  8
241
 10
8.3431300000000004
 20
16.721699999999998
 30
0.0
 70
    32
  0
VERTEX
  5
1224
  8
241
 10
8.3276899999999987
 20
16.854900000000001
 30
0.0
 70
    32
  0
VERTEX
  5
1225
  8
241
 10
8.3128700000000002
 20
16.988199999999999
 30
0.0
 70
    32
  0
VERTEX
  5
1226
  8
241
 10
8.2987000000000002
 20
17.121500000000001
 30
0.0
 70
    32
  0
VERTEX
  5
1227
  8
241
 10
8.285169999999999
 20
17.2547
 30
0.0
 70
    32
  0
VERTEX
  5
1228
  8
241
 10
8.2723099999999992
 20
17.388000000000002
 30
0.0
 70
    32
  0
VERTEX
  5
1229
  8
241
 10
8.2601200000000006
 20
17.5213
 30
0.0
 70
    32
  0
VERTEX
  5
122A
  8
241
 10
8.2486100000000011
 20
17.654499999999999
 30
0.0
 70
    32
  0
VERTEX
  5
122B
  8
241
 10
8.2377899999999986
 20
17.787800000000001
 30
0.0
 70
    32
  0
VERTEX
  5
122C
  8
241
 10
8.2276799999999994
 20
17.921099999999999
 30
0.0
 70
    32
  0
VERTEX
  5
122D
  8
241
 10
8.21828
 20
18.054300000000001
 30
0.0
 70
    32
  0
VERTEX
  5
122E
  8
241
 10
8.2096
 20
18.1876
 30
0.0
 70
    32
  0
VERTEX
  5
122F
  8
241
 10
8.2016600000000004
 20
18.320799999999998
 30
0.0
 70
    32
  0
VERTEX
  5
1230
  8
241
 10
8.194469999999999
 20
18.4541
 30
0.0
 70
    32
  0
VERTEX
  5
1231
  8
241
 10
8.1880299999999995
 20
18.587399999999999
 30
0.0
 70
    32
  0
VERTEX
  5
1232
  8
241
 10
8.1823599999999992
 20
18.720600000000001
 30
0.0
 70
    32
  0
VERTEX
  5
1233
  8
241
 10
8.1774699999999996
 20
18.853899999999999
 30
0.0
 70
    32
  0
VERTEX
  5
1234
  8
241
 10
8.1733700000000002
 20
18.987200000000001
 30
0.0
 70
    32
  0
VERTEX
  5
1235
  8
241
 10
8.1700600000000012
 20
19.1204
 30
0.0
 70
    32
  0
VERTEX
  5
1236
  8
241
 10
8.1675699999999996
 20
19.253699999999998
 30
0.0
 70
    32
  0
VERTEX
  5
1237
  8
241
 10
8.1659000000000006
 20
19.387
 30
0.0
 70
    32
  0
VERTEX
  5
1238
  8
241
 10
8.1650600000000004
 20
19.520199999999999
 30
0.0
 70
    32
  0
VERTEX
  5
1239
  8
241
 10
8.1650600000000004
 20
19.653500000000001
 30
0.0
 70
    32
  0
VERTEX
  5
123A
  8
241
 10
8.1659000000000006
 20
19.786799999999999
 30
0.0
 70
    32
  0
VERTEX
  5
123B
  8
241
 10
8.1675699999999996
 20
19.920000000000002
 30
0.0
 70
    32
  0
VERTEX
  5
123C
  8
241
 10
8.1700600000000012
 20
20.0533
 30
0.0
 70
    32
  0
VERTEX
  5
123D
  8
241
 10
8.1733700000000002
 20
20.186499999999999
 30
0.0
 70
    32
  0
VERTEX
  5
123E
  8
241
 10
8.1774699999999996
 20
20.319800000000001
 30
0.0
 70
    32
  0
VERTEX
  5
123F
  8
241
 10
8.1823599999999992
 20
20.453099999999999
 30
0.0
 70
    32
  0
VERTEX
  5
1240
  8
241
 10
8.1880299999999995
 20
20.586300000000001
 30
0.0
 70
    32
  0
VERTEX
  5
1241
  8
241
 10
8.194469999999999
 20
20.7196
 30
0.0
 70
    32
  0
VERTEX
  5
1242
  8
241
 10
8.2016600000000004
 20
20.852900000000002
 30
0.0
 70
    32
  0
VERTEX
  5
1243
  8
241
 10
8.2096
 20
20.9861
 30
0.0
 70
    32
  0
VERTEX
  5
1244
  8
241
 10
8.21828
 20
21.119399999999999
 30
0.0
 70
    32
  0
VERTEX
  5
1245
  8
241
 10
8.2276799999999994
 20
21.252700000000001
 30
0.0
 70
    32
  0
VERTEX
  5
1246
  8
241
 10
8.2377899999999986
 20
21.385899999999999
 30
0.0
 70
    32
  0
VERTEX
  5
1247
  8
241
 10
8.2486100000000011
 20
21.519200000000001
 30
0.0
 70
    32
  0
VERTEX
  5
1248
  8
241
 10
8.2601200000000006
 20
21.6525
 30
0.0
 70
    32
  0
VERTEX
  5
1249
  8
241
 10
8.2723099999999992
 20
21.785699999999999
 30
0.0
 70
    32
  0
VERTEX
  5
124A
  8
241
 10
8.285169999999999
 20
21.919
 30
0.0
 70
    32
  0
VERTEX
  5
124B
  8
241
 10
8.2987000000000002
 20
22.052199999999999
 30
0.0
 70
    32
  0
VERTEX
  5
124C
  8
241
 10
8.3128700000000002
 20
22.185500000000001
 30
0.0
 70
    32
  0
VERTEX
  5
124D
  8
241
 10
8.3276899999999987
 20
22.3188
 30
0.0
 70
    32
  0
VERTEX
  5
124E
  8
241
 10
8.3431300000000004
 20
22.452000000000002
 30
0.0
 70
    32
  0
VERTEX
  5
124F
  8
241
 10
8.3591899999999981
 20
22.5853
 30
0.0
 70
    32
  0
VERTEX
  5
1250
  8
241
 10
8.3758600000000012
 20
22.718599999999999
 30
0.0
 70
    32
  0
VERTEX
  5
1251
  8
241
 10
8.3931199999999997
 20
22.851800000000001
 30
0.0
 70
    32
  0
VERTEX
  5
1252
  8
241
 10
8.4109800000000003
 20
22.985099999999999
 30
0.0
 70
    32
  0
VERTEX
  5
1253
  8
241
 10
8.4293999999999993
 20
23.118400000000001
 30
0.0
 70
    32
  0
VERTEX
  5
1254
  8
241
 10
8.4483899999999998
 20
23.2516
 30
0.0
 70
    32
  0
VERTEX
  5
1255
  8
241
 10
8.4679399999999987
 20
23.384899999999998
 30
0.0
 70
    32
  0
VERTEX
  5
1256
  8
241
 10
8.4880300000000002
 20
23.5182
 30
0.0
 70
    32
  0
VERTEX
  5
1257
  8
241
 10
8.5086499999999994
 20
23.651399999999999
 30
0.0
 70
    32
  0
VERTEX
  5
1258
  8
241
 10
8.5297999999999998
 20
23.784700000000001
 30
0.0
 70
    32
  0
VERTEX
  5
1259
  8
241
 10
8.5514500000000009
 20
23.917899999999999
 30
0.0
 70
    32
  0
VERTEX
  5
125A
  8
241
 10
8.5736100000000004
 20
24.051200000000001
 30
0.0
 70
    32
  0
VERTEX
  5
125B
  8
241
 10
8.5962599999999991
 20
24.1845
 30
0.0
 70
    32
  0
VERTEX
  5
125C
  8
241
 10
8.6193899999999992
 20
24.317699999999999
 30
0.0
 70
    32
  0
VERTEX
  5
125D
  8
241
 10
8.6429799999999997
 20
24.451000000000001
 30
0.0
 70
    32
  0
VERTEX
  5
125E
  8
241
 10
8.6670400000000001
 20
24.584299999999999
 30
0.0
 70
    32
  0
VERTEX
  5
125F
  8
241
 10
8.6915399999999998
 20
24.717500000000001
 30
0.0
 70
    32
  0
VERTEX
  5
1260
  8
241
 10
8.7164800000000007
 20
24.8508
 30
0.0
 70
    32
  0
VERTEX
  5
1261
  8
241
 10
8.7418399999999998
 20
24.984100000000002
 30
0.0
 70
    32
  0
VERTEX
  5
1262
  8
241
 10
8.7676199999999991
 20
25.1173
 30
0.0
 70
    32
  0
VERTEX
  5
1263
  8
241
 10
8.7938100000000006
 20
25.250599999999999
 30
0.0
 70
    32
  0
VERTEX
  5
1264
  8
241
 10
8.8203899999999997
 20
25.383900000000001
 30
0.0
 70
    32
  0
VERTEX
  5
1265
  8
241
 10
8.8473500000000005
 20
25.517099999999999
 30
0.0
 70
    32
  0
VERTEX
  5
1266
  8
241
 10
8.8746899999999993
 20
25.650400000000001
 30
0.0
 70
    32
  0
VERTEX
  5
1267
  8
241
 10
8.9023899999999987
 20
25.7837
 30
0.0
 70
    32
  0
VERTEX
  5
1268
  8
241
 10
8.930439999999999
 20
25.916899999999998
 30
0.0
 70
    32
  0
VERTEX
  5
1269
  8
241
 10
8.9588300000000007
 20
26.0502
 30
0.0
 70
    32
  0
VERTEX
  5
126A
  8
241
 10
8.9875600000000002
 20
26.183399999999999
 30
0.0
 70
    32
  0
VERTEX
  5
126B
  8
241
 10
9.0166000000000004
 20
26.316700000000001
 30
0.0
 70
    32
  0
VERTEX
  5
126C
  8
241
 10
9.0459499999999995
 20
26.449999999999999
 30
0.0
 70
    32
  0
VERTEX
  5
126D
  8
241
 10
9.0755999999999997
 20
26.583200000000001
 30
0.0
 70
    32
  0
VERTEX
  5
126E
  8
241
 10
9.1055399999999995
 20
26.7165
 30
0.0
 70
    32
  0
VERTEX
  5
126F
  8
241
 10
9.1357499999999998
 20
26.849799999999998
 30
0.0
 70
    32
  0
VERTEX
  5
1270
  8
241
 10
9.1662300000000005
 20
26.983000000000001
 30
0.0
 70
    32
  0
VERTEX
  5
1271
  8
241
 10
9.1969700000000003
 20
27.116299999999999
 30
0.0
 70
    32
  0
VERTEX
  5
1272
  8
241
 10
9.2279499999999999
 20
27.249600000000001
 30
0.0
 70
    32
  0
VERTEX
  5
1273
  8
241
 10
9.2591699999999992
 20
27.3828
 30
0.0
 70
    32
  0
VERTEX
  5
1274
  8
241
 10
9.2906099999999991
 20
27.516100000000002
 30
0.0
 70
    32
  0
VERTEX
  5
1275
  8
241
 10
9.3222599999999982
 20
27.6494
 30
0.0
 70
    32
  0
VERTEX
  5
1276
  8
241
 10
9.3541199999999982
 20
27.782599999999999
 30
0.0
 70
    32
  0
VERTEX
  5
1277
  8
241
 10
9.3861600000000003
 20
27.915900000000001
 30
0.0
 70
    32
  0
VERTEX
  5
1278
  8
241
 10
9.4183899999999987
 20
28.049099999999999
 30
0.0
 70
    32
  0
VERTEX
  5
1279
  8
241
 10
9.4507899999999996
 20
28.182400000000001
 30
0.0
 70
    32
  0
VERTEX
  5
127A
  8
241
 10
9.4833499999999997
 20
28.3157
 30
0.0
 70
    32
  0
VERTEX
  5
127B
  8
241
 10
9.5160600000000013
 20
28.448899999999998
 30
0.0
 70
    32
  0
VERTEX
  5
127C
  8
241
 10
9.5489100000000011
 20
28.5822
 30
0.0
 70
    32
  0
VERTEX
  5
127D
  8
241
 10
9.5818799999999982
 20
28.715499999999999
 30
0.0
 70
    32
  0
VERTEX
  5
127E
  8
241
 10
9.6149699999999996
 20
28.848700000000001
 30
0.0
 70
    32
  0
VERTEX
  5
127F
  8
241
 10
9.6481700000000004
 20
28.981999999999999
 30
0.0
 70
    32
  0
VERTEX
  5
1280
  8
241
 10
9.6814699999999991
 20
29.115300000000001
 30
0.0
 70
    32
  0
VERTEX
  5
1281
  8
241
 10
9.7148500000000002
 20
29.2485
 30
0.0
 70
    32
  0
VERTEX
  5
1282
  8
241
 10
9.7483000000000004
 20
29.381799999999998
 30
0.0
 70
    32
  0
VERTEX
  5
1283
  8
241
 10
9.7818199999999997
 20
29.5151
 30
0.0
 70
    32
  0
VERTEX
  5
1284
  8
241
 10
9.8153899999999972
 20
29.648299999999999
 30
0.0
 70
    32
  0
VERTEX
  5
1285
  8
241
 10
9.8490099999999998
 20
29.781600000000001
 30
0.0
 70
    32
  0
VERTEX
  5
1286
  8
241
 10
9.8826499999999982
 20
29.9148
 30
0.0
 70
    32
  0
VERTEX
  5
1287
  8
241
 10
9.9163199999999971
 20
30.048100000000002
 30
0.0
 70
    32
  0
VERTEX
  5
1288
  8
241
 10
9.9499999999999993
 20
30.1814
 30
0.0
 70
    32
  0
SEQEND
  5
1289
  8
241
  0
POLYLINE
  5
128A
  8
241
 66
     1
 10
0.0
 20
0.0
 30
0.0
 70
     8
  0
VERTEX
  5
128B
  8
241
 10
14.050000000000001
 20
30.1814
 30
0.0
 70
    32
  0
VERTEX
  5
128C
  8
241
 10
14.0837
 20
30.048100000000002
 30
0.0
 70
    32
  0
VERTEX
  5
128D
  8
241
 10
14.1173
 20
29.9148
 30
0.0
 70
    32
  0
VERTEX
  5
128E
  8
241
 10
14.151
 20
29.781600000000001
 30
0.0
 70
    32
  0
VERTEX
  5
128F
  8
241
 10
14.1846
 20
29.648299999999999
 30
0.0
 70
    32
  0
VERTEX
  5
1290
  8
241
 10
14.2182
 20
29.5151
 30
0.0
 70
    32
  0
VERTEX
  5
1291
  8
241
 10
14.2517
 20
29.381799999999998
 30
0.0
 70
    32
  0
VERTEX
  5
1292
  8
241
 10
14.2852
 20
29.2485
 30
0.0
 70
    32
  0
VERTEX
  5
1293
  8
241
 10
14.3185
 20
29.115300000000001
 30
0.0
 70
    32
  0
VERTEX
  5
1294
  8
241
 10
14.351800000000001
 20
28.981999999999999
 30
0.0
 70
    32
  0
VERTEX
  5
1295
  8
241
 10
14.385
 20
28.848700000000001
 30
0.0
 70
    32
  0
VERTEX
  5
1296
  8
241
 10
14.418100000000001
 20
28.715499999999999
 30
0.0
 70
    32
  0
VERTEX
  5
1297
  8
241
 10
14.4511
 20
28.5822
 30
0.0
 70
    32
  0
VERTEX
  5
1298
  8
241
 10
14.4839
 20
28.448899999999998
 30
0.0
 70
    32
  0
VERTEX
  5
1299
  8
241
 10
14.5166
 20
28.3157
 30
0.0
 70
    32
  0
VERTEX
  5
129A
  8
241
 10
14.549200000000001
 20
28.182400000000001
 30
0.0
 70
    32
  0
VERTEX
  5
129B
  8
241
 10
14.5816
 20
28.049099999999999
 30
0.0
 70
    32
  0
VERTEX
  5
129C
  8
241
 10
14.613799999999999
 20
27.915900000000001
 30
0.0
 70
    32
  0
VERTEX
  5
129D
  8
241
 10
14.645899999999999
 20
27.782599999999999
 30
0.0
 70
    32
  0
VERTEX
  5
129E
  8
241
 10
14.6777
 20
27.6494
 30
0.0
 70
    32
  0
VERTEX
  5
129F
  8
241
 10
14.7094
 20
27.516100000000002
 30
0.0
 70
    32
  0
VERTEX
  5
12A0
  8
241
 10
14.7408
 20
27.3828
 30
0.0
 70
    32
  0
VERTEX
  5
12A1
  8
241
 10
14.772
 20
27.249600000000001
 30
0.0
 70
    32
  0
VERTEX
  5
12A2
  8
241
 10
14.803000000000001
 20
27.116299999999999
 30
0.0
 70
    32
  0
VERTEX
  5
12A3
  8
241
 10
14.8338
 20
26.983000000000001
 30
0.0
 70
    32
  0
VERTEX
  5
12A4
  8
241
 10
14.8642
 20
26.849799999999998
 30
0.0
 70
    32
  0
VERTEX
  5
12A5
  8
241
 10
14.894500000000001
 20
26.7165
 30
0.0
 70
    32
  0
VERTEX
  5
12A6
  8
241
 10
14.9244
 20
26.583200000000001
 30
0.0
 70
    32
  0
VERTEX
  5
12A7
  8
241
 10
14.9541
 20
26.449999999999999
 30
0.0
 70
    32
  0
VERTEX
  5
12A8
  8
241
 10
14.9834
 20
26.316700000000001
 30
0.0
 70
    32
  0
VERTEX
  5
12A9
  8
241
 10
15.0124
 20
26.183399999999999
 30
0.0
 70
    32
  0
VERTEX
  5
12AA
  8
241
 10
15.0412
 20
26.0502
 30
0.0
 70
    32
  0
VERTEX
  5
12AB
  8
241
 10
15.069599999999999
 20
25.916899999999998
 30
0.0
 70
    32
  0
VERTEX
  5
12AC
  8
241
 10
15.0976
 20
25.7837
 30
0.0
 70
    32
  0
VERTEX
  5
12AD
  8
241
 10
15.125299999999999
 20
25.650400000000001
 30
0.0
 70
    32
  0
VERTEX
  5
12AE
  8
241
 10
15.1526
 20
25.517099999999999
 30
0.0
 70
    32
  0
VERTEX
  5
12AF
  8
241
 10
15.179600000000001
 20
25.383900000000001
 30
0.0
 70
    32
  0
VERTEX
  5
12B0
  8
241
 10
15.206200000000001
 20
25.250599999999999
 30
0.0
 70
    32
  0
VERTEX
  5
12B1
  8
241
 10
15.2324
 20
25.1173
 30
0.0
 70
    32
  0
VERTEX
  5
12B2
  8
241
 10
15.2582
 20
24.984100000000002
 30
0.0
 70
    32
  0
VERTEX
  5
12B3
  8
241
 10
15.2835
 20
24.8508
 30
0.0
 70
    32
  0
VERTEX
  5
12B4
  8
241
 10
15.3085
 20
24.717500000000001
 30
0.0
 70
    32
  0
VERTEX
  5
12B5
  8
241
 10
15.333
 20
24.584299999999999
 30
0.0
 70
    32
  0
VERTEX
  5
12B6
  8
241
 10
15.356999999999999
 20
24.451000000000001
 30
0.0
 70
    32
  0
VERTEX
  5
12B7
  8
241
 10
15.380599999999999
 20
24.317699999999999
 30
0.0
 70
    32
  0
VERTEX
  5
12B8
  8
241
 10
15.403700000000001
 20
24.1845
 30
0.0
 70
    32
  0
VERTEX
  5
12B9
  8
241
 10
15.426399999999999
 20
24.051200000000001
 30
0.0
 70
    32
  0
VERTEX
  5
12BA
  8
241
 10
15.448499999999999
 20
23.917899999999999
 30
0.0
 70
    32
  0
VERTEX
  5
12BB
  8
241
 10
15.4702
 20
23.784700000000001
 30
0.0
 70
    32
  0
VERTEX
  5
12BC
  8
241
 10
15.491300000000001
 20
23.651399999999999
 30
0.0
 70
    32
  0
VERTEX
  5
12BD
  8
241
 10
15.512
 20
23.5182
 30
0.0
 70
    32
  0
VERTEX
  5
12BE
  8
241
 10
15.5321
 20
23.384899999999998
 30
0.0
 70
    32
  0
VERTEX
  5
12BF
  8
241
 10
15.551600000000001
 20
23.2516
 30
0.0
 70
    32
  0
VERTEX
  5
12C0
  8
241
 10
15.570600000000001
 20
23.118400000000001
 30
0.0
 70
    32
  0
VERTEX
  5
12C1
  8
241
 10
15.589
 20
22.985099999999999
 30
0.0
 70
    32
  0
VERTEX
  5
12C2
  8
241
 10
15.6069
 20
22.851800000000001
 30
0.0
 70
    32
  0
VERTEX
  5
12C3
  8
241
 10
15.6241
 20
22.718599999999999
 30
0.0
 70
    32
  0
VERTEX
  5
12C4
  8
241
 10
15.6408
 20
22.5853
 30
0.0
 70
    32
  0
VERTEX
  5
12C5
  8
241
 10
15.6569
 20
22.452000000000002
 30
0.0
 70
    32
  0
VERTEX
  5
12C6
  8
241
 10
15.6723
 20
22.3188
 30
0.0
 70
    32
  0
VERTEX
  5
12C7
  8
241
 10
15.687099999999999
 20
22.185500000000001
 30
0.0
 70
    32
  0
VERTEX
  5
12C8
  8
241
 10
15.7013
 20
22.052199999999999
 30
0.0
 70
    32
  0
VERTEX
  5
12C9
  8
241
 10
15.7148
 20
21.919
 30
0.0
 70
    32
  0
VERTEX
  5
12CA
  8
241
 10
15.7277
 20
21.785699999999999
 30
0.0
 70
    32
  0
VERTEX
  5
12CB
  8
241
 10
15.7399
 20
21.6525
 30
0.0
 70
    32
  0
VERTEX
  5
12CC
  8
241
 10
15.7514
 20
21.519200000000001
 30
0.0
 70
    32
  0
VERTEX
  5
12CD
  8
241
 10
15.7622
 20
21.385899999999999
 30
0.0
 70
    32
  0
VERTEX
  5
12CE
  8
241
 10
15.7723
 20
21.252700000000001
 30
0.0
 70
    32
  0
VERTEX
  5
12CF
  8
241
 10
15.781700000000001
 20
21.119399999999999
 30
0.0
 70
    32
  0
VERTEX
  5
12D0
  8
241
 10
15.7904
 20
20.9861
 30
0.0
 70
    32
  0
VERTEX
  5
12D1
  8
241
 10
15.798299999999999
 20
20.852900000000002
 30
0.0
 70
    32
  0
VERTEX
  5
12D2
  8
241
 10
15.8055
 20
20.7196
 30
0.0
 70
    32
  0
VERTEX
  5
12D3
  8
241
 10
15.811999999999999
 20
20.586300000000001
 30
0.0
 70
    32
  0
VERTEX
  5
12D4
  8
241
 10
15.817600000000001
 20
20.453099999999999
 30
0.0
 70
    32
  0
VERTEX
  5
12D5
  8
241
 10
15.8225
 20
20.319800000000001
 30
0.0
 70
    32
  0
VERTEX
  5
12D6
  8
241
 10
15.826599999999999
 20
20.186499999999999
 30
0.0
 70
    32
  0
VERTEX
  5
12D7
  8
241
 10
15.8299
 20
20.0533
 30
0.0
 70
    32
  0
VERTEX
  5
12D8
  8
241
 10
15.8324
 20
19.920000000000002
 30
0.0
 70
    32
  0
VERTEX
  5
12D9
  8
241
 10
15.834099999999999
 20
19.786799999999999
 30
0.0
 70
    32
  0
VERTEX
  5
12DA
  8
241
 10
15.834899999999999
 20
19.653500000000001
 30
0.0
 70
    32
  0
VERTEX
  5
12DB
  8
241
 10
15.834899999999999
 20
19.520199999999999
 30
0.0
 70
    32
  0
VERTEX
  5
12DC
  8
241
 10
15.834099999999999
 20
19.387
 30
0.0
 70
    32
  0
VERTEX
  5
12DD
  8
241
 10
15.8324
 20
19.253699999999998
 30
0.0
 70
    32
  0
VERTEX
  5
12DE
  8
241
 10
15.8299
 20
19.1204
 30
0.0
 70
    32
  0
VERTEX
  5
12DF
  8
241
 10
15.826599999999999
 20
18.987200000000001
 30
0.0
 70
    32
  0
VERTEX
  5
12E0
  8
241
 10
15.8225
 20
18.853899999999999
 30
0.0
 70
    32
  0
VERTEX
  5
12E1
  8
241
 10
15.817600000000001
 20
18.720600000000001
 30
0.0
 70
    32
  0
VERTEX
  5
12E2
  8
241
 10
15.811999999999999
 20
18.587399999999999
 30
0.0
 70
    32
  0
VERTEX
  5
12E3
  8
241
 10
15.8055
 20
18.4541
 30
0.0
 70
    32
  0
VERTEX
  5
12E4
  8
241
 10
15.798299999999999
 20
18.320799999999998
 30
0.0
 70
    32
  0
VERTEX
  5
12E5
  8
241
 10
15.7904
 20
18.1876
 30
0.0
 70
    32
  0
VERTEX
  5
12E6
  8
241
 10
15.781700000000001
 20
18.054300000000001
 30
0.0
 70
    32
  0
VERTEX
  5
12E7
  8
241
 10
15.7723
 20
17.921099999999999
 30
0.0
 70
    32
  0
VERTEX
  5
12E8
  8
241
 10
15.7622
 20
17.787800000000001
 30
0.0
 70
    32
  0
VERTEX
  5
12E9
  8
241
 10
15.7514
 20
17.654499999999999
 30
0.0
 70
    32
  0
VERTEX
  5
12EA
  8
241
 10
15.7399
 20
17.5213
 30
0.0
 70
    32
  0
VERTEX
  5
12EB
  8
241
 10
15.7277
 20
17.388000000000002
 30
0.0
 70
    32
  0
VERTEX
  5
12EC
  8
241
 10
15.7148
 20
17.2547
 30
0.0
 70
    32
  0
VERTEX
  5
12ED
  8
241
 10
15.7013
 20
17.121500000000001
 30
0.0
 70
    32
  0
VERTEX
  5
12EE
  8
241
 10
15.687099999999999
 20
16.988199999999999
 30
0.0
 70
    32
  0
VERTEX
  5
12EF
  8
241
 10
15.6723
 20
16.854900000000001
 30
0.0
 70
    32
  0
VERTEX
  5
12F0
  8
241
 10
15.6569
 20
16.721699999999998
 30
0.0
 70
    32
  0
VERTEX
  5
12F1
  8
241
 10
15.6408
 20
16.5884
 30
0.0
 70
    32
  0
VERTEX
  5
12F2
  8
241
 10
15.6241
 20
16.455100000000002
 30
0.0
 70
    32
  0
VERTEX
  5
12F3
  8
241
 10
15.6069
 20
16.321899999999999
 30
0.0
 70
    32
  0
VERTEX
  5
12F4
  8
241
 10
15.589
 20
16.188600000000001
 30
0.0
 70
    32
  0
VERTEX
  5
12F5
  8
241
 10
15.570600000000001
 20
16.055399999999999
 30
0.0
 70
    32
  0
VERTEX
  5
12F6
  8
241
 10
15.551600000000001
 20
15.9221
 30
0.0
 70
    32
  0
VERTEX
  5
12F7
  8
241
 10
15.5321
 20
15.7888
 30
0.0
 70
    32
  0
VERTEX
  5
12F8
  8
241
 10
15.512
 20
15.6556
 30
0.0
 70
    32
  0
VERTEX
  5
12F9
  8
241
 10
15.491300000000001
 20
15.5223
 30
0.0
 70
    32
  0
VERTEX
  5
12FA
  8
241
 10
15.4702
 20
15.388999999999999
 30
0.0
 70
    32
  0
VERTEX
  5
12FB
  8
241
 10
15.448499999999999
 20
15.255800000000001
 30
0.0
 70
    32
  0
VERTEX
  5
12FC
  8
241
 10
15.426399999999999
 20
15.1225
 30
0.0
 70
    32
  0
VERTEX
  5
12FD
  8
241
 10
15.403700000000001
 20
14.9892
 30
0.0
 70
    32
  0
VERTEX
  5
12FE
  8
241
 10
15.380599999999999
 20
14.856
 30
0.0
 70
    32
  0
VERTEX
  5
12FF
  8
241
 10
15.356999999999999
 20
14.7227
 30
0.0
 70
    32
  0
VERTEX
  5
1300
  8
241
 10
15.333
 20
14.589399999999999
 30
0.0
 70
    32
  0
VERTEX
  5
1301
  8
241
 10
15.3085
 20
14.456200000000001
 30
0.0
 70
    32
  0
VERTEX
  5
1302
  8
241
 10
15.2835
 20
14.322900000000001
 30
0.0
 70
    32
  0
VERTEX
  5
1303
  8
241
 10
15.2582
 20
14.1897
 30
0.0
 70
    32
  0
VERTEX
  5
1304
  8
241
 10
15.2324
 20
14.0564
 30
0.0
 70
    32
  0
VERTEX
  5
1305
  8
241
 10
15.206200000000001
 20
13.9231
 30
0.0
 70
    32
  0
VERTEX
  5
1306
  8
241
 10
15.179600000000001
 20
13.789899999999999
 30
0.0
 70
    32
  0
VERTEX
  5
1307
  8
241
 10
15.1526
 20
13.656599999999999
 30
0.0
 70
    32
  0
VERTEX
  5
1308
  8
241
 10
15.125299999999999
 20
13.523300000000001
 30
0.0
 70
    32
  0
VERTEX
  5
1309
  8
241
 10
15.0976
 20
13.3901
 30
0.0
 70
    32
  0
VERTEX
  5
130A
  8
241
 10
15.069599999999999
 20
13.2568
 30
0.0
 70
    32
  0
VERTEX
  5
130B
  8
241
 10
15.0412
 20
13.1235
 30
0.0
 70
    32
  0
VERTEX
  5
130C
  8
241
 10
15.0124
 20
12.9903
 30
0.0
 70
    32
  0
VERTEX
  5
130D
  8
241
 10
14.9834
 20
12.856999999999999
 30
0.0
 70
    32
  0
VERTEX
  5
130E
  8
241
 10
14.9541
 20
12.723699999999999
 30
0.0
 70
    32
  0
VERTEX
  5
130F
  8
241
 10
14.9244
 20
12.5905
 30
0.0
 70
    32
  0
VERTEX
  5
1310
  8
241
 10
14.894500000000001
 20
12.4572
 30
0.0
 70
    32
  0
VERTEX
  5
1311
  8
241
 10
14.8642
 20
12.324
 30
0.0
 70
    32
  0
VERTEX
  5
1312
  8
241
 10
14.8338
 20
12.1907
 30
0.0
 70
    32
  0
VERTEX
  5
1313
  8
241
 10
14.803000000000001
 20
12.057399999999999
 30
0.0
 70
    32
  0
VERTEX
  5
1314
  8
241
 10
14.772
 20
11.924200000000001
 30
0.0
 70
    32
  0
VERTEX
  5
1315
  8
241
 10
14.7408
 20
11.790900000000001
 30
0.0
 70
    32
  0
VERTEX
  5
1316
  8
241
 10
14.7094
 20
11.6576
 30
0.0
 70
    32
  0
VERTEX
  5
1317
  8
241
 10
14.6777
 20
11.5244
 30
0.0
 70
    32
  0
VERTEX
  5
1318
  8
241
 10
14.645899999999999
 20
11.3911
 30
0.0
 70
    32
  0
VERTEX
  5
1319
  8
241
 10
14.613799999999999
 20
11.2578
 30
0.0
 70
    32
  0
VERTEX
  5
131A
  8
241
 10
14.5816
 20
11.124599999999999
 30
0.0
 70
    32
  0
VERTEX
  5
131B
  8
241
 10
14.549200000000001
 20
10.991300000000001
 30
0.0
 70
    32
  0
VERTEX
  5
131C
  8
241
 10
14.5166
 20
10.858000000000001
 30
0.0
 70
    32
  0
VERTEX
  5
131D
  8
241
 10
14.4839
 20
10.7248
 30
0.0
 70
    32
  0
VERTEX
  5
131E
  8
241
 10
14.4511
 20
10.5915
 30
0.0
 70
    32
  0
VERTEX
  5
131F
  8
241
 10
14.418100000000001
 20
10.4582
 30
0.0
 70
    32
  0
VERTEX
  5
1320
  8
241
 10
14.385
 20
10.324999999999999
 30
0.0
 70
    32
  0
VERTEX
  5
1321
  8
241
 10
14.351800000000001
 20
10.191700000000001
 30
0.0
 70
    32
  0
VERTEX
  5
1322
  8
241
 10
14.3185
 20
10.0585
 30
0.0
 70
    32
  0
VERTEX
  5
1323
  8
241
 10
14.2852
 20
9.9251899999999988
 30
0.0
 70
    32
  0
VERTEX
  5
1324
  8
241
 10
14.2517
 20
9.7919300000000007
 30
0.0
 70
    32
  0
VERTEX
  5
1325
  8
241
 10
14.2182
 20
9.6586600000000011
 30
0.0
 70
    32
  0
VERTEX
  5
1326
  8
241
 10
14.1846
 20
9.5253999999999994
 30
0.0
 70
    32
  0
VERTEX
  5
1327
  8
241
 10
14.151
 20
9.3921299999999999
 30
0.0
 70
    32
  0
VERTEX
  5
1328
  8
241
 10
14.1173
 20
9.2588699999999982
 30
0.0
 70
    32
  0
VERTEX
  5
1329
  8
241
 10
14.0837
 20
9.1256099999999982
 30
0.0
 70
    32
  0
VERTEX
  5
132A
  8
241
 10
14.050000000000001
 20
8.9923399999999987
 30
0.0
 70
    32
  0
SEQEND
  5
132B
  8
241
  0
LINE
  5
D9D
  8
241
  6
CONTINUOUS
 10
14.050000000000001
 20
8.9923414200000007
 30
0.0
 11
14.050000000000001
 21
30.181374259999998
 31
0.0
  0
LINE
  5
D9E
  8
241
  6
CONTINUOUS
 10
9.9499999999999993
 20
8.9923414200000007
 30
0.0
 11
9.9499999999999993
 21
30.181374259999998
 31
0.0
  0
LINE
  5
D9F
  8
240
  6
CONTINUOUS
 10
-38.0
 20
20.347318619999999
 30
0.0
 11
-38.0
 21
0.0
 31
0.0
1001
GRPNAME
1000
PASTMD1D
  0
LINE
  5
DA0
  8
241
 10
-36.5
 20
21.213344020000001
 30
0.0
 11
-36.5
 21
0.0
 31
0.0
  0
LINE
  5
DA1
  8
241
 10
-2.2000000000000002
 20
22.07078641
 30
0.0
 11
-2.2000000000000002
 21
0.0
 31
0.0
  0
LINE
  5
DA2
  8
241
 10
0.0
 20
22.07078641
 30
0.0
 11
0.0
 21
0.0
 31
0.0
  0
LINE
  5
DA5
  8
240
  6
CONTINUOUS
 10
-2.2000000000000002
 20
-22.07078641
 30
0.0
 11
-36.5
 21
-21.213344020000001
 31
0.0
1001
GRPNAME
1000
PASTMD1E
  0
LINE
  5
DA6
  8
241
 10
-36.5
 20
-21.213344020000001
 30
0.0
 11
-36.5
 21
0.0
 31
0.0
  0
LINE
  5
DA7
  8
240
  6
CONTINUOUS
 10
-38.0
 20
-20.347318619999999
 30
0.0
 11
-38.0
 21
0.0
 31
0.0
1001
GRPNAME
1000
PASTMD1D
  0
LINE
  5
DA8
  8
240
  6
CONTINUOUS
 10
-36.5
 20
-21.213344020000001
 30
0.0
 11
-38.0
 21
-20.347318619999999
 31
0.0
1001
GRPNAME
1000
PASTMD16
  0
LINE
  5
DA9
  8
241
  6
HIDDEN2
 10
-31.800000000000001
 20
-3.5945
 30
0.0
 11
-31.800000000000001
 21
3.5945
 31
0.0
  0
POLYLINE
  5
132C
  8
241
 66
     1
 10
0.0
 20
0.0
 30
0.0
 70
     8
  0
VERTEX
  5
132D
  8
241
 10
-31.800000000000001
 20
3.5945
 30
0.0
 70
    32
  0
VERTEX
  5
132E
  8
241
 10
-31.7636
 20
3.5492900000000001
 30
0.0
 70
    32
  0
VERTEX
  5
132F
  8
241
 10
-31.7273
 20
3.5040699999999991
 30
0.0
 70
    32
  0
VERTEX
  5
1330
  8
241
 10
-31.690899999999999
 20
3.45886
 30
0.0
 70
    32
  0
VERTEX
  5
1331
  8
241
 10
-31.654599999999999
 20
3.41364
 30
0.0
 70
    32
  0
VERTEX
  5
1332
  8
241
 10
-31.618300000000001
 20
3.36843
 30
0.0
 70
    32
  0
VERTEX
  5
1333
  8
241
 10
-31.582100000000001
 20
3.3232199999999992
 30
0.0
 70
    32
  0
VERTEX
  5
1334
  8
241
 10
-31.545999999999999
 20
3.278
 30
0.0
 70
    32
  0
VERTEX
  5
1335
  8
241
 10
-31.509899999999998
 20
3.2327900000000001
 30
0.0
 70
    32
  0
VERTEX
  5
1336
  8
241
 10
-31.474
 20
3.1875800000000001
 30
0.0
 70
    32
  0
VERTEX
  5
1337
  8
241
 10
-31.438099999999999
 20
3.14236
 30
0.0
 70
    32
  0
VERTEX
  5
1338
  8
241
 10
-31.4024
 20
3.0971500000000001
 30
0.0
 70
    32
  0
VERTEX
  5
1339
  8
241
 10
-31.366800000000001
 20
3.05193
 30
0.0
 70
    32
  0
VERTEX
  5
133A
  8
241
 10
-31.331299999999999
 20
3.0067200000000001
 30
0.0
 70
    32
  0
VERTEX
  5
133B
  8
241
 10
-31.2959
 20
2.9615099999999992
 30
0.0
 70
    32
  0
VERTEX
  5
133C
  8
241
 10
-31.2608
 20
2.91629
 30
0.0
 70
    32
  0
VERTEX
  5
133D
  8
241
 10
-31.2258
 20
2.8710800000000001
 30
0.0
 70
    32
  0
VERTEX
  5
133E
  8
241
 10
-31.190999999999999
 20
2.82586
 30
0.0
 70
    32
  0
VERTEX
  5
133F
  8
241
 10
-31.156300000000002
 20
2.7806500000000001
 30
0.0
 70
    32
  0
VERTEX
  5
1340
  8
241
 10
-31.1219
 20
2.7354400000000001
 30
0.0
 70
    32
  0
VERTEX
  5
1341
  8
241
 10
-31.087700000000002
 20
2.6902200000000001
 30
0.0
 70
    32
  0
VERTEX
  5
1342
  8
241
 10
-31.053799999999999
 20
2.6450099999999992
 30
0.0
 70
    32
  0
VERTEX
  5
1343
  8
241
 10
-31.020099999999999
 20
2.5998000000000001
 30
0.0
 70
    32
  0
VERTEX
  5
1344
  8
241
 10
-30.986599999999999
 20
2.5545800000000001
 30
0.0
 70
    32
  0
VERTEX
  5
1345
  8
241
 10
-30.953399999999998
 20
2.5093700000000001
 30
0.0
 70
    32
  0
VERTEX
  5
1346
  8
241
 10
-30.920500000000001
 20
2.4641500000000001
 30
0.0
 70
    32
  0
VERTEX
  5
1347
  8
241
 10
-30.887799999999999
 20
2.4189400000000001
 30
0.0
 70
    32
  0
VERTEX
  5
1348
  8
241
 10
-30.855499999999999
 20
2.3737300000000001
 30
0.0
 70
    32
  0
VERTEX
  5
1349
  8
241
 10
-30.823499999999999
 20
2.3285099999999992
 30
0.0
 70
    32
  0
VERTEX
  5
134A
  8
241
 10
-30.791799999999999
 20
2.2833000000000001
 30
0.0
 70
    32
  0
VERTEX
  5
134B
  8
241
 10
-30.760400000000001
 20
2.2380800000000001
 30
0.0
 70
    32
  0
VERTEX
  5
134C
  8
241
 10
-30.729399999999998
 20
2.1928700000000001
 30
0.0
 70
    32
  0
VERTEX
  5
134D
  8
241
 10
-30.698699999999999
 20
2.1476599999999988
 30
0.0
 70
    32
  0
VERTEX
  5
134E
  8
241
 10
-30.668399999999998
 20
2.1024400000000001
 30
0.0
 70
    32
  0
VERTEX
  5
134F
  8
241
 10
-30.638500000000001
 20
2.0572300000000001
 30
0.0
 70
    32
  0
VERTEX
  5
1350
  8
241
 10
-30.609000000000002
 20
2.0120200000000001
 30
0.0
 70
    32
  0
VERTEX
  5
1351
  8
241
 10
-30.579799999999999
 20
1.9668000000000001
 30
0.0
 70
    32
  0
VERTEX
  5
1352
  8
241
 10
-30.551100000000002
 20
1.9215899999999999
 30
0.0
 70
    32
  0
VERTEX
  5
1353
  8
241
 10
-30.5228
 20
1.8763700000000001
 30
0.0
 70
    32
  0
VERTEX
  5
1354
  8
241
 10
-30.495000000000001
 20
1.831159999999999
 30
0.0
 70
    32
  0
VERTEX
  5
1355
  8
241
 10
-30.467600000000001
 20
1.785949999999999
 30
0.0
 70
    32
  0
VERTEX
  5
1356
  8
241
 10
-30.4407
 20
1.740729999999999
 30
0.0
 70
    32
  0
VERTEX
  5
1357
  8
241
 10
-30.414200000000001
 20
1.6955199999999999
 30
0.0
 70
    32
  0
VERTEX
  5
1358
  8
241
 10
-30.388200000000001
 20
1.6503099999999991
 30
0.0
 70
    32
  0
VERTEX
  5
1359
  8
241
 10
-30.3627
 20
1.605089999999999
 30
0.0
 70
    32
  0
VERTEX
  5
135A
  8
241
 10
-30.337700000000002
 20
1.559879999999999
 30
0.0
 70
    32
  0
VERTEX
  5
135B
  8
241
 10
-30.313300000000002
 20
1.5146599999999999
 30
0.0
 70
    32
  0
VERTEX
  5
135C
  8
241
 10
-30.289300000000001
 20
1.469449999999999
 30
0.0
 70
    32
  0
VERTEX
  5
135D
  8
241
 10
-30.265899999999998
 20
1.4242399999999991
 30
0.0
 70
    32
  0
VERTEX
  5
135E
  8
241
 10
-30.243099999999998
 20
1.3790199999999999
 30
0.0
 70
    32
  0
VERTEX
  5
135F
  8
241
 10
-30.220800000000001
 20
1.3338099999999991
 30
0.0
 70
    32
  0
VERTEX
  5
1360
  8
241
 10
-30.199100000000001
 20
1.288589999999999
 30
0.0
 70
    32
  0
VERTEX
  5
1361
  8
241
 10
-30.178000000000001
 20
1.243379999999999
 30
0.0
 70
    32
  0
VERTEX
  5
1362
  8
241
 10
-30.157499999999999
 20
1.19817
 30
0.0
 70
    32
  0
VERTEX
  5
1363
  8
241
 10
-30.137599999999999
 20
1.152949999999999
 30
0.0
 70
    32
  0
VERTEX
  5
1364
  8
241
 10
-30.118300000000001
 20
1.1077399999999991
 30
0.0
 70
    32
  0
VERTEX
  5
1365
  8
241
 10
-30.099699999999999
 20
1.0625299999999991
 30
0.0
 70
    32
  0
VERTEX
  5
1366
  8
241
 10
-30.081700000000001
 20
1.017309999999999
 30
0.0
 70
    32
  0
VERTEX
  5
1367
  8
241
 10
-30.064299999999999
 20
0.9720969999999999
 30
0.0
 70
    32
  0
VERTEX
  5
1368
  8
241
 10
-30.047599999999999
 20
0.926884
 30
0.0
 70
    32
  0
VERTEX
  5
1369
  8
241
 10
-30.031600000000001
 20
0.88167
 30
0.0
 70
    32
  0
VERTEX
  5
136A
  8
241
 10
-30.016300000000001
 20
0.8364559999999999
 30
0.0
 70
    32
  0
VERTEX
  5
136B
  8
241
 10
-30.0017
 20
0.791242
 30
0.0
 70
    32
  0
VERTEX
  5
136C
  8
241
 10
-29.9878
 20
0.746028
 30
0.0
 70
    32
  0
VERTEX
  5
136D
  8
241
 10
-29.974699999999999
 20
0.7008140000000001
 30
0.0
 70
    32
  0
VERTEX
  5
136E
  8
241
 10
-29.962199999999999
 20
0.655601
 30
0.0
 70
    32
  0
VERTEX
  5
136F
  8
241
 10
-29.950500000000002
 20
0.6103870000000001
 30
0.0
 70
    32
  0
VERTEX
  5
1370
  8
241
 10
-29.939599999999999
 20
0.5651729999999999
 30
0.0
 70
    32
  0
VERTEX
  5
1371
  8
241
 10
-29.929500000000001
 20
0.5199590000000001
 30
0.0
 70
    32
  0
VERTEX
  5
1372
  8
241
 10
-29.920100000000001
 20
0.474745
 30
0.0
 70
    32
  0
VERTEX
  5
1373
  8
241
 10
-29.9115
 20
0.4295310000000001
 30
0.0
 70
    32
  0
VERTEX
  5
1374
  8
241
 10
-29.903700000000001
 20
0.384318
 30
0.0
 70
    32
  0
VERTEX
  5
1375
  8
241
 10
-29.896799999999999
 20
0.339104
 30
0.0
 70
    32
  0
VERTEX
  5
1376
  8
241
 10
-29.890699999999999
 20
0.29389
 30
0.0
 70
    32
  0
VERTEX
  5
1377
  8
241
 10
-29.885400000000001
 20
0.248676
 30
0.0
 70
    32
  0
VERTEX
  5
1378
  8
241
 10
-29.8809
 20
0.203462
 30
0.0
 70
    32
  0
VERTEX
  5
1379
  8
241
 10
-29.877400000000002
 20
0.158248
 30
0.0
 70
    32
  0
VERTEX
  5
137A
  8
241
 10
-29.874700000000001
 20
0.113035
 30
0.0
 70
    32
  0
VERTEX
  5
137B
  8
241
 10
-29.872900000000001
 20
0.0678208
 30
0.0
 70
    32
  0
VERTEX
  5
137C
  8
241
 10
-29.872
 20
0.0226069
 30
0.0
 70
    32
  0
VERTEX
  5
137D
  8
241
 10
-29.872
 20
-0.0226069
 30
0.0
 70
    32
  0
VERTEX
  5
137E
  8
241
 10
-29.872900000000001
 20
-0.0678208
 30
0.0
 70
    32
  0
VERTEX
  5
137F
  8
241
 10
-29.874700000000001
 20
-0.113035
 30
0.0
 70
    32
  0
VERTEX
  5
1380
  8
241
 10
-29.877400000000002
 20
-0.158248
 30
0.0
 70
    32
  0
VERTEX
  5
1381
  8
241
 10
-29.8809
 20
-0.203462
 30
0.0
 70
    32
  0
VERTEX
  5
1382
  8
241
 10
-29.885400000000001
 20
-0.248676
 30
0.0
 70
    32
  0
VERTEX
  5
1383
  8
241
 10
-29.890699999999999
 20
-0.29389
 30
0.0
 70
    32
  0
VERTEX
  5
1384
  8
241
 10
-29.896799999999999
 20
-0.339104
 30
0.0
 70
    32
  0
VERTEX
  5
1385
  8
241
 10
-29.903700000000001
 20
-0.384318
 30
0.0
 70
    32
  0
VERTEX
  5
1386
  8
241
 10
-29.9115
 20
-0.4295310000000001
 30
0.0
 70
    32
  0
VERTEX
  5
1387
  8
241
 10
-29.920100000000001
 20
-0.474745
 30
0.0
 70
    32
  0
VERTEX
  5
1388
  8
241
 10
-29.929500000000001
 20
-0.5199590000000001
 30
0.0
 70
    32
  0
VERTEX
  5
1389
  8
241
 10
-29.939599999999999
 20
-0.5651729999999999
 30
0.0
 70
    32
  0
VERTEX
  5
138A
  8
241
 10
-29.950500000000002
 20
-0.6103870000000001
 30
0.0
 70
    32
  0
VERTEX
  5
138B
  8
241
 10
-29.962199999999999
 20
-0.655601
 30
0.0
 70
    32
  0
VERTEX
  5
138C
  8
241
 10
-29.974699999999999
 20
-0.7008140000000001
 30
0.0
 70
    32
  0
VERTEX
  5
138D
  8
241
 10
-29.9878
 20
-0.746028
 30
0.0
 70
    32
  0
VERTEX
  5
138E
  8
241
 10
-30.0017
 20
-0.791242
 30
0.0
 70
    32
  0
VERTEX
  5
138F
  8
241
 10
-30.016300000000001
 20
-0.8364559999999999
 30
0.0
 70
    32
  0
VERTEX
  5
1390
  8
241
 10
-30.031600000000001
 20
-0.88167
 30
0.0
 70
    32
  0
VERTEX
  5
1391
  8
241
 10
-30.047599999999999
 20
-0.926884
 30
0.0
 70
    32
  0
VERTEX
  5
1392
  8
241
 10
-30.064299999999999
 20
-0.9720969999999999
 30
0.0
 70
    32
  0
VERTEX
  5
1393
  8
241
 10
-30.081700000000001
 20
-1.017309999999999
 30
0.0
 70
    32
  0
VERTEX
  5
1394
  8
241
 10
-30.099699999999999
 20
-1.0625299999999991
 30
0.0
 70
    32
  0
VERTEX
  5
1395
  8
241
 10
-30.118300000000001
 20
-1.1077399999999991
 30
0.0
 70
    32
  0
VERTEX
  5
1396
  8
241
 10
-30.137599999999999
 20
-1.152949999999999
 30
0.0
 70
    32
  0
VERTEX
  5
1397
  8
241
 10
-30.157499999999999
 20
-1.19817
 30
0.0
 70
    32
  0
VERTEX
  5
1398
  8
241
 10
-30.178000000000001
 20
-1.243379999999999
 30
0.0
 70
    32
  0
VERTEX
  5
1399
  8
241
 10
-30.199100000000001
 20
-1.288589999999999
 30
0.0
 70
    32
  0
VERTEX
  5
139A
  8
241
 10
-30.220800000000001
 20
-1.3338099999999991
 30
0.0
 70
    32
  0
VERTEX
  5
139B
  8
241
 10
-30.243099999999998
 20
-1.3790199999999999
 30
0.0
 70
    32
  0
VERTEX
  5
139C
  8
241
 10
-30.265899999999998
 20
-1.4242399999999991
 30
0.0
 70
    32
  0
VERTEX
  5
139D
  8
241
 10
-30.289300000000001
 20
-1.469449999999999
 30
0.0
 70
    32
  0
VERTEX
  5
139E
  8
241
 10
-30.313300000000002
 20
-1.5146599999999999
 30
0.0
 70
    32
  0
VERTEX
  5
139F
  8
241
 10
-30.337700000000002
 20
-1.559879999999999
 30
0.0
 70
    32
  0
VERTEX
  5
13A0
  8
241
 10
-30.3627
 20
-1.605089999999999
 30
0.0
 70
    32
  0
VERTEX
  5
13A1
  8
241
 10
-30.388200000000001
 20
-1.6503099999999991
 30
0.0
 70
    32
  0
VERTEX
  5
13A2
  8
241
 10
-30.414200000000001
 20
-1.6955199999999999
 30
0.0
 70
    32
  0
VERTEX
  5
13A3
  8
241
 10
-30.4407
 20
-1.740729999999999
 30
0.0
 70
    32
  0
VERTEX
  5
13A4
  8
241
 10
-30.467600000000001
 20
-1.785949999999999
 30
0.0
 70
    32
  0
VERTEX
  5
13A5
  8
241
 10
-30.495000000000001
 20
-1.831159999999999
 30
0.0
 70
    32
  0
VERTEX
  5
13A6
  8
241
 10
-30.5228
 20
-1.8763700000000001
 30
0.0
 70
    32
  0
VERTEX
  5
13A7
  8
241
 10
-30.551100000000002
 20
-1.9215899999999999
 30
0.0
 70
    32
  0
VERTEX
  5
13A8
  8
241
 10
-30.579799999999999
 20
-1.9668000000000001
 30
0.0
 70
    32
  0
VERTEX
  5
13A9
  8
241
 10
-30.609000000000002
 20
-2.0120200000000001
 30
0.0
 70
    32
  0
VERTEX
  5
13AA
  8
241
 10
-30.638500000000001
 20
-2.0572300000000001
 30
0.0
 70
    32
  0
VERTEX
  5
13AB
  8
241
 10
-30.668399999999998
 20
-2.1024400000000001
 30
0.0
 70
    32
  0
VERTEX
  5
13AC
  8
241
 10
-30.698699999999999
 20
-2.1476599999999988
 30
0.0
 70
    32
  0
VERTEX
  5
13AD
  8
241
 10
-30.729399999999998
 20
-2.1928700000000001
 30
0.0
 70
    32
  0
VERTEX
  5
13AE
  8
241
 10
-30.760400000000001
 20
-2.2380800000000001
 30
0.0
 70
    32
  0
VERTEX
  5
13AF
  8
241
 10
-30.791799999999999
 20
-2.2833000000000001
 30
0.0
 70
    32
  0
VERTEX
  5
13B0
  8
241
 10
-30.823499999999999
 20
-2.3285099999999992
 30
0.0
 70
    32
  0
VERTEX
  5
13B1
  8
241
 10
-30.855499999999999
 20
-2.3737300000000001
 30
0.0
 70
    32
  0
VERTEX
  5
13B2
  8
241
 10
-30.887799999999999
 20
-2.4189400000000001
 30
0.0
 70
    32
  0
VERTEX
  5
13B3
  8
241
 10
-30.920500000000001
 20
-2.4641500000000001
 30
0.0
 70
    32
  0
VERTEX
  5
13B4
  8
241
 10
-30.953399999999998
 20
-2.5093700000000001
 30
0.0
 70
    32
  0
VERTEX
  5
13B5
  8
241
 10
-30.986599999999999
 20
-2.5545800000000001
 30
0.0
 70
    32
  0
VERTEX
  5
13B6
  8
241
 10
-31.020099999999999
 20
-2.5998000000000001
 30
0.0
 70
    32
  0
VERTEX
  5
13B7
  8
241
 10
-31.053799999999999
 20
-2.6450099999999992
 30
0.0
 70
    32
  0
VERTEX
  5
13B8
  8
241
 10
-31.087700000000002
 20
-2.6902200000000001
 30
0.0
 70
    32
  0
VERTEX
  5
13B9
  8
241
 10
-31.1219
 20
-2.7354400000000001
 30
0.0
 70
    32
  0
VERTEX
  5
13BA
  8
241
 10
-31.156300000000002
 20
-2.7806500000000001
 30
0.0
 70
    32
  0
VERTEX
  5
13BB
  8
241
 10
-31.190999999999999
 20
-2.82586
 30
0.0
 70
    32
  0
VERTEX
  5
13BC
  8
241
 10
-31.2258
 20
-2.8710800000000001
 30
0.0
 70
    32
  0
VERTEX
  5
13BD
  8
241
 10
-31.2608
 20
-2.91629
 30
0.0
 70
    32
  0
VERTEX
  5
13BE
  8
241
 10
-31.2959
 20
-2.9615099999999992
 30
0.0
 70
    32
  0
VERTEX
  5
13BF
  8
241
 10
-31.331299999999999
 20
-3.0067200000000001
 30
0.0
 70
    32
  0
VERTEX
  5
13C0
  8
241
 10
-31.366800000000001
 20
-3.05193
 30
0.0
 70
    32
  0
VERTEX
  5
13C1
  8
241
 10
-31.4024
 20
-3.0971500000000001
 30
0.0
 70
    32
  0
VERTEX
  5
13C2
  8
241
 10
-31.438099999999999
 20
-3.14236
 30
0.0
 70
    32
  0
VERTEX
  5
13C3
  8
241
 10
-31.474
 20
-3.1875800000000001
 30
0.0
 70
    32
  0
VERTEX
  5
13C4
  8
241
 10
-31.509899999999998
 20
-3.2327900000000001
 30
0.0
 70
    32
  0
VERTEX
  5
13C5
  8
241
 10
-31.545999999999999
 20
-3.278
 30
0.0
 70
    32
  0
VERTEX
  5
13C6
  8
241
 10
-31.582100000000001
 20
-3.3232199999999992
 30
0.0
 70
    32
  0
VERTEX
  5
13C7
  8
241
 10
-31.618300000000001
 20
-3.36843
 30
0.0
 70
    32
  0
VERTEX
  5
13C8
  8
241
 10
-31.654599999999999
 20
-3.41364
 30
0.0
 70
    32
  0
VERTEX
  5
13C9
  8
241
 10
-31.690899999999999
 20
-3.45886
 30
0.0
 70
    32
  0
VERTEX
  5
13CA
  8
241
 10
-31.7273
 20
-3.5040699999999991
 30
0.0
 70
    32
  0
VERTEX
  5
13CB
  8
241
 10
-31.7636
 20
-3.5492900000000001
 30
0.0
 70
    32
  0
VERTEX
  5
13CC
  8
241
 10
-31.800000000000001
 20
-3.5945
 30
0.0
 70
    32
  0
SEQEND
  5
13CD
  8
241
  0
LINE
  5
DAB
  8
241
  6
HIDDEN2
 10
-36.5
 20
-3.5945
 30
0.0
 11
-31.800000000000001
 21
-3.5945
 31
0.0
  0
LINE
  5
DAC
  8
241
  6
HIDDEN2
 10
-38.0
 20
-2.728474599999998
 30
0.0
 11
-36.5
 21
-3.5945
 31
0.0
  0
LINE
  5
DAD
  8
241
  6
HIDDEN2
 10
-36.5
 20
3.5945
 30
0.0
 11
-31.800000000000001
 21
3.5945
 31
0.0
  0
LINE
  5
DAE
  8
241
  6
HIDDEN2
 10
-38.0
 20
2.728474599999998
 30
0.0
 11
-36.5
 21
3.5945
 31
0.0
  0
LINE
  5
DAF
  8
240
  6
CONTINUOUS
 10
0.0
 20
-31.4925
 30
0.0
 11
22.0037498226156
 21
-31.4925
 31
0.0
  0
LINE
  5
DB0
  8
241
  6
CONTINUOUS
 10
9.9499999999999993
 20
8.9923414200000007
 30
0.0
 11
14.050000000000001
 21
8.9923414200000007
 31
0.0
  0
CIRCLE
  5
DB1
  8
241
 10
11.999999880000001
 20
0.0
 30
0.0
 40
5.0
  0
LINE
  5
DB2
  8
241
  6
CONTINUOUS
 10
9.9499999999999993
 20
-8.9923414200000007
 30
0.0
 11
14.050000000000001
 21
-8.9923414200000007
 31
0.0
  0
LINE
  5
DB3
  8
241
  6
CONTINUOUS
 10
9.9499999999999993
 20
-30.181374259999998
 30
0.0
 11
14.050000000000001
 21
-30.181374259999998
 31
0.0
  0
LINE
  5
DB4
  8
241
  6
CONTINUOUS
 10
9.9499999999999993
 20
-8.9923414200000007
 30
0.0
 11
9.9499999999999993
 21
-30.181374259999998
 31
0.0
  0
POLYLINE
  5
13CE
  8
241
 66
     1
 10
0.0
 20
0.0
 30
0.0
 70
     8
  0
VERTEX
  5
13CF
  8
241
 10
9.9499999999999993
 20
-8.9923399999999987
 30
0.0
 70
    32
  0
VERTEX
  5
13D0
  8
241
 10
9.9163199999999971
 20
-9.1256099999999982
 30
0.0
 70
    32
  0
VERTEX
  5
13D1
  8
241
 10
9.8826499999999982
 20
-9.2588699999999982
 30
0.0
 70
    32
  0
VERTEX
  5
13D2
  8
241
 10
9.8490099999999998
 20
-9.3921299999999999
 30
0.0
 70
    32
  0
VERTEX
  5
13D3
  8
241
 10
9.8153899999999972
 20
-9.5253999999999994
 30
0.0
 70
    32
  0
VERTEX
  5
13D4
  8
241
 10
9.7818199999999997
 20
-9.6586600000000011
 30
0.0
 70
    32
  0
VERTEX
  5
13D5
  8
241
 10
9.7483000000000004
 20
-9.7919300000000007
 30
0.0
 70
    32
  0
VERTEX
  5
13D6
  8
241
 10
9.7148500000000002
 20
-9.9251899999999988
 30
0.0
 70
    32
  0
VERTEX
  5
13D7
  8
241
 10
9.6814699999999991
 20
-10.0585
 30
0.0
 70
    32
  0
VERTEX
  5
13D8
  8
241
 10
9.6481700000000004
 20
-10.191700000000001
 30
0.0
 70
    32
  0
VERTEX
  5
13D9
  8
241
 10
9.6149699999999996
 20
-10.324999999999999
 30
0.0
 70
    32
  0
VERTEX
  5
13DA
  8
241
 10
9.5818799999999982
 20
-10.4582
 30
0.0
 70
    32
  0
VERTEX
  5
13DB
  8
241
 10
9.5489100000000011
 20
-10.5915
 30
0.0
 70
    32
  0
VERTEX
  5
13DC
  8
241
 10
9.5160600000000013
 20
-10.7248
 30
0.0
 70
    32
  0
VERTEX
  5
13DD
  8
241
 10
9.4833499999999997
 20
-10.858000000000001
 30
0.0
 70
    32
  0
VERTEX
  5
13DE
  8
241
 10
9.4507899999999996
 20
-10.991300000000001
 30
0.0
 70
    32
  0
VERTEX
  5
13DF
  8
241
 10
9.4183899999999987
 20
-11.124599999999999
 30
0.0
 70
    32
  0
VERTEX
  5
13E0
  8
241
 10
9.3861600000000003
 20
-11.2578
 30
0.0
 70
    32
  0
VERTEX
  5
13E1
  8
241
 10
9.3541199999999982
 20
-11.3911
 30
0.0
 70
    32
  0
VERTEX
  5
13E2
  8
241
 10
9.3222599999999982
 20
-11.5244
 30
0.0
 70
    32
  0
VERTEX
  5
13E3
  8
241
 10
9.2906099999999991
 20
-11.6576
 30
0.0
 70
    32
  0
VERTEX
  5
13E4
  8
241
 10
9.2591699999999992
 20
-11.790900000000001
 30
0.0
 70
    32
  0
VERTEX
  5
13E5
  8
241
 10
9.2279499999999999
 20
-11.924200000000001
 30
0.0
 70
    32
  0
VERTEX
  5
13E6
  8
241
 10
9.1969700000000003
 20
-12.057399999999999
 30
0.0
 70
    32
  0
VERTEX
  5
13E7
  8
241
 10
9.1662300000000005
 20
-12.1907
 30
0.0
 70
    32
  0
VERTEX
  5
13E8
  8
241
 10
9.1357499999999998
 20
-12.324
 30
0.0
 70
    32
  0
VERTEX
  5
13E9
  8
241
 10
9.1055399999999995
 20
-12.4572
 30
0.0
 70
    32
  0
VERTEX
  5
13EA
  8
241
 10
9.0755999999999997
 20
-12.5905
 30
0.0
 70
    32
  0
VERTEX
  5
13EB
  8
241
 10
9.0459499999999995
 20
-12.723699999999999
 30
0.0
 70
    32
  0
VERTEX
  5
13EC
  8
241
 10
9.0166000000000004
 20
-12.856999999999999
 30
0.0
 70
    32
  0
VERTEX
  5
13ED
  8
241
 10
8.9875600000000002
 20
-12.9903
 30
0.0
 70
    32
  0
VERTEX
  5
13EE
  8
241
 10
8.9588300000000007
 20
-13.1235
 30
0.0
 70
    32
  0
VERTEX
  5
13EF
  8
241
 10
8.930439999999999
 20
-13.2568
 30
0.0
 70
    32
  0
VERTEX
  5
13F0
  8
241
 10
8.9023899999999987
 20
-13.3901
 30
0.0
 70
    32
  0
VERTEX
  5
13F1
  8
241
 10
8.8746899999999993
 20
-13.523300000000001
 30
0.0
 70
    32
  0
VERTEX
  5
13F2
  8
241
 10
8.8473500000000005
 20
-13.656599999999999
 30
0.0
 70
    32
  0
VERTEX
  5
13F3
  8
241
 10
8.8203899999999997
 20
-13.789899999999999
 30
0.0
 70
    32
  0
VERTEX
  5
13F4
  8
241
 10
8.7938100000000006
 20
-13.9231
 30
0.0
 70
    32
  0
VERTEX
  5
13F5
  8
241
 10
8.7676199999999991
 20
-14.0564
 30
0.0
 70
    32
  0
VERTEX
  5
13F6
  8
241
 10
8.7418399999999998
 20
-14.1897
 30
0.0
 70
    32
  0
VERTEX
  5
13F7
  8
241
 10
8.7164800000000007
 20
-14.322900000000001
 30
0.0
 70
    32
  0
VERTEX
  5
13F8
  8
241
 10
8.6915399999999998
 20
-14.456200000000001
 30
0.0
 70
    32
  0
VERTEX
  5
13F9
  8
241
 10
8.6670400000000001
 20
-14.589399999999999
 30
0.0
 70
    32
  0
VERTEX
  5
13FA
  8
241
 10
8.6429799999999997
 20
-14.7227
 30
0.0
 70
    32
  0
VERTEX
  5
13FB
  8
241
 10
8.6193899999999992
 20
-14.856
 30
0.0
 70
    32
  0
VERTEX
  5
13FC
  8
241
 10
8.5962599999999991
 20
-14.9892
 30
0.0
 70
    32
  0
VERTEX
  5
13FD
  8
241
 10
8.5736100000000004
 20
-15.1225
 30
0.0
 70
    32
  0
VERTEX
  5
13FE
  8
241
 10
8.5514500000000009
 20
-15.255800000000001
 30
0.0
 70
    32
  0
VERTEX
  5
13FF
  8
241
 10
8.5297999999999998
 20
-15.388999999999999
 30
0.0
 70
    32
  0
VERTEX
  5
1400
  8
241
 10
8.5086499999999994
 20
-15.5223
 30
0.0
 70
    32
  0
VERTEX
  5
1401
  8
241
 10
8.4880300000000002
 20
-15.6556
 30
0.0
 70
    32
  0
VERTEX
  5
1402
  8
241
 10
8.4679399999999987
 20
-15.7888
 30
0.0
 70
    32
  0
VERTEX
  5
1403
  8
241
 10
8.4483899999999998
 20
-15.9221
 30
0.0
 70
    32
  0
VERTEX
  5
1404
  8
241
 10
8.4293999999999993
 20
-16.055399999999999
 30
0.0
 70
    32
  0
VERTEX
  5
1405
  8
241
 10
8.4109800000000003
 20
-16.188600000000001
 30
0.0
 70
    32
  0
VERTEX
  5
1406
  8
241
 10
8.3931199999999997
 20
-16.321899999999999
 30
0.0
 70
    32
  0
VERTEX
  5
1407
  8
241
 10
8.3758600000000012
 20
-16.455100000000002
 30
0.0
 70
    32
  0
VERTEX
  5
1408
  8
241
 10
8.3591899999999981
 20
-16.5884
 30
0.0
 70
    32
  0
VERTEX
  5
1409
  8
241
 10
8.3431300000000004
 20
-16.721699999999998
 30
0.0
 70
    32
  0
VERTEX
  5
140A
  8
241
 10
8.3276899999999987
 20
-16.854900000000001
 30
0.0
 70
    32
  0
VERTEX
  5
140B
  8
241
 10
8.3128700000000002
 20
-16.988199999999999
 30
0.0
 70
    32
  0
VERTEX
  5
140C
  8
241
 10
8.2987000000000002
 20
-17.121500000000001
 30
0.0
 70
    32
  0
VERTEX
  5
140D
  8
241
 10
8.285169999999999
 20
-17.2547
 30
0.0
 70
    32
  0
VERTEX
  5
140E
  8
241
 10
8.2723099999999992
 20
-17.388000000000002
 30
0.0
 70
    32
  0
VERTEX
  5
140F
  8
241
 10
8.2601200000000006
 20
-17.5213
 30
0.0
 70
    32
  0
VERTEX
  5
1410
  8
241
 10
8.2486100000000011
 20
-17.654499999999999
 30
0.0
 70
    32
  0
VERTEX
  5
1411
  8
241
 10
8.2377899999999986
 20
-17.787800000000001
 30
0.0
 70
    32
  0
VERTEX
  5
1412
  8
241
 10
8.2276799999999994
 20
-17.921099999999999
 30
0.0
 70
    32
  0
VERTEX
  5
1413
  8
241
 10
8.21828
 20
-18.054300000000001
 30
0.0
 70
    32
  0
VERTEX
  5
1414
  8
241
 10
8.2096
 20
-18.1876
 30
0.0
 70
    32
  0
VERTEX
  5
1415
  8
241
 10
8.2016600000000004
 20
-18.320799999999998
 30
0.0
 70
    32
  0
VERTEX
  5
1416
  8
241
 10
8.194469999999999
 20
-18.4541
 30
0.0
 70
    32
  0
VERTEX
  5
1417
  8
241
 10
8.1880299999999995
 20
-18.587399999999999
 30
0.0
 70
    32
  0
VERTEX
  5
1418
  8
241
 10
8.1823599999999992
 20
-18.720600000000001
 30
0.0
 70
    32
  0
VERTEX
  5
1419
  8
241
 10
8.1774699999999996
 20
-18.853899999999999
 30
0.0
 70
    32
  0
VERTEX
  5
141A
  8
241
 10
8.1733700000000002
 20
-18.987200000000001
 30
0.0
 70
    32
  0
VERTEX
  5
141B
  8
241
 10
8.1700600000000012
 20
-19.1204
 30
0.0
 70
    32
  0
VERTEX
  5
141C
  8
241
 10
8.1675699999999996
 20
-19.253699999999998
 30
0.0
 70
    32
  0
VERTEX
  5
141D
  8
241
 10
8.1659000000000006
 20
-19.387
 30
0.0
 70
    32
  0
VERTEX
  5
141E
  8
241
 10
8.1650600000000004
 20
-19.520199999999999
 30
0.0
 70
    32
  0
VERTEX
  5
141F
  8
241
 10
8.1650600000000004
 20
-19.653500000000001
 30
0.0
 70
    32
  0
VERTEX
  5
1420
  8
241
 10
8.1659000000000006
 20
-19.786799999999999
 30
0.0
 70
    32
  0
VERTEX
  5
1421
  8
241
 10
8.1675699999999996
 20
-19.920000000000002
 30
0.0
 70
    32
  0
VERTEX
  5
1422
  8
241
 10
8.1700600000000012
 20
-20.0533
 30
0.0
 70
    32
  0
VERTEX
  5
1423
  8
241
 10
8.1733700000000002
 20
-20.186499999999999
 30
0.0
 70
    32
  0
VERTEX
  5
1424
  8
241
 10
8.1774699999999996
 20
-20.319800000000001
 30
0.0
 70
    32
  0
VERTEX
  5
1425
  8
241
 10
8.1823599999999992
 20
-20.453099999999999
 30
0.0
 70
    32
  0
VERTEX
  5
1426
  8
241
 10
8.1880299999999995
 20
-20.586300000000001
 30
0.0
 70
    32
  0
VERTEX
  5
1427
  8
241
 10
8.194469999999999
 20
-20.7196
 30
0.0
 70
    32
  0
VERTEX
  5
1428
  8
241
 10
8.2016600000000004
 20
-20.852900000000002
 30
0.0
 70
    32
  0
VERTEX
  5
1429
  8
241
 10
8.2096
 20
-20.9861
 30
0.0
 70
    32
  0
VERTEX
  5
142A
  8
241
 10
8.21828
 20
-21.119399999999999
 30
0.0
 70
    32
  0
VERTEX
  5
142B
  8
241
 10
8.2276799999999994
 20
-21.252700000000001
 30
0.0
 70
    32
  0
VERTEX
  5
142C
  8
241
 10
8.2377899999999986
 20
-21.385899999999999
 30
0.0
 70
    32
  0
VERTEX
  5
142D
  8
241
 10
8.2486100000000011
 20
-21.519200000000001
 30
0.0
 70
    32
  0
VERTEX
  5
142E
  8
241
 10
8.2601200000000006
 20
-21.6525
 30
0.0
 70
    32
  0
VERTEX
  5
142F
  8
241
 10
8.2723099999999992
 20
-21.785699999999999
 30
0.0
 70
    32
  0
VERTEX
  5
1430
  8
241
 10
8.285169999999999
 20
-21.919
 30
0.0
 70
    32
  0
VERTEX
  5
1431
  8
241
 10
8.2987000000000002
 20
-22.052199999999999
 30
0.0
 70
    32
  0
VERTEX
  5
1432
  8
241
 10
8.3128700000000002
 20
-22.185500000000001
 30
0.0
 70
    32
  0
VERTEX
  5
1433
  8
241
 10
8.3276899999999987
 20
-22.3188
 30
0.0
 70
    32
  0
VERTEX
  5
1434
  8
241
 10
8.3431300000000004
 20
-22.452000000000002
 30
0.0
 70
    32
  0
VERTEX
  5
1435
  8
241
 10
8.3591899999999981
 20
-22.5853
 30
0.0
 70
    32
  0
VERTEX
  5
1436
  8
241
 10
8.3758600000000012
 20
-22.718599999999999
 30
0.0
 70
    32
  0
VERTEX
  5
1437
  8
241
 10
8.3931199999999997
 20
-22.851800000000001
 30
0.0
 70
    32
  0
VERTEX
  5
1438
  8
241
 10
8.4109800000000003
 20
-22.985099999999999
 30
0.0
 70
    32
  0
VERTEX
  5
1439
  8
241
 10
8.4293999999999993
 20
-23.118400000000001
 30
0.0
 70
    32
  0
VERTEX
  5
143A
  8
241
 10
8.4483899999999998
 20
-23.2516
 30
0.0
 70
    32
  0
VERTEX
  5
143B
  8
241
 10
8.4679399999999987
 20
-23.384899999999998
 30
0.0
 70
    32
  0
VERTEX
  5
143C
  8
241
 10
8.4880300000000002
 20
-23.5182
 30
0.0
 70
    32
  0
VERTEX
  5
143D
  8
241
 10
8.5086499999999994
 20
-23.651399999999999
 30
0.0
 70
    32
  0
VERTEX
  5
143E
  8
241
 10
8.5297999999999998
 20
-23.784700000000001
 30
0.0
 70
    32
  0
VERTEX
  5
143F
  8
241
 10
8.5514500000000009
 20
-23.917899999999999
 30
0.0
 70
    32
  0
VERTEX
  5
1440
  8
241
 10
8.5736100000000004
 20
-24.051200000000001
 30
0.0
 70
    32
  0
VERTEX
  5
1441
  8
241
 10
8.5962599999999991
 20
-24.1845
 30
0.0
 70
    32
  0
VERTEX
  5
1442
  8
241
 10
8.6193899999999992
 20
-24.317699999999999
 30
0.0
 70
    32
  0
VERTEX
  5
1443
  8
241
 10
8.6429799999999997
 20
-24.451000000000001
 30
0.0
 70
    32
  0
VERTEX
  5
1444
  8
241
 10
8.6670400000000001
 20
-24.584299999999999
 30
0.0
 70
    32
  0
VERTEX
  5
1445
  8
241
 10
8.6915399999999998
 20
-24.717500000000001
 30
0.0
 70
    32
  0
VERTEX
  5
1446
  8
241
 10
8.7164800000000007
 20
-24.8508
 30
0.0
 70
    32
  0
VERTEX
  5
1447
  8
241
 10
8.7418399999999998
 20
-24.984100000000002
 30
0.0
 70
    32
  0
VERTEX
  5
1448
  8
241
 10
8.7676199999999991
 20
-25.1173
 30
0.0
 70
    32
  0
VERTEX
  5
1449
  8
241
 10
8.7938100000000006
 20
-25.250599999999999
 30
0.0
 70
    32
  0
VERTEX
  5
144A
  8
241
 10
8.8203899999999997
 20
-25.383900000000001
 30
0.0
 70
    32
  0
VERTEX
  5
144B
  8
241
 10
8.8473500000000005
 20
-25.517099999999999
 30
0.0
 70
    32
  0
VERTEX
  5
144C
  8
241
 10
8.8746899999999993
 20
-25.650400000000001
 30
0.0
 70
    32
  0
VERTEX
  5
144D
  8
241
 10
8.9023899999999987
 20
-25.7837
 30
0.0
 70
    32
  0
VERTEX
  5
144E
  8
241
 10
8.930439999999999
 20
-25.916899999999998
 30
0.0
 70
    32
  0
VERTEX
  5
144F
  8
241
 10
8.9588300000000007
 20
-26.0502
 30
0.0
 70
    32
  0
VERTEX
  5
1450
  8
241
 10
8.9875600000000002
 20
-26.183399999999999
 30
0.0
 70
    32
  0
VERTEX
  5
1451
  8
241
 10
9.0166000000000004
 20
-26.316700000000001
 30
0.0
 70
    32
  0
VERTEX
  5
1452
  8
241
 10
9.0459499999999995
 20
-26.449999999999999
 30
0.0
 70
    32
  0
VERTEX
  5
1453
  8
241
 10
9.0755999999999997
 20
-26.583200000000001
 30
0.0
 70
    32
  0
VERTEX
  5
1454
  8
241
 10
9.1055399999999995
 20
-26.7165
 30
0.0
 70
    32
  0
VERTEX
  5
1455
  8
241
 10
9.1357499999999998
 20
-26.849799999999998
 30
0.0
 70
    32
  0
VERTEX
  5
1456
  8
241
 10
9.1662300000000005
 20
-26.983000000000001
 30
0.0
 70
    32
  0
VERTEX
  5
1457
  8
241
 10
9.1969700000000003
 20
-27.116299999999999
 30
0.0
 70
    32
  0
VERTEX
  5
1458
  8
241
 10
9.2279499999999999
 20
-27.249600000000001
 30
0.0
 70
    32
  0
VERTEX
  5
1459
  8
241
 10
9.2591699999999992
 20
-27.3828
 30
0.0
 70
    32
  0
VERTEX
  5
145A
  8
241
 10
9.2906099999999991
 20
-27.516100000000002
 30
0.0
 70
    32
  0
VERTEX
  5
145B
  8
241
 10
9.3222599999999982
 20
-27.6494
 30
0.0
 70
    32
  0
VERTEX
  5
145C
  8
241
 10
9.3541199999999982
 20
-27.782599999999999
 30
0.0
 70
    32
  0
VERTEX
  5
145D
  8
241
 10
9.3861600000000003
 20
-27.915900000000001
 30
0.0
 70
    32
  0
VERTEX
  5
145E
  8
241
 10
9.4183899999999987
 20
-28.049099999999999
 30
0.0
 70
    32
  0
VERTEX
  5
145F
  8
241
 10
9.4507899999999996
 20
-28.182400000000001
 30
0.0
 70
    32
  0
VERTEX
  5
1460
  8
241
 10
9.4833499999999997
 20
-28.3157
 30
0.0
 70
    32
  0
VERTEX
  5
1461
  8
241
 10
9.5160600000000013
 20
-28.448899999999998
 30
0.0
 70
    32
  0
VERTEX
  5
1462
  8
241
 10
9.5489100000000011
 20
-28.5822
 30
0.0
 70
    32
  0
VERTEX
  5
1463
  8
241
 10
9.5818799999999982
 20
-28.715499999999999
 30
0.0
 70
    32
  0
VERTEX
  5
1464
  8
241
 10
9.6149699999999996
 20
-28.848700000000001
 30
0.0
 70
    32
  0
VERTEX
  5
1465
  8
241
 10
9.6481700000000004
 20
-28.981999999999999
 30
0.0
 70
    32
  0
VERTEX
  5
1466
  8
241
 10
9.6814699999999991
 20
-29.115300000000001
 30
0.0
 70
    32
  0
VERTEX
  5
1467
  8
241
 10
9.7148500000000002
 20
-29.2485
 30
0.0
 70
    32
  0
VERTEX
  5
1468
  8
241
 10
9.7483000000000004
 20
-29.381799999999998
 30
0.0
 70
    32
  0
VERTEX
  5
1469
  8
241
 10
9.7818199999999997
 20
-29.5151
 30
0.0
 70
    32
  0
VERTEX
  5
146A
  8
241
 10
9.8153899999999972
 20
-29.648299999999999
 30
0.0
 70
    32
  0
VERTEX
  5
146B
  8
241
 10
9.8490099999999998
 20
-29.781600000000001
 30
0.0
 70
    32
  0
VERTEX
  5
146C
  8
241
 10
9.8826499999999982
 20
-29.9148
 30
0.0
 70
    32
  0
VERTEX
  5
146D
  8
241
 10
9.9163199999999971
 20
-30.048100000000002
 30
0.0
 70
    32
  0
VERTEX
  5
146E
  8
241
 10
9.9499999999999993
 20
-30.1814
 30
0.0
 70
    32
  0
SEQEND
  5
146F
  8
241
  0
LINE
  5
DB6
  8
241
 10
0.0
 20
-22.07078641
 30
0.0
 11
0.0
 21
0.0
 31
0.0
  0
LINE
  5
DB7
  8
241
 10
-2.2000000000000002
 20
-22.07078641
 30
0.0
 11
-2.2000000000000002
 21
0.0
 31
0.0
  0
LINE
  5
DB8
  8
240
  6
CONTINUOUS
 10
0.0
 20
-22.07078641
 30
0.0
 11
0.0
 21
-31.4925
 31
0.0
  0
LINE
  5
DB9
  8
240
 10
-2.2000000000000002
 20
-22.07078641
 30
0.0
 11
0.0
 21
-22.07078641
 31
0.0
  0
LINE
  5
DBA
  8
241
 10
22.0
 20
0.0
 30
0.0
 11
22.0
 21
-31.4925
 31
0.0
  0
LINE
  5
DBB
  8
241
  6
CONTINUOUS
 10
14.050000000000001
 20
-8.9923414200000007
 30
0.0
 11
14.050000000000001
 21
-30.181374259999998
 31
0.0
  0
POLYLINE
  5
1470
  8
241
 66
     1
 10
0.0
 20
0.0
 30
0.0
 70
     8
  0
VERTEX
  5
1471
  8
241
 10
14.050000000000001
 20
-30.1814
 30
0.0
 70
    32
  0
VERTEX
  5
1472
  8
241
 10
14.0837
 20
-30.048100000000002
 30
0.0
 70
    32
  0
VERTEX
  5
1473
  8
241
 10
14.1173
 20
-29.9148
 30
0.0
 70
    32
  0
VERTEX
  5
1474
  8
241
 10
14.151
 20
-29.781600000000001
 30
0.0
 70
    32
  0
VERTEX
  5
1475
  8
241
 10
14.1846
 20
-29.648299999999999
 30
0.0
 70
    32
  0
VERTEX
  5
1476
  8
241
 10
14.2182
 20
-29.5151
 30
0.0
 70
    32
  0
VERTEX
  5
1477
  8
241
 10
14.2517
 20
-29.381799999999998
 30
0.0
 70
    32
  0
VERTEX
  5
1478
  8
241
 10
14.2852
 20
-29.2485
 30
0.0
 70
    32
  0
VERTEX
  5
1479
  8
241
 10
14.3185
 20
-29.115300000000001
 30
0.0
 70
    32
  0
VERTEX
  5
147A
  8
241
 10
14.351800000000001
 20
-28.981999999999999
 30
0.0
 70
    32
  0
VERTEX
  5
147B
  8
241
 10
14.385
 20
-28.848700000000001
 30
0.0
 70
    32
  0
VERTEX
  5
147C
  8
241
 10
14.418100000000001
 20
-28.715499999999999
 30
0.0
 70
    32
  0
VERTEX
  5
147D
  8
241
 10
14.4511
 20
-28.5822
 30
0.0
 70
    32
  0
VERTEX
  5
147E
  8
241
 10
14.4839
 20
-28.448899999999998
 30
0.0
 70
    32
  0
VERTEX
  5
147F
  8
241
 10
14.5166
 20
-28.3157
 30
0.0
 70
    32
  0
VERTEX
  5
1480
  8
241
 10
14.549200000000001
 20
-28.182400000000001
 30
0.0
 70
    32
  0
VERTEX
  5
1481
  8
241
 10
14.5816
 20
-28.049099999999999
 30
0.0
 70
    32
  0
VERTEX
  5
1482
  8
241
 10
14.613799999999999
 20
-27.915900000000001
 30
0.0
 70
    32
  0
VERTEX
  5
1483
  8
241
 10
14.645899999999999
 20
-27.782599999999999
 30
0.0
 70
    32
  0
VERTEX
  5
1484
  8
241
 10
14.6777
 20
-27.6494
 30
0.0
 70
    32
  0
VERTEX
  5
1485
  8
241
 10
14.7094
 20
-27.516100000000002
 30
0.0
 70
    32
  0
VERTEX
  5
1486
  8
241
 10
14.7408
 20
-27.3828
 30
0.0
 70
    32
  0
VERTEX
  5
1487
  8
241
 10
14.772
 20
-27.249600000000001
 30
0.0
 70
    32
  0
VERTEX
  5
1488
  8
241
 10
14.803000000000001
 20
-27.116299999999999
 30
0.0
 70
    32
  0
VERTEX
  5
1489
  8
241
 10
14.8338
 20
-26.983000000000001
 30
0.0
 70
    32
  0
VERTEX
  5
148A
  8
241
 10
14.8642
 20
-26.849799999999998
 30
0.0
 70
    32
  0
VERTEX
  5
148B
  8
241
 10
14.894500000000001
 20
-26.7165
 30
0.0
 70
    32
  0
VERTEX
  5
148C
  8
241
 10
14.9244
 20
-26.583200000000001
 30
0.0
 70
    32
  0
VERTEX
  5
148D
  8
241
 10
14.9541
 20
-26.449999999999999
 30
0.0
 70
    32
  0
VERTEX
  5
148E
  8
241
 10
14.9834
 20
-26.316700000000001
 30
0.0
 70
    32
  0
VERTEX
  5
148F
  8
241
 10
15.0124
 20
-26.183399999999999
 30
0.0
 70
    32
  0
VERTEX
  5
1490
  8
241
 10
15.0412
 20
-26.0502
 30
0.0
 70
    32
  0
VERTEX
  5
1491
  8
241
 10
15.069599999999999
 20
-25.916899999999998
 30
0.0
 70
    32
  0
VERTEX
  5
1492
  8
241
 10
15.0976
 20
-25.7837
 30
0.0
 70
    32
  0
VERTEX
  5
1493
  8
241
 10
15.125299999999999
 20
-25.650400000000001
 30
0.0
 70
    32
  0
VERTEX
  5
1494
  8
241
 10
15.1526
 20
-25.517099999999999
 30
0.0
 70
    32
  0
VERTEX
  5
1495
  8
241
 10
15.179600000000001
 20
-25.383900000000001
 30
0.0
 70
    32
  0
VERTEX
  5
1496
  8
241
 10
15.206200000000001
 20
-25.250599999999999
 30
0.0
 70
    32
  0
VERTEX
  5
1497
  8
241
 10
15.2324
 20
-25.1173
 30
0.0
 70
    32
  0
VERTEX
  5
1498
  8
241
 10
15.2582
 20
-24.984100000000002
 30
0.0
 70
    32
  0
VERTEX
  5
1499
  8
241
 10
15.2835
 20
-24.8508
 30
0.0
 70
    32
  0
VERTEX
  5
149A
  8
241
 10
15.3085
 20
-24.717500000000001
 30
0.0
 70
    32
  0
VERTEX
  5
149B
  8
241
 10
15.333
 20
-24.584299999999999
 30
0.0
 70
    32
  0
VERTEX
  5
149C
  8
241
 10
15.356999999999999
 20
-24.451000000000001
 30
0.0
 70
    32
  0
VERTEX
  5
149D
  8
241
 10
15.380599999999999
 20
-24.317699999999999
 30
0.0
 70
    32
  0
VERTEX
  5
149E
  8
241
 10
15.403700000000001
 20
-24.1845
 30
0.0
 70
    32
  0
VERTEX
  5
149F
  8
241
 10
15.426399999999999
 20
-24.051200000000001
 30
0.0
 70
    32
  0
VERTEX
  5
14A0
  8
241
 10
15.448499999999999
 20
-23.917899999999999
 30
0.0
 70
    32
  0
VERTEX
  5
14A1
  8
241
 10
15.4702
 20
-23.784700000000001
 30
0.0
 70
    32
  0
VERTEX
  5
14A2
  8
241
 10
15.491300000000001
 20
-23.651399999999999
 30
0.0
 70
    32
  0
VERTEX
  5
14A3
  8
241
 10
15.512
 20
-23.5182
 30
0.0
 70
    32
  0
VERTEX
  5
14A4
  8
241
 10
15.5321
 20
-23.384899999999998
 30
0.0
 70
    32
  0
VERTEX
  5
14A5
  8
241
 10
15.551600000000001
 20
-23.2516
 30
0.0
 70
    32
  0
VERTEX
  5
14A6
  8
241
 10
15.570600000000001
 20
-23.118400000000001
 30
0.0
 70
    32
  0
VERTEX
  5
14A7
  8
241
 10
15.589
 20
-22.985099999999999
 30
0.0
 70
    32
  0
VERTEX
  5
14A8
  8
241
 10
15.6069
 20
-22.851800000000001
 30
0.0
 70
    32
  0
VERTEX
  5
14A9
  8
241
 10
15.6241
 20
-22.718599999999999
 30
0.0
 70
    32
  0
VERTEX
  5
14AA
  8
241
 10
15.6408
 20
-22.5853
 30
0.0
 70
    32
  0
VERTEX
  5
14AB
  8
241
 10
15.6569
 20
-22.452000000000002
 30
0.0
 70
    32
  0
VERTEX
  5
14AC
  8
241
 10
15.6723
 20
-22.3188
 30
0.0
 70
    32
  0
VERTEX
  5
14AD
  8
241
 10
15.687099999999999
 20
-22.185500000000001
 30
0.0
 70
    32
  0
VERTEX
  5
14AE
  8
241
 10
15.7013
 20
-22.052199999999999
 30
0.0
 70
    32
  0
VERTEX
  5
14AF
  8
241
 10
15.7148
 20
-21.919
 30
0.0
 70
    32
  0
VERTEX
  5
14B0
  8
241
 10
15.7277
 20
-21.785699999999999
 30
0.0
 70
    32
  0
VERTEX
  5
14B1
  8
241
 10
15.7399
 20
-21.6525
 30
0.0
 70
    32
  0
VERTEX
  5
14B2
  8
241
 10
15.7514
 20
-21.519200000000001
 30
0.0
 70
    32
  0
VERTEX
  5
14B3
  8
241
 10
15.7622
 20
-21.385899999999999
 30
0.0
 70
    32
  0
VERTEX
  5
14B4
  8
241
 10
15.7723
 20
-21.252700000000001
 30
0.0
 70
    32
  0
VERTEX
  5
14B5
  8
241
 10
15.781700000000001
 20
-21.119399999999999
 30
0.0
 70
    32
  0
VERTEX
  5
14B6
  8
241
 10
15.7904
 20
-20.9861
 30
0.0
 70
    32
  0
VERTEX
  5
14B7
  8
241
 10
15.798299999999999
 20
-20.852900000000002
 30
0.0
 70
    32
  0
VERTEX
  5
14B8
  8
241
 10
15.8055
 20
-20.7196
 30
0.0
 70
    32
  0
VERTEX
  5
14B9
  8
241
 10
15.811999999999999
 20
-20.586300000000001
 30
0.0
 70
    32
  0
VERTEX
  5
14BA
  8
241
 10
15.817600000000001
 20
-20.453099999999999
 30
0.0
 70
    32
  0
VERTEX
  5
14BB
  8
241
 10
15.8225
 20
-20.319800000000001
 30
0.0
 70
    32
  0
VERTEX
  5
14BC
  8
241
 10
15.826599999999999
 20
-20.186499999999999
 30
0.0
 70
    32
  0
VERTEX
  5
14BD
  8
241
 10
15.8299
 20
-20.0533
 30
0.0
 70
    32
  0
VERTEX
  5
14BE
  8
241
 10
15.8324
 20
-19.920000000000002
 30
0.0
 70
    32
  0
VERTEX
  5
14BF
  8
241
 10
15.834099999999999
 20
-19.786799999999999
 30
0.0
 70
    32
  0
VERTEX
  5
14C0
  8
241
 10
15.834899999999999
 20
-19.653500000000001
 30
0.0
 70
    32
  0
VERTEX
  5
14C1
  8
241
 10
15.834899999999999
 20
-19.520199999999999
 30
0.0
 70
    32
  0
VERTEX
  5
14C2
  8
241
 10
15.834099999999999
 20
-19.387
 30
0.0
 70
    32
  0
VERTEX
  5
14C3
  8
241
 10
15.8324
 20
-19.253699999999998
 30
0.0
 70
    32
  0
VERTEX
  5
14C4
  8
241
 10
15.8299
 20
-19.1204
 30
0.0
 70
    32
  0
VERTEX
  5
14C5
  8
241
 10
15.826599999999999
 20
-18.987200000000001
 30
0.0
 70
    32
  0
VERTEX
  5
14C6
  8
241
 10
15.8225
 20
-18.853899999999999
 30
0.0
 70
    32
  0
VERTEX
  5
14C7
  8
241
 10
15.817600000000001
 20
-18.720600000000001
 30
0.0
 70
    32
  0
VERTEX
  5
14C8
  8
241
 10
15.811999999999999
 20
-18.587399999999999
 30
0.0
 70
    32
  0
VERTEX
  5
14C9
  8
241
 10
15.8055
 20
-18.4541
 30
0.0
 70
    32
  0
VERTEX
  5
14CA
  8
241
 10
15.798299999999999
 20
-18.320799999999998
 30
0.0
 70
    32
  0
VERTEX
  5
14CB
  8
241
 10
15.7904
 20
-18.1876
 30
0.0
 70
    32
  0
VERTEX
  5
14CC
  8
241
 10
15.781700000000001
 20
-18.054300000000001
 30
0.0
 70
    32
  0
VERTEX
  5
14CD
  8
241
 10
15.7723
 20
-17.921099999999999
 30
0.0
 70
    32
  0
VERTEX
  5
14CE
  8
241
 10
15.7622
 20
-17.787800000000001
 30
0.0
 70
    32
  0
VERTEX
  5
14CF
  8
241
 10
15.7514
 20
-17.654499999999999
 30
0.0
 70
    32
  0
VERTEX
  5
14D0
  8
241
 10
15.7399
 20
-17.5213
 30
0.0
 70
    32
  0
VERTEX
  5
14D1
  8
241
 10
15.7277
 20
-17.388000000000002
 30
0.0
 70
    32
  0
VERTEX
  5
14D2
  8
241
 10
15.7148
 20
-17.2547
 30
0.0
 70
    32
  0
VERTEX
  5
14D3
  8
241
 10
15.7013
 20
-17.121500000000001
 30
0.0
 70
    32
  0
VERTEX
  5
14D4
  8
241
 10
15.687099999999999
 20
-16.988199999999999
 30
0.0
 70
    32
  0
VERTEX
  5
14D5
  8
241
 10
15.6723
 20
-16.854900000000001
 30
0.0
 70
    32
  0
VERTEX
  5
14D6
  8
241
 10
15.6569
 20
-16.721699999999998
 30
0.0
 70
    32
  0
VERTEX
  5
14D7
  8
241
 10
15.6408
 20
-16.5884
 30
0.0
 70
    32
  0
VERTEX
  5
14D8
  8
241
 10
15.6241
 20
-16.455100000000002
 30
0.0
 70
    32
  0
VERTEX
  5
14D9
  8
241
 10
15.6069
 20
-16.321899999999999
 30
0.0
 70
    32
  0
VERTEX
  5
14DA
  8
241
 10
15.589
 20
-16.188600000000001
 30
0.0
 70
    32
  0
VERTEX
  5
14DB
  8
241
 10
15.570600000000001
 20
-16.055399999999999
 30
0.0
 70
    32
  0
VERTEX
  5
14DC
  8
241
 10
15.551600000000001
 20
-15.9221
 30
0.0
 70
    32
  0
VERTEX
  5
14DD
  8
241
 10
15.5321
 20
-15.7888
 30
0.0
 70
    32
  0
VERTEX
  5
14DE
  8
241
 10
15.512
 20
-15.6556
 30
0.0
 70
    32
  0
VERTEX
  5
14DF
  8
241
 10
15.491300000000001
 20
-15.5223
 30
0.0
 70
    32
  0
VERTEX
  5
14E0
  8
241
 10
15.4702
 20
-15.388999999999999
 30
0.0
 70
    32
  0
VERTEX
  5
14E1
  8
241
 10
15.448499999999999
 20
-15.255800000000001
 30
0.0
 70
    32
  0
VERTEX
  5
14E2
  8
241
 10
15.426399999999999
 20
-15.1225
 30
0.0
 70
    32
  0
VERTEX
  5
14E3
  8
241
 10
15.403700000000001
 20
-14.9892
 30
0.0
 70
    32
  0
VERTEX
  5
14E4
  8
241
 10
15.380599999999999
 20
-14.856
 30
0.0
 70
    32
  0
VERTEX
  5
14E5
  8
241
 10
15.356999999999999
 20
-14.7227
 30
0.0
 70
    32
  0
VERTEX
  5
14E6
  8
241
 10
15.333
 20
-14.589399999999999
 30
0.0
 70
    32
  0
VERTEX
  5
14E7
  8
241
 10
15.3085
 20
-14.456200000000001
 30
0.0
 70
    32
  0
VERTEX
  5
14E8
  8
241
 10
15.2835
 20
-14.322900000000001
 30
0.0
 70
    32
  0
VERTEX
  5
14E9
  8
241
 10
15.2582
 20
-14.1897
 30
0.0
 70
    32
  0
VERTEX
  5
14EA
  8
241
 10
15.2324
 20
-14.0564
 30
0.0
 70
    32
  0
VERTEX
  5
14EB
  8
241
 10
15.206200000000001
 20
-13.9231
 30
0.0
 70
    32
  0
VERTEX
  5
14EC
  8
241
 10
15.179600000000001
 20
-13.789899999999999
 30
0.0
 70
    32
  0
VERTEX
  5
14ED
  8
241
 10
15.1526
 20
-13.656599999999999
 30
0.0
 70
    32
  0
VERTEX
  5
14EE
  8
241
 10
15.125299999999999
 20
-13.523300000000001
 30
0.0
 70
    32
  0
VERTEX
  5
14EF
  8
241
 10
15.0976
 20
-13.3901
 30
0.0
 70
    32
  0
VERTEX
  5
14F0
  8
241
 10
15.069599999999999
 20
-13.2568
 30
0.0
 70
    32
  0
VERTEX
  5
14F1
  8
241
 10
15.0412
 20
-13.1235
 30
0.0
 70
    32
  0
VERTEX
  5
14F2
  8
241
 10
15.0124
 20
-12.9903
 30
0.0
 70
    32
  0
VERTEX
  5
14F3
  8
241
 10
14.9834
 20
-12.856999999999999
 30
0.0
 70
    32
  0
VERTEX
  5
14F4
  8
241
 10
14.9541
 20
-12.723699999999999
 30
0.0
 70
    32
  0
VERTEX
  5
14F5
  8
241
 10
14.9244
 20
-12.5905
 30
0.0
 70
    32
  0
VERTEX
  5
14F6
  8
241
 10
14.894500000000001
 20
-12.4572
 30
0.0
 70
    32
  0
VERTEX
  5
14F7
  8
241
 10
14.8642
 20
-12.324
 30
0.0
 70
    32
  0
VERTEX
  5
14F8
  8
241
 10
14.8338
 20
-12.1907
 30
0.0
 70
    32
  0
VERTEX
  5
14F9
  8
241
 10
14.803000000000001
 20
-12.057399999999999
 30
0.0
 70
    32
  0
VERTEX
  5
14FA
  8
241
 10
14.772
 20
-11.924200000000001
 30
0.0
 70
    32
  0
VERTEX
  5
14FB
  8
241
 10
14.7408
 20
-11.790900000000001
 30
0.0
 70
    32
  0
VERTEX
  5
14FC
  8
241
 10
14.7094
 20
-11.6576
 30
0.0
 70
    32
  0
VERTEX
  5
14FD
  8
241
 10
14.6777
 20
-11.5244
 30
0.0
 70
    32
  0
VERTEX
  5
14FE
  8
241
 10
14.645899999999999
 20
-11.3911
 30
0.0
 70
    32
  0
VERTEX
  5
14FF
  8
241
 10
14.613799999999999
 20
-11.2578
 30
0.0
 70
    32
  0
VERTEX
  5
1500
  8
241
 10
14.5816
 20
-11.124599999999999
 30
0.0
 70
    32
  0
VERTEX
  5
1501
  8
241
 10
14.549200000000001
 20
-10.991300000000001
 30
0.0
 70
    32
  0
VERTEX
  5
1502
  8
241
 10
14.5166
 20
-10.858000000000001
 30
0.0
 70
    32
  0
VERTEX
  5
1503
  8
241
 10
14.4839
 20
-10.7248
 30
0.0
 70
    32
  0
VERTEX
  5
1504
  8
241
 10
14.4511
 20
-10.5915
 30
0.0
 70
    32
  0
VERTEX
  5
1505
  8
241
 10
14.418100000000001
 20
-10.4582
 30
0.0
 70
    32
  0
VERTEX
  5
1506
  8
241
 10
14.385
 20
-10.324999999999999
 30
0.0
 70
    32
  0
VERTEX
  5
1507
  8
241
 10
14.351800000000001
 20
-10.191700000000001
 30
0.0
 70
    32
  0
VERTEX
  5
1508
  8
241
 10
14.3185
 20
-10.0585
 30
0.0
 70
    32
  0
VERTEX
  5
1509
  8
241
 10
14.2852
 20
-9.9251899999999988
 30
0.0
 70
    32
  0
VERTEX
  5
150A
  8
241
 10
14.2517
 20
-9.7919300000000007
 30
0.0
 70
    32
  0
VERTEX
  5
150B
  8
241
 10
14.2182
 20
-9.6586600000000011
 30
0.0
 70
    32
  0
VERTEX
  5
150C
  8
241
 10
14.1846
 20
-9.5253999999999994
 30
0.0
 70
    32
  0
VERTEX
  5
150D
  8
241
 10
14.151
 20
-9.3921299999999999
 30
0.0
 70
    32
  0
VERTEX
  5
150E
  8
241
 10
14.1173
 20
-9.2588699999999982
 30
0.0
 70
    32
  0
VERTEX
  5
150F
  8
241
 10
14.0837
 20
-9.1256099999999982
 30
0.0
 70
    32
  0
VERTEX
  5
1510
  8
241
 10
14.050000000000001
 20
-8.9923399999999987
 30
0.0
 70
    32
  0
SEQEND
  5
1511
  8
241
  0
LINE
  5
DBD
  8
240
  6
CONTINUOUS
 10
-2.2000000000000002
 20
22.07078641
 30
0.0
 11
-36.5
 21
21.213344020000001
 31
0.0
1001
GRPNAME
1000
PASTMD15
  0
LINE
  5
DBE
  8
240
  6
CONTINUOUS
 10
-38.0
 20
20.347318619999999
 30
0.0
 11
-36.5
 21
21.213344020000001
 31
0.0
1001
GRPNAME
1000
PASTMD1D
  0
LINE
  5
DBF
  8
241
  6
CONTINUOUS
 10
9.9499999999999993
 20
30.181374259999998
 30
0.0
 11
14.050000000000001
 21
30.181374259999998
 31
0.0
  0
LINE
  5
DC0
  8
240
  6
CONTINUOUS
 10
0.0
 20
22.07078641
 30
0.0
 11
0.0
 21
31.4925
 31
0.0
  0
LINE
  5
DC1
  8
240
 10
-2.2000000000000002
 20
22.07078641
 30
0.0
 11
0.0
 21
22.07078641
 31
0.0
  0
CIRCLE
  5
DCF
  8
242
 10
82.000000177395023
 20
17.003750000000021
 30
0.0
 40
5.125
  0
CIRCLE
  5
DD0
  8
241
 10
82.000000177395023
 20
17.003750000000021
 30
0.0
 40
6.0
  0
CIRCLE
  5
DD1
  8
241
 10
107.00000017739499
 20
17.003749999999972
 30
0.0
 40
6.0
  0
CIRCLE
  5
DD2
  8
242
 10
107.00000017739499
 20
17.003749999999972
 30
0.0
 40
5.125
  0
LINE
  5
E4A
  8
245
 10
47.956000177394991
 20
17.003750000000078
 30
0.0
 11
116.04400017739501
 21
17.003750000000078
 31
0.0
  0
LINE
  5
E4B
  8
245
 10
82.000000177395023
 20
26.047750000000011
 30
0.0
 11
82.00000017739498
 21
7.9597500000000414
 31
0.0
  0
LINE
  5
E4C
  8
245
 10
57.000000177395037
 20
26.047750000000072
 30
0.0
 11
57.00000017739498
 21
7.9597500000000991
 31
0.0
  0
LINE
  5
E4F
  8
245
 10
107.00000017739499
 20
26.047749999999951
 30
0.0
 11
107.00000017739499
 21
7.9597499999999828
 31
0.0
  0
ARC
  5
E52
  8
240
  6
CONTINUOUS
 10
110.0000001773942
 20
-9.8541143762685124
 30
0.0
 40
10.0
 50
314.99999999999989
 51
359.99999999999682
  0
LINE
  5
E58
  8
240
  6
CONTINUOUS
 10
23.69999999999996
 20
29.503750000000881
 30
0.0
 11
115.4763310927412
 21
29.503750000000881
 31
0.0
  0
LINE
  5
E5C
  8
240
  6
CONTINUOUS
 10
120.0
 20
24.811493368883411
 30
0.0
 11
120.0
 21
-9.8542499999988422
 31
0.0
  0
ARC
  5
E5E
  8
241
  6
CONTINUOUS
 10
115.0081735859023
 20
24.52571539297071
 30
0.0
 40
5.0000000000000124
 50
3.27655999048782
 51
84.6274404768658
  0
LINE
  5
E65
  8
240
  6
CONTINUOUS
 10
115.4763310927412
 20
29.503750000000881
 30
0.0
 11
119.0000013508003
 21
29.503750000001109
 31
0.0
  0
ARC
  5
E66
  8
240
  6
CONTINUOUS
 10
119.0000003036768
 20
28.50375000000156
 30
0.0
 40
1.0000000000000351
 50
0.0446522577808234
 51
89.999940004240926
  0
LINE
  5
E67
  8
240
  6
CONTINUOUS
 10
120.0
 20
24.811493368884271
 30
0.0
 11
120.0
 21
28.504529328774549
 31
0.0
  0
LINE
  5
E77
  8
240
 10
22.69999999999996
 20
30.796250000011572
 30
0.0
 11
22.69999999999996
 21
30.503750000000931
 31
0.0
  0
ARC
  5
E78
  8
240
 10
23.69999999999996
 20
30.503750000000931
 30
0.0
 40
1.0
 50
180.0
 51
270.0
1001
ASK_MEN_XD
1005
E56
1070
     1
1005
E77
1070
     1
  0
LINE
  5
E7A
  8
240
 10
23.183422154817439
 20
-30.792499999999631
 30
0.0
 11
22.700000000011251
 21
-30.792500000000079
 31
0.0
  0
ARC
  5
E81
  8
240
  6
CONTINUOUS
 10
101.7611499698022
 20
-11.02203221833258
 30
0.0
 40
15.0
 50
273.99999999999972
 51
314.99999999999989
  0
LINE
  5
E82
  8
240
  6
CONTINUOUS
 10
117.0710678118638
 20
-16.925317811866879
 30
0.0
 11
112.3677516876011
 21
-21.628633936130932
 31
0.0
  0
LINE
  5
E85
  8
240
 10
102.80749707596399
 20
-25.985492972229789
 30
0.0
 11
25.316458323771862
 21
-31.404194266361799
 31
0.0
  0
ARC
  5
E89
  8
240
 10
23.33337527270956
 20
-33.788749999988681
 30
0.0
 40
3.0
 50
64.943911166465369
 51
92.865087479314369
  0
LINE
  5
E8B
  8
240
 10
24.60389109875328
 20
-31.07106908866513
 30
0.0
 11
25.316458323771862
 21
-31.404194266361799
 31
0.0
  0
LINE
  5
F01
  8
240
 10
21.99999982260988
 20
-31.49625000000572
 30
0.0
 11
22.699999822615439
 21
-30.79625000000016
 31
0.0
  0
LINE
  5
F04
  8
240
 10
21.99999982260988
 20
31.496250000005709
 30
0.0
 11
22.699999822615439
 21
30.79625000000015
 31
0.0
  0
LINE
  5
F0F
  8
243
 10
38.000000000000007
 20
4.5
 30
0.0
 11
120.0
 21
4.5
 31
0.0
  0
LINE
  5
F19
  8
243
 10
38.000000000000021
 20
29.503750000000881
 30
0.0
 11
38.000000000000007
 21
4.5
 31
0.0
  0
LINE
  5
F93
  8
245
 10
262.79399999999998
 20
0.0
 30
0.0
 11
168.0
 21
0.0
 31
0.0
  0
LINE
  5
F96
  8
245
 10
210.0
 20
42.000000000000007
 30
0.0
 11
210.0
 21
-42.0
 31
0.0
  0
ARC
  5
F9D
  8
240
  6
CONTINUOUS
 10
210.0
 20
-0.0000000000000129
 30
0.0
 40
45.000000000000021
 50
332.61289249734619
 51
28.903334539848359
1001
GENIUS_GENODEF_13
1002
{
1000
HIER
1070
     0
1002
}
1002
{
1000
MANEDIT
1070
     0
1002
}
1002
{
1000
NOSEL
1070
     0
1002
}
1002
{
1000
BEHIND
1070
     0
1002
}
1002
{
1000
OTHER
1070
     0
1002
}
1002
{
1000
REACTOR
1002
}
1001
GENIUS_GENOBJ-N-FIL_13
1002
{
1000
OWNER
1000
GEN
1002
}
  0
ARC
  5
F9E
  8
240
  6
CONTINUOUS
 10
236.2630919733372
 20
14.50000000000106
 30
0.0
 40
15.0
 50
28.903334539848359
 51
90.0
1001
ASK_MEN_XD
1005
F9D
1070
     1
1005
FBE
1070
     1
  0
LINE
  5
F9F
  8
241
  6
CONTINUOUS
 10
209.7999999999995
 20
4.5000000000008997
 30
0.0
 11
209.79999999999961
 21
29.50000000000141
 31
0.0
  0
LINE
  5
FA1
  8
241
  6
CONTINUOUS
 10
234.7999999999995
 20
4.5000000000009663
 30
0.0
 11
209.7999999999995
 21
4.5000000000008997
 31
0.0
  0
ARC
  5
FA2
  8
241
  6
CONTINUOUS
 10
234.7999999999995
 20
4.700000000000939
 30
0.0
 40
0.2
 50
270.0
 51
0.0
1001
ASK_MEN_XD
1005
FA3
1070
     1
1005
FA1
1070
     1
  0
LINE
  5
FA3
  8
241
  6
CONTINUOUS
 10
234.99999999999949
 20
4.7000000000009532
 30
0.0
 11
234.9999999999996
 21
29.500000000001201
 31
0.0
  0
ARC
  5
FA6
  8
240
  6
CONTINUOUS
 10
210.0
 20
-0.0000000000000129
 30
0.0
 40
31.499999999999989
 50
180.0
 51
233.7661613000129
  0
LINE
  5
FA8
  8
241
  6
CONTINUOUS
 10
251.6942041898063
 20
-16.92906781186559
 30
0.0
 11
183.43580110334079
 21
-16.92906781186548
 31
0.0
  0
LINE
  5
FB5
  8
241
  6
CONTINUOUS
 10
246.5701808669468
 20
-25.40825789206156
 30
0.0
 11
191.3809121896243
 21
-25.40825789206156
 31
0.0
  0
LINE
  5
FBB
  8
240
  6
CONTINUOUS
 10
232.19797288042321
 20
-31.499999999999321
 30
0.0
 11
210.0
 21
-31.499999999999321
 31
0.0
  0
ARC
  5
FBC
  8
240
  6
CONTINUOUS
 10
232.19797288042321
 20
-11.500000000000011
 30
0.0
 40
19.999999999999648
 50
270.0
 51
332.61289249734619
  0
ARC
  5
FBD
  8
240
  6
CONTINUOUS
 10
210.0
 20
-0.0000000000009224
 30
0.0
 40
31.499999999999218
 50
233.76616130001011
 51
270.0
  0
LINE
  5
FBE
  8
240
  6
CONTINUOUS
 10
208.0000000000002
 20
29.500000000001421
 30
0.0
 11
236.26309197333731
 21
29.500000000001201
 31
0.0
  0
ARC
  5
FD6
  8
240
 10
208.0
 20
-0.0000000000000127
 30
0.0
 40
29.5
 50
90.0
 51
180.0
  0
LINE
  5
1056
  8
250
 10
210.0
 20
42.5
 30
0.0
 11
210.0
 21
50.0
 31
0.0
  0
LINE
  5
1057
  8
250
 10
234.9999999999996
 20
29.800000000001369
 30
0.0
 11
234.9999999999996
 21
50.0
 31
0.0
  0
LINE
  5
1058
  8
250
 10
212.22999999999999
 20
49.0
 30
0.0
 11
232.76999999999961
 21
49.0
 31
0.0
  0
LINE
  5
105E
  8
241
 10
104.00000017739499
 20
15.271699189999961
 30
0.0
 11
107.00000017739499
 21
13.539648379999971
 31
0.0
  0
LINE
  5
105F
  8
241
 10
107.00000017739499
 20
13.539648379999971
 30
0.0
 11
110.00000017739499
 21
15.271699189999961
 31
0.0
  0
LINE
  5
1060
  8
241
 10
110.00000017739499
 20
15.271699189999961
 30
0.0
 11
110.00000017739499
 21
18.735800809999969
 31
0.0
  0
LINE
  5
1061
  8
241
 10
110.00000017739499
 20
18.735800809999969
 30
0.0
 11
107.00000017739499
 21
20.467851619999969
 31
0.0
  0
LINE
  5
1062
  8
241
 10
107.00000017739499
 20
20.467851619999969
 30
0.0
 11
104.00000017739499
 21
18.735800809999969
 31
0.0
  0
LINE
  5
1063
  8
241
 10
104.00000017739499
 20
18.735800809999969
 30
0.0
 11
104.00000017739499
 21
15.271699189999961
 31
0.0
  0
LINE
  5
1064
  8
241
 10
79.00000017739498
 20
15.271699190000019
 30
0.0
 11
82.000000177395023
 21
13.53964838000002
 31
0.0
  0
LINE
  5
1065
  8
241
 10
82.000000177395023
 20
13.53964838000002
 30
0.0
 11
85.00000017739498
 21
15.271699190000019
 31
0.0
  0
LINE
  5
1066
  8
241
 10
85.00000017739498
 20
15.271699190000019
 30
0.0
 11
85.00000017739498
 21
18.735800810000018
 31
0.0
  0
LINE
  5
1067
  8
241
 10
85.00000017739498
 20
18.735800810000018
 30
0.0
 11
82.000000177395023
 21
20.46785162000003
 31
0.0
  0
LINE
  5
1068
  8
241
 10
82.000000177395023
 20
20.46785162000003
 30
0.0
 11
79.00000017739498
 21
18.735800810000018
 31
0.0
  0
LINE
  5
1069
  8
241
 10
79.00000017739498
 20
18.735800810000018
 30
0.0
 11
79.00000017739498
 21
15.271699190000019
 31
0.0
  0
LINE
  5
106A
  8
241
 10
54.000000177395002
 20
15.27169919000008
 30
0.0
 11
57.000000177395009
 21
13.539648380000081
 31
0.0
  0
LINE
  5
106B
  8
241
 10
57.000000177395009
 20
13.539648380000081
 30
0.0
 11
60.000000177395009
 21
15.27169919000008
 31
0.0
  0
LINE
  5
106C
  8
241
 10
60.000000177395009
 20
15.27169919000008
 30
0.0
 11
60.000000177395009
 21
18.735800810000079
 31
0.0
  0
LINE
  5
106D
  8
241
 10
60.000000177395009
 20
18.735800810000079
 30
0.0
 11
57.000000177395009
 21
20.467851620000079
 31
0.0
  0
LINE
  5
106E
  8
241
 10
57.000000177395009
 20
20.467851620000079
 30
0.0
 11
54.000000177395002
 21
18.735800810000079
 31
0.0
  0
LINE
  5
106F
  8
241
 10
54.000000177395002
 20
18.735800810000079
 30
0.0
 11
54.000000177395002
 21
15.27169919000008
 31
0.0
  0
TEXT
  5
1070
  8
251
 10
-30.259085679999998
 20
-27.409010649999999
 30
0.0
 40
2.799999999999998
  1
C6
  7
YOKO
1001
ITEMNAME
1000
LNSP3
1001
ACAD
1000
MTEXTBEGIN
1070
    73
1070
     1
1070
    44
1040
1.0
1070
    74
1070
     0
1000
MTEXTEND
1000
MTEXTBEGIN
1070
    73
1070
     1
1070
    44
1040
1.0
1070
    74
1070
     0
1000
MTEXTEND
1000
MTEXTBEGIN
1070
    73
1070
     1
1070
    44
1040
1.0
1070
    74
1070
     0
1000
MTEXTEND
  0
LINE
  5
1073
  8
250
 10
38.000000000000021
 20
30.003750000000881
 30
0.0
 11
38.000000000000021
 21
50.0
 31
0.0
  0
LINE
  5
1074
  8
250
 10
120.0
 20
29.0045293288394
 30
0.0
 11
120.0
 21
50.0
 31
0.0
  0
LINE
  5
1075
  8
250
 10
40.230000000000011
 20
49.0
 30
0.0
 11
117.77
 21
49.0
 31
0.0
  0
LINE
  5
1079
  8
250
 10
0.0
 20
31.9925
 30
0.0
 11
0.0000000000000016
 21
57.0
 31
0.0
  0
LINE
  5
107A
  8
250
 10
120.0
 20
29.0045293288394
 30
0.0
 11
120.0
 21
57.0
 31
0.0
  0
LINE
  5
107B
  8
250
 10
2.23
 20
56.0
 30
0.0
 11
117.77
 21
56.0
 31
0.0
  0
TEXT
  5
107F
  8
250
 10
219.83333333333309
 20
50.0
 30
0.0
 40
2.799999999999998
  1
25
  0
LINE
  5
1080
  8
250
 10
232.76999999999961
 20
49.37166666666667
 30
0.0
 11
234.9999999999996
 21
49.0
 31
0.0
  0
LINE
  5
1081
  8
250
 10
232.76999999999961
 20
48.62833333333333
 30
0.0
 11
234.9999999999996
 21
49.0
 31
0.0
  0
LINE
  5
1082
  8
250
 10
234.9999999999996
 20
49.0
 30
0.0
 11
232.76999999999961
 21
49.0
 31
0.0
  0
LINE
  5
1083
  8
250
 10
212.22999999999999
 20
48.62833333333333
 30
0.0
 11
210.0
 21
49.0
 31
0.0
  0
LINE
  5
1084
  8
250
 10
212.22999999999999
 20
49.37166666666667
 30
0.0
 11
210.0
 21
49.0
 31
0.0
  0
LINE
  5
1085
  8
250
 10
210.0
 20
49.0
 30
0.0
 11
212.22999999999999
 21
49.0
 31
0.0
  0
LINE
  5
1086
  8
250
 10
-19.497820561165071
 20
-23.395419076896211
 30
0.0
 11
-22.392419010000001
 21
-28.409010649999999
 31
0.0
1001
ACAD
1000
DSTYLE
1002
{
1070
     3
1000
<>
1070
     5
1000
OPEN
1070
    41
1040
2.0
1070
    42
1040
2.0
1070
    44
1040
2.0
1070
    79
1070
     2
1070
   140
1040
4.0
1070
   179
1070
     3
1070
   288
1070
     1
1070
   342
1005
594
1070
   371
1070
    -1
1070
   372
1070
    -1
1002
}
  0
LINE
  5
1087
  8
250
 10
-19.78649569564779
 20
-23.228752410035359
 30
0.0
 11
-18.497820560000001
 21
-21.663368269999999
 31
0.0
  0
LINE
  5
1088
  8
250
 10
-19.20914542668238
 20
-23.562085743757049
 30
0.0
 11
-18.497820560000001
 21
-21.663368269999999
 31
0.0
  0
LINE
  5
1089
  8
250
 10
-18.497820560000001
 20
-21.663368269999999
 30
0.0
 11
-19.497820561165071
 21
-23.395419076896211
 31
0.0
  0
TEXT
  5
108A
  8
250
 10
67.333333333333329
 20
50.0
 30
0.0
 40
2.799999999999998
  1
82
  0
LINE
  5
108B
  8
250
 10
117.77
 20
49.37166666666667
 30
0.0
 11
120.0
 21
49.0
 31
0.0
  0
LINE
  5
108C
  8
250
 10
117.77
 20
48.62833333333333
 30
0.0
 11
120.0
 21
49.0
 31
0.0
  0
LINE
  5
108D
  8
250
 10
120.0
 20
49.0
 30
0.0
 11
117.77
 21
49.0
 31
0.0
  0
LINE
  5
108E
  8
250
 10
40.230000000000011
 20
48.62833333333333
 30
0.0
 11
38.000000000000021
 21
49.0
 31
0.0
  0
LINE
  5
108F
  8
250
 10
40.230000000000011
 20
49.37166666666667
 30
0.0
 11
38.000000000000021
 21
49.0
 31
0.0
  0
LINE
  5
1090
  8
250
 10
38.000000000000021
 20
49.0
 30
0.0
 11
40.230000000000011
 21
49.0
 31
0.0
  0
TEXT
  5
1091
  8
250
 10
51.336383910000002
 20
57.0
 30
0.0
 40
2.799999999999998
  1
120
  0
LINE
  5
1092
  8
250
 10
117.77
 20
56.37166666666667
 30
0.0
 11
120.0
 21
56.0
 31
0.0
  0
LINE
  5
1093
  8
250
 10
117.77
 20
55.62833333333333
 30
0.0
 11
120.0
 21
56.0
 31
0.0
  0
LINE
  5
1094
  8
250
 10
120.0
 20
56.0
 30
0.0
 11
117.77
 21
56.0
 31
0.0
  0
LINE
  5
1095
  8
250
 10
2.23
 20
55.62833333333333
 30
0.0
 11
0.0000000000000015
 21
56.0
 31
0.0
  0
LINE
  5
1096
  8
250
 10
2.23
 20
56.37166666666667
 30
0.0
 11
0.0000000000000015
 21
56.0
 31
0.0
  0
LINE
  5
1097
  8
250
 10
0.0000000000000015
 20
56.0
 30
0.0
 11
2.23
 21
56.0
 31
0.0
  0
VIEWPORT
  5
22
 67
     1
  8
0
 10
261.51769911999997
 20
148.5
 30
0.0
 40
523.03539823000006
 41
297.0
 68
     1
 69
     1
1001
ACAD
1000
MVIEW
1002
{
1070
    16
1010
0.0
1020
0.0
1030
0.0
1010
0.0
1020
0.0
1030
1.0
1040
0.0
1040
297.0
1040
261.51769911999997
1040
148.5
1040
50.0
1040
0.0
1040
0.0
1070
     0
1070
   100
1070
     1
1070
     1
1070
     0
1070
     0
1070
     0
1070
     0
1040
0.0
1040
0.0
1040
0.0
1040
1.0
1040
1.0
1040
10.0
1040
10.0
1070
     0
1002
{
1002
}
1002
}
1001
GENIUS_GENOBJ-N-SDF_13
1002
{
1000
OWNER
1000
GEN
1002
}
1001
GENIUS_GENODEF_13
1002
{
1000
HIER
1070
     0
1002
}
1002
{
1000
MANEDIT
1070
     0
1002
}
1002
{
1000
NOSEL
1070
     0
1002
}
1002
{
1000
BEHIND
1070
     0
1002
}
1002
{
1000
OTHER
1070
     0
1002
}
1002
{
1000
REACTOR
1002
}
1001
GENIUS_GENSCREG_15
1000
PF
1040
1.0
1000
DF
1040
1.0
1000
MIN
1011
0.0000000049999471
1021
1.4524711844262189E+098
1031
0.0
1021
0.0
1031
0.0
1000
MAX
1011
523.035398235
1021
1.4524711844262189E+098
1031
0.0
1021
297.0
1031
0.0
1000
FLAGS
1070
     2
  0
ENDSEC
  0
EOF
