  0
SECTION
  2
HEADER
  9
$ACADVER
  1
AC1009
  9
$INSBASE
 10
0.0
 20
0.0
 30
0.0
  9
$EXTMIN
 10
-39.0
 20
-63.999999999999957
 30
0.0
  9
$EXTMAX
 10
262.79399999999998
 20
75.000000000000028
 30
0.0
  9
$LIMMIN
 10
0.0
 20
0.0
  9
$LIMMAX
 10
297.0
 20
210.0
  9
$ORTHOMODE
 70
     0
  9
$REGENMODE
 70
     1
  9
$FILLMODE
 70
     1
  9
$QTEXTMODE
 70
     0
  9
$MIRRTEXT
 70
     1
  9
$DRAGMODE
 70
     2
  9
$LTSCALE
 40
10.0
  9
$OSMODE
 70
  3071
  9
$ATTMODE
 70
     1
  9
$TEXTSIZE
 40
3.0
  9
$TRACEWID
 40
1.0
  9
$TEXTSTYLE
  7
YOKO
  9
$CLAYER
  8
245
  9
$CELTYPE
  6
BYLAYER
  9
$CECOLOR
 62
   256
  9
$DIMSCALE
 40
1.0
  9
$DIMASZ
 40
2.2299999999999991
  9
$DIMEXO
 40
0.5
  9
$DIMDLI
 40
7.0
  9
$DIMRND
 40
0.0
  9
$DIMDLE
 40
0.0
  9
$DIMEXE
 40
1.0
  9
$DIMTP
 40
0.0
  9
$DIMTM
 40
0.01
  9
$DIMTXT
 40
2.7999999999999989
  9
$DIMCEN
 40
0.0
  9
$DIMTSZ
 40
0.0
  9
$DIMTOL
 70
     0
  9
$DIMLIM
 70
     0
  9
$DIMTIH
 70
     0
  9
$DIMTOH
 70
     0
  9
$DIMSE1
 70
     0
  9
$DIMSE2
 70
     0
  9
$DIMTAD
 70
     3
  9
$DIMZIN
 70
     9
  9
$DIMBLK
  1
OPEN
  9
$DIMASO
 70
     1
  9
$DIMSHO
 70
     1
  9
$DIMPOST
  1

  9
$DIMAPOST
  1

  9
$DIMALT
 70
     0
  9
$DIMALTD
 70
     2
  9
$DIMALTF
 40
25.399999999999999
  9
$DIMLFAC
 40
1.0
  9
$DIMTOFL
 70
     1
  9
$DIMTVP
 40
0.0
  9
$DIMTIX
 70
     1
  9
$DIMSOXD
 70
     0
  9
$DIMSAH
 70
     0
  9
$DIMBLK1
  1

  9
$DIMBLK2
  1

  9
$DIMSTYLE
  2
BIGT
  9
$DIMCLRD
 70
   256
  9
$DIMCLRE
 70
   256
  9
$DIMCLRT
 70
    40
  9
$DIMTFAC
 40
1.0
  9
$DIMGAP
 40
1.0
  9
$LUNITS
 70
     2
  9
$LUPREC
 70
     3
  9
$SKETCHINC
 40
1.0
  9
$FILLETRAD
 40
0.0
  9
$AUNITS
 70
     0
  9
$AUPREC
 70
     3
  9
$MENU
  1
.
  9
$ELEVATION
 40
0.0
  9
$PELEVATION
 40
0.0
  9
$THICKNESS
 40
0.0
  9
$LIMCHECK
 70
     0
  9
$BLIPMODE
 70
     0
  9
$CHAMFERA
 40
0.25
  9
$CHAMFERB
 40
0.25
  9
$SKPOLY
 70
     0
  9
$TDCREATE
 40
2455980.460925695
  9
$TDUPDATE
 40
2455980.463083195
  9
$TDINDWG
 40
0.0018182292
  9
$TDUSRTIMER
 40
0.0018182292
  9
$USRTIMER
 70
     1
  9
$ANGBASE
 50
0.0
  9
$ANGDIR
 70
     0
  9
$PDMODE
 70
     1
  9
$PDSIZE
 40
0.0
  9
$PLINEWID
 40
0.0
  9
$COORDS
 70
     0
  9
$SPLFRAME
 70
     0
  9
$SPLINETYPE
 70
     6
  9
$SPLINESEGS
 70
     4
  9
$ATTDIA
 70
     1
  9
$ATTREQ
 70
     1
  9
$HANDLING
 70
     1
  9
$HANDSEED
  5
206B
  9
$SURFTAB1
 70
     6
  9
$SURFTAB2
 70
     6
  9
$SURFTYPE
 70
     6
  9
$SURFU
 70
     6
  9
$SURFV
 70
     6
  9
$UCSNAME
  2

  9
$UCSORG
 10
0.0
 20
0.0
 30
0.0
  9
$UCSXDIR
 10
1.0
 20
0.0
 30
0.0
  9
$UCSYDIR
 10
0.0
 20
1.0
 30
0.0
  9
$PUCSNAME
  2

  9
$PUCSORG
 10
0.0
 20
0.0
 30
0.0
  9
$PUCSXDIR
 10
1.0
 20
0.0
 30
0.0
  9
$PUCSYDIR
 10
0.0
 20
1.0
 30
0.0
  9
$USERI1
 70
     1
  9
$USERI2
 70
     0
  9
$USERI3
 70
     0
  9
$USERI4
 70
     0
  9
$USERI5
 70
     0
  9
$USERR1
 40
0.0
  9
$USERR2
 40
0.0
  9
$USERR3
 40
0.0
  9
$USERR4
 40
0.0
  9
$USERR5
 40
0.0
  9
$WORLDVIEW
 70
     1
  9
$SHADEDGE
 70
     3
  9
$SHADEDIF
 70
    70
  9
$TILEMODE
 70
     1
  9
$MAXACTVP
 70
    16
  9
$PLIMCHECK
 70
     0
  9
$PEXTMIN
 10
1.0000000000000000E+020
 20
1.0000000000000000E+020
 30
1.0000000000000000E+020
  9
$PEXTMAX
 10
-1.0000000000000000E+020
 20
-1.0000000000000000E+020
 30
-1.0000000000000000E+020
  9
$PLIMMIN
 10
0.0
 20
0.0
  9
$PLIMMAX
 10
420.0
 20
297.0
  9
$UNITMODE
 70
     0
  9
$VISRETAIN
 70
     1
  9
$PLINEGEN
 70
     0
  9
$PSLTSCALE
 70
     1
  0
ENDSEC
  0
SECTION
  2
TABLES
  0
TABLE
  2
VPORT
 70
     3
  0
VPORT
  2
*ACTIVE
 70
     0
 10
0.0
 20
0.0
 11
1.0
 21
1.0
 12
111.89846023969869
 22
5.4998283102307823
 13
0.0
 23
0.0
 14
7.0
 24
7.0
 15
7.0
 25
7.0
 16
0.0
 26
0.0
 36
1.0
 17
0.0
 27
0.0
 37
0.0
 40
158.36561893417979
 41
1.914407988587731
 42
50.0
 43
0.0
 44
0.0
 50
0.0
 51
0.0
 71
     0
 72
  2000
 73
     1
 74
     0
 75
     0
 76
     1
 77
     0
 78
     0
  0
ENDTAB
  0
TABLE
  2
LTYPE
 70
    13
  0
LTYPE
  2
CONTINUOUS
 70
     0
  3
Solid line
 72
    65
 73
     0
 40
0.0
  0
LTYPE
  2
CENTER2
 70
     0
  3
___ _ ___ _ ___ _ ___ _ ___ _ ___ _ ___ _ ___ _
 72
    65
 73
     4
 40
1.125
 49
0.75
 49
-0.125
 49
0.125
 49
-0.125
  0
LTYPE
  2
HIDDEN2
 70
     0
  3
_ _ _ _ _ _ _ _ _ _ _ _ _ _ _ _ _ _ _ _ _ _ _ _
 72
    65
 73
     2
 40
0.1875
 49
0.125
 49
-0.0625
  0
LTYPE
  2
PHANTOM2
 70
     0
  3
___ _ _ ___ _ _ ___ _ _ ___ _ _ ___ _ _ ___ _ _
 72
    65
 73
     6
 40
1.25
 49
0.625
 49
-0.125
 49
0.125
 49
-0.125
 49
0.125
 49
-0.125
  0
LTYPE
  2
CENTER
 70
     0
  3
____ _ ____ _ ____ _ ____ _ ____ _ ____ _ ____ 
 72
    65
 73
     4
 40
2.0
 49
1.25
 49
-0.25
 49
0.25
 49
-0.25
  0
LTYPE
  2
AM_ISO02W050
 70
     0
  3
__ __ __ __ __ __ __ __ __ __ __ __ __ __ __
 72
    65
 73
     2
 40
7.5
 49
6.0
 49
-1.5
  0
LTYPE
  2
AMCONSTR
 70
     0
  3
_______________________
 72
    65
 73
     2
 40
9999.0
 49
9999.0
 49
0.0
  0
LTYPE
  2
ACISOWELD
 70
     0
  3
_ _ _ _ _
 72
    65
 73
     2
 40
2.0
 49
2.0
 49
-1.0
  0
LTYPE
  2
ACISOTGB
 70
     0
  3
__ . . __ . .
 72
    65
 73
     6
 40
9.0
 49
4.0
 49
-1.0
 49
1.0
 49
-1.0
 49
1.0
 49
-1.0
  0
LTYPE
  2
ACISOTGL
 70
     0
  3
_ _ _ _ _
 72
    65
 73
     2
 40
3.0
 49
2.0
 49
-1.0
  0
LTYPE
  2
ACJISTGB
 70
     0
  3
__ . . __ . .
 72
    65
 73
     6
 40
9.0
 49
4.0
 49
-1.0
 49
1.0
 49
-1.0
 49
1.0
 49
-1.0
  0
LTYPE
  2
ACJISTGL
 70
     0
  3
_ _ _ _ _
 72
    65
 73
     2
 40
3.0
 49
2.0
 49
-1.0
  0
LTYPE
  2
HIDDEN
 70
     0
  3
Hidden __ __ __ __ __ __ __ __ __ __ __ __ __ _
 72
    65
 73
     2
 40
9.5249999999999986
 49
6.3499999999999988
 49
-3.1749999999999989
  0
ENDTAB
  0
TABLE
  2
LAYER
 70
     8
  0
LAYER
  2
0
 70
     0
 62
     7
  6
CONTINUOUS
  0
LAYER
  2
DEFPOINTS
 70
     0
 62
     7
  6
CONTINUOUS
  0
LAYER
  2
245
 70
     0
 62
     2
  6
CENTER2
  0
LAYER
  2
240
 70
     0
 62
     4
  6
CONTINUOUS
  0
LAYER
  2
241
 70
     0
 62
   211
  6
CONTINUOUS
  0
LAYER
  2
242
 70
     0
 62
     3
  6
CONTINUOUS
  0
LAYER
  2
243
 70
     0
 62
   211
  6
HIDDEN2
  0
LAYER
  2
250
 70
     0
 62
     7
  6
CONTINUOUS
  0
ENDTAB
  0
TABLE
  2
STYLE
 70
     6
  0
STYLE
  2
STANDARD
 70
     0
 40
0.0
 41
1.0
 50
0.0
 71
     0
 42
3.0
  3
romans.shx
  4
extfont.shx
  0
STYLE
  2
ACISOTS
 70
     0
 40
1.0
 41
1.0
 50
0.0
 71
     0
 42
3.0
  3
amgdt.shx
  4
extfont.shx
  0
STYLE
  2
ACISOGDT
 70
     0
 40
0.0
 41
1.0
 50
0.0
 71
     0
 42
3.0
  3
amgdt.shx
  4
extfont.shx
  0
STYLE
  2
ACJISTS
 70
     0
 40
1.0
 41
1.0
 50
0.0
 71
     0
 42
3.0
  3
amgdt.shx
  4
extfont.shx
  0
STYLE
  2
ACJISGDT
 70
     0
 40
0.0
 41
1.0
 50
0.0
 71
     0
 42
3.0
  3
amgdt.shx
  4
extfont.shx
  0
STYLE
  2
YOKO
 70
     0
 40
0.0
 41
1.0
 50
0.0
 71
     0
 42
3.0
  3
romans.shx
  4
extfont.shx
  0
ENDTAB
  0
TABLE
  2
VIEW
 70
     0
  0
ENDTAB
  0
TABLE
  2
UCS
 70
     0
  0
ENDTAB
  0
TABLE
  2
APPID
 70
    29
  0
APPID
  2
ACAD
 70
     0
  0
APPID
  2
GLOBAL
 70
     0
  0
APPID
  2
DETAIL
 70
     0
  0
APPID
  2
GRPNAME
 70
     0
  0
APPID
  2
GPARA
 70
     0
  0
APPID
  2
MCAD_NO_VIS
 70
     0
  0
APPID
  2
ACAD_TEMP_GRAPHIC
 70
     0
  0
APPID
  2
ACATTRIBSERVICES
 70
     0
  0
APPID
  2
GENIUS_GENSCREG_15
 70
     0
  0
APPID
  2
GENIUS_GENODEF_13
 70
     0
  0
APPID
  2
GENIUS_GENOBJ-N-SDF_13
 70
     0
  0
APPID
  2
GENIUS_GENREC_14
 70
     0
  0
APPID
  2
GENIUS_GENOBJ-N-REC_13
 70
     0
  0
APPID
  2
GENIUS_GENDIMSH_14
 70
     0
  0
APPID
  2
GENIUS_GENOBJ-N-DIM_13
 70
     0
  0
APPID
  2
GENIUS_GENDIM_13
 70
     0
  0
APPID
  2
GENIUS_GENDTOL_13
 70
     0
  0
APPID
  2
GENIUS_GENOLIS_13
 70
     0
  0
APPID
  2
GENIUS_GENOENT_13
 70
     0
  0
APPID
  2
GENIUS_GENOBJ-F-FEM_13
 70
     0
  0
APPID
  2
GENIUS_GENOREF_13
 70
     0
  0
APPID
  2
GENIUS_GEFFEM_13
 70
     0
  0
APPID
  2
GENIUS_GEFFEMP_13
 70
     0
  0
APPID
  2
AD_DRAW
 70
     0
  0
APPID
  2
DESIGNERASSEMBLIES
 70
     0
  0
APPID
  2
ACADM_DIM_EDIT
 70
     0
  0
APPID
  2
AMDT_DM_ADJ
 70
     0
  0
APPID
  2
ASK_MEN_XD
 70
     0
  0
APPID
  2
GENIUS_GENOBJ-N-FIL_13
 70
     0
  0
ENDTAB
  0
TABLE
  2
DIMSTYLE
 70
    23
  0
DIMSTYLE
  2
BIGT
 70
     0
  3

  4

  5
OPEN
  6

  7

 40
1.0
 41
2.2299999999999991
 42
0.5
 43
7.0
 44
1.0
 45
0.0
 46
0.0
 47
0.0
 48
0.01
140
2.7999999999999989
141
0.0
142
0.0
143
25.399999999999999
144
1.0
145
0.0
146
1.0
147
1.0
 71
     0
 72
     0
 73
     0
 74
     0
 75
     0
 76
     0
 77
     3
 78
     9
170
     0
171
     2
172
     1
173
     0
174
     1
175
     0
176
   256
177
   256
178
    40
  0
DIMSTYLE
  2
AM_ISO
 70
     0
  3

  4
"
  5

  6

  7

 40
1.0
 41
2.5
 42
1.0
 43
10.0
 44
1.0
 45
0.0
 46
0.0
 47
0.1
 48
0.1
140
3.5
141
0.0
142
0.0
143
0.0393701
144
1.0
145
0.0
146
0.71
147
1.5
 71
     0
 72
     0
 73
     0
 74
     0
 75
     0
 76
     0
 77
     1
 78
     8
170
     0
171
     2
172
     1
173
     0
174
     0
175
     0
176
   256
177
   256
178
     2
  0
DIMSTYLE
  2
AM_ISO$3
 70
     0
  3

  4
"
  5

  6

  7

 40
1.0
 41
2.5
 42
1.0
 43
10.0
 44
1.0
 45
0.0
 46
0.0
 47
0.1
 48
0.1
140
3.5
141
0.0
142
0.0
143
0.0393701
144
1.0
145
0.0
146
0.71
147
1.5
 71
     0
 72
     0
 73
     0
 74
     1
 75
     0
 76
     0
 77
     1
 78
     8
170
     0
171
     2
172
     0
173
     0
174
     0
175
     0
176
   256
177
   256
178
     2
  0
DIMSTYLE
  2
AM_ISO$4
 70
     0
  3

  4
"
  5

  6

  7

 40
1.0
 41
2.5
 42
1.0
 43
10.0
 44
1.0
 45
0.0
 46
0.0
 47
0.1
 48
0.1
140
3.5
141
0.0
142
0.0
143
0.0393701
144
1.0
145
0.0
146
0.71
147
1.5
 71
     0
 72
     0
 73
     0
 74
     1
 75
     0
 76
     0
 77
     1
 78
     8
170
     0
171
     2
172
     0
173
     0
174
     0
175
     0
176
   256
177
   256
178
     2
  0
DIMSTYLE
  2
AM_ISO$6
 70
     0
  3

  4
"
  5

  6

  7

 40
1.0
 41
2.5
 42
1.0
 43
10.0
 44
1.0
 45
0.0
 46
0.0
 47
0.1
 48
0.1
140
3.5
141
0.0
142
0.0
143
0.0393701
144
1.0
145
0.0
146
0.71
147
1.5
 71
     0
 72
     0
 73
     0
 74
     0
 75
     0
 76
     0
 77
     0
 78
     8
170
     0
171
     2
172
     1
173
     0
174
     0
175
     0
176
   256
177
   256
178
     2
  0
DIMSTYLE
  2
AM_ISO$7
 70
     0
  3

  4
"
  5

  6

  7

 40
1.0
 41
2.5
 42
1.0
 43
10.0
 44
1.0
 45
0.0
 46
0.0
 47
0.1
 48
0.1
140
5.0
141
0.0
142
0.0
143
0.0393701
144
1.0
145
0.0
146
0.71
147
1.5
 71
     0
 72
     0
 73
     0
 74
     0
 75
     0
 76
     0
 77
     1
 78
     8
170
     0
171
     2
172
     1
173
     0
174
     0
175
     0
176
   256
177
   256
178
     2
  0
DIMSTYLE
  2
AM_ISO$SF
 70
     0
  3

  4
"
  5

  6

  7

 40
1.0
 41
2.5
 42
1.0
 43
10.0
 44
1.0
 45
0.0
 46
0.0
 47
0.1
 48
0.1
140
3.5
141
0.0
142
0.0
143
0.0393701
144
1.0
145
0.0
146
0.71
147
1.5
 71
     0
 72
     0
 73
     0
 74
     0
 75
     1
 76
     1
 77
     1
 78
     8
170
     0
171
     2
172
     1
173
     0
174
     0
175
     0
176
   256
177
   256
178
     2
  0
DIMSTYLE
  2
AM_ISO$SH
 70
     0
  3

  4
"
  5

  6
GENAXEH
  7

 40
1.0
 41
2.5
 42
1.0
 43
10.0
 44
1.0
 45
0.0
 46
0.0
 47
0.1
 48
0.1
140
3.5
141
0.0
142
0.0
143
0.0393701
144
2.0
145
0.0
146
0.71
147
1.5
 71
     0
 72
     0
 73
     0
 74
     0
 75
     1
 76
     1
 77
     1
 78
     8
170
     0
171
     2
172
     1
173
     1
174
     0
175
     0
176
   256
177
   256
178
     2
  0
DIMSTYLE
  2
BIGT$2
 70
     0
  3

  4

  5
OPEN
  6

  7

 40
1.0
 41
2.2299999999999991
 42
0.5
 43
7.0
 44
1.0
 45
0.0
 46
0.0
 47
0.0
 48
0.01
140
2.7999999999999989
141
0.0
142
0.0
143
25.399999999999999
144
1.0
145
0.0
146
1.0
147
1.0
 71
     0
 72
     0
 73
     0
 74
     0
 75
     0
 76
     0
 77
     3
 78
     9
170
     0
171
     2
172
     1
173
     0
174
     0
175
     0
176
   256
177
   256
178
    40
  0
DIMSTYLE
  2
BIGT$3
 70
     0
  3

  4

  5
OPEN
  6

  7

 40
1.0
 41
2.2299999999999991
 42
0.5
 43
2.5
 44
1.0
 45
0.0
 46
0.0
 47
0.0
 48
0.01
140
2.7999999999999989
141
0.0
142
0.0
143
25.399999999999999
144
1.0
145
0.0
146
1.0
147
1.0
 71
     0
 72
     0
 73
     0
 74
     0
 75
     0
 76
     0
 77
     3
 78
     9
170
     0
171
     2
172
     1
173
     0
174
     0
175
     0
176
   256
177
   256
178
    40
  0
DIMSTYLE
  2
BIGT$7
 70
     0
  3

  4

  5
OPEN
  6

  7

 40
0.0
 41
2.2299999999999991
 42
0.5
 43
7.0
 44
1.0
 45
0.0
 46
0.0
 47
0.0
 48
0.01
140
2.7999999999999989
141
0.0
142
0.0
143
25.399999999999999
144
1.0
145
0.0
146
1.0
147
1.0
 71
     0
 72
     0
 73
     0
 74
     0
 75
     0
 76
     0
 77
     3
 78
     9
170
     0
171
     2
172
     0
173
     0
174
     0
175
     0
176
   256
177
   256
178
    40
  0
DIMSTYLE
  2
BIGT$6
 70
     0
  3

  4

  5
OPEN
  6

  7

 40
1.0
 41
2.2299999999999991
 42
0.5
 43
2.5
 44
1.0
 45
0.0
 46
0.0
 47
0.0
 48
0.01
140
2.7999999999999989
141
0.0
142
0.0
143
25.399999999999999
144
1.0
145
0.0
146
1.0
147
1.0
 71
     0
 72
     0
 73
     0
 74
     0
 75
     0
 76
     0
 77
     3
 78
     9
170
     0
171
     2
172
     1
173
     0
174
     0
175
     0
176
   256
177
   256
178
    40
  0
DIMSTYLE
  2
BIGT$0
 70
     0
  3

  4

  5
OPEN
  6

  7

 40
1.0
 41
2.2299999999999991
 42
0.5
 43
7.0
 44
1.0
 45
0.0
 46
0.0
 47
0.0
 48
0.01
140
2.7999999999999989
141
0.0
142
0.0
143
25.399999999999999
144
1.0
145
0.0
146
1.0
147
1.0
 71
     0
 72
     0
 73
     0
 74
     0
 75
     0
 76
     0
 77
     3
 78
     9
170
     0
171
     2
172
     1
173
     0
174
     0
175
     0
176
   256
177
   256
178
    40
  0
DIMSTYLE
  2
BIGT$4
 70
     0
  3

  4

  5
OPEN
  6

  7

 40
1.0
 41
2.2299999999999991
 42
0.5
 43
2.5
 44
1.0
 45
0.0
 46
0.0
 47
0.0
 48
0.01
140
2.7999999999999989
141
0.0
142
0.0
143
25.399999999999999
144
1.0
145
0.0
146
1.0
147
1.0
 71
     0
 72
     0
 73
     0
 74
     0
 75
     0
 76
     0
 77
     3
 78
     9
170
     0
171
     2
172
     1
173
     0
174
     0
175
     0
176
   256
177
   256
178
    40
  0
DIMSTYLE
  2
BIGT$SH
 70
     0
  3

  4

  5
OPEN
  6

  7

 40
1.0
 41
2.2299999999999991
 42
0.5
 43
7.0
 44
1.0
 45
0.0
 46
0.0
 47
0.0
 48
0.0
140
2.7999999999999989
141
0.0
142
0.0
143
25.399999999999999
144
1.0
145
0.0
146
1.0
147
1.0
 71
     0
 72
     0
 73
     0
 74
     0
 75
     0
 76
     0
 77
     3
 78
     9
170
     0
171
     2
172
     1
173
     0
174
     0
175
     0
176
   256
177
   256
178
    40
  0
DIMSTYLE
  2
BIGT$SF
 70
     0
  3

  4

  5
OPEN
  6

  7

 40
1.0
 41
2.2299999999999991
 42
0.5
 43
7.0
 44
1.0
 45
0.0
 46
0.0
 47
0.0
 48
0.0
140
2.7999999999999989
141
0.0
142
0.0
143
25.399999999999999
144
1.0
145
0.0
146
1.0
147
1.0
 71
     0
 72
     0
 73
     0
 74
     0
 75
     0
 76
     0
 77
     3
 78
     9
170
     0
171
     2
172
     1
173
     0
174
     0
175
     0
176
   256
177
   256
178
    40
  0
DIMSTYLE
  2
TECHNICAL_OSAKA
 70
     0
  3

  4
"
  5
OPEN30
  6

  7

 40
1.0
 41
2.5
 42
1.0
 43
10.0
 44
1.0
 45
0.0
 46
0.0
 47
0.1
 48
0.1
140
2.7999999999999989
141
0.0
142
0.0
143
0.0393701
144
1.0
145
0.0
146
0.71
147
1.5
 71
     0
 72
     0
 73
     0
 74
     0
 75
     0
 76
     0
 77
     3
 78
     8
170
     0
171
     2
172
     1
173
     0
174
     0
175
     0
176
   256
177
   256
178
    40
  0
DIMSTYLE
  2
TECHNICAL_OSAKA$3
 70
     0
  3

  4
"
  5
OPEN30
  6

  7

 40
1.0
 41
2.5
 42
1.0
 43
10.0
 44
1.0
 45
0.0
 46
0.0
 47
0.1
 48
0.1
140
2.7999999999999989
141
0.0
142
0.0
143
0.0393701
144
1.0
145
0.0
146
0.71
147
1.5
 71
     0
 72
     0
 73
     0
 74
     1
 75
     0
 76
     0
 77
     3
 78
     8
170
     0
171
     2
172
     0
173
     0
174
     0
175
     0
176
   256
177
   256
178
    40
  0
DIMSTYLE
  2
TECHNICAL_OSAKA$4
 70
     0
  3

  4
"
  5
OPEN30
  6

  7

 40
1.0
 41
2.5
 42
1.0
 43
10.0
 44
1.0
 45
0.0
 46
0.0
 47
0.1
 48
0.1
140
2.7999999999999989
141
0.0
142
0.0
143
0.0393701
144
1.0
145
0.0
146
0.71
147
1.5
 71
     0
 72
     0
 73
     0
 74
     1
 75
     0
 76
     0
 77
     3
 78
     8
170
     0
171
     2
172
     0
173
     0
174
     0
175
     0
176
   256
177
   256
178
    40
  0
DIMSTYLE
  2
TECHNICAL_OSAKA$6
 70
     0
  3

  4
"
  5
OPEN30
  6

  7

 40
1.0
 41
2.5
 42
1.0
 43
10.0
 44
1.0
 45
0.0
 46
0.0
 47
0.1
 48
0.1
140
2.7999999999999989
141
0.0
142
0.0
143
0.0393701
144
1.0
145
0.0
146
0.71
147
1.5
 71
     0
 72
     0
 73
     0
 74
     0
 75
     0
 76
     0
 77
     0
 78
     8
170
     0
171
     2
172
     1
173
     0
174
     0
175
     0
176
   256
177
   256
178
    40
  0
DIMSTYLE
  2
TECHNICAL_OSAKA$7
 70
     0
  3

  4
"
  5
OPEN30
  6

  7

 40
1.0
 41
2.5
 42
1.0
 43
10.0
 44
1.0
 45
0.0
 46
0.0
 47
0.1
 48
0.1
140
2.7999999999999989
141
0.0
142
0.0
143
0.0393701
144
1.0
145
0.0
146
0.71
147
1.5
 71
     0
 72
     0
 73
     0
 74
     0
 75
     0
 76
     0
 77
     3
 78
     8
170
     0
171
     2
172
     1
173
     0
174
     0
175
     0
176
   256
177
   256
178
    40
  0
DIMSTYLE
  2
TECHNICAL_OSAKA$SF
 70
     0
  3

  4
"
  5
OPEN30
  6
OPEN30
  7
OPEN30
 40
1.0
 41
2.5
 42
1.0
 43
10.0
 44
1.0
 45
0.0
 46
0.0
 47
0.1
 48
0.1
140
3.5
141
0.0
142
0.0
143
0.0393701
144
1.0
145
0.0
146
0.71
147
1.5
 71
     0
 72
     0
 73
     0
 74
     0
 75
     1
 76
     1
 77
     3
 78
     8
170
     0
171
     2
172
     1
173
     0
174
     0
175
     0
176
   256
177
   256
178
    40
  0
DIMSTYLE
  2
TECHNICAL_OSAKA$SH
 70
     0
  3

  4
"
  5
OPEN30
  6
GENAXEH
  7
OPEN30
 40
1.0
 41
2.5
 42
1.0
 43
10.0
 44
1.0
 45
0.0
 46
0.0
 47
0.1
 48
0.1
140
3.5
141
0.0
142
0.0
143
0.0393701
144
2.0
145
0.0
146
0.71
147
1.5
 71
     0
 72
     0
 73
     0
 74
     0
 75
     1
 76
     1
 77
     3
 78
     8
170
     0
171
     2
172
     1
173
     1
174
     0
175
     0
176
   256
177
   256
178
    40
  0
ENDTAB
  0
ENDSEC
  0
SECTION
  2
BLOCKS
  0
BLOCK
  8
0
  2
$MODEL_SPACE
 70
     0
 10
0.0
 20
0.0
 30
0.0
  3
$MODEL_SPACE
  1

  0
ENDBLK
  5
1C
  8
0
  0
BLOCK
 67
     1
  8
0
  2
$PAPER_SPACE
 70
     0
 10
0.0
 20
0.0
 30
0.0
  3
$PAPER_SPACE
  1

  0
ENDBLK
  5
19
 67
     1
  8
0
  0
BLOCK
  8
0
  2
_OPEN
 70
     0
 10
0.0
 20
0.0
 30
0.0
  3
_OPEN
  1

  0
LINE
  5
2001
  8
0
  6
BYBLOCK
 62
     0
 10
-1.0
 20
0.1666666666666666
 30
0.0
 11
0.0
 21
0.0
 31
0.0
  0
LINE
  5
2002
  8
0
  6
BYBLOCK
 62
     0
 10
-1.0
 20
-0.1666666666666666
 30
0.0
 11
0.0
 21
0.0
 31
0.0
  0
LINE
  5
2003
  8
0
  6
BYBLOCK
 62
     0
 10
0.0
 20
0.0
 30
0.0
 11
-1.0
 21
0.0
 31
0.0
  0
ENDBLK
  5
2004
  8
0
  0
BLOCK
  8
0
  2
GENAXEH
 70
     0
 10
0.0
 20
0.0
 30
0.0
  3
GENAXEH
  1

  0
LINE
  5
202C
  8
0
 10
-1.0
 20
0.0
 30
0.0
 11
1.0
 21
0.0
 31
0.0
  0
ENDBLK
  5
202D
  8
0
  0
BLOCK
  8
0
  2
_OPEN30
 70
     0
 10
0.0
 20
0.0
 30
0.0
  3
_OPEN30
  1

  0
LINE
  5
2051
  8
0
  6
BYBLOCK
 62
     0
 10
-1.0
 20
0.26794919
 30
0.0
 11
0.0
 21
0.0
 31
0.0
  0
LINE
  5
2052
  8
0
  6
BYBLOCK
 62
     0
 10
0.0
 20
0.0
 30
0.0
 11
-1.0
 21
-0.26794919
 31
0.0
  0
LINE
  5
2053
  8
0
  6
BYBLOCK
 62
     0
 10
0.0
 20
0.0
 30
0.0
 11
-1.0
 21
0.0
 31
0.0
  0
ENDBLK
  5
2054
  8
0
  0
ENDSEC
  0
SECTION
  2
ENTITIES
  0
TEXT
  5
1711
  8
241
 10
-38.0
 20
70.0
 30
0.0
 40
5.0
  1
C6-180-BH25L-32120S
  7
YOKO
 11
-38.0
 21
70.0
 31
0.0
 73
     1
  0
LINE
  5
1712
  8
240
  6
CONTINUOUS
 10
22.0
 20
-31.5
 30
0.0
 11
0.0
 21
-31.5
 31
0.0
  0
LINE
  5
1713
  8
245
  6
CENTER2
 10
-39.0
 20
0.0
 30
0.0
 11
126.0
 21
0.0
 31
0.0
  0
CIRCLE
  5
1714
  8
242
 10
57.000000177395009
 20
-17.003750000000078
 30
0.0
 40
5.125
  0
CIRCLE
  5
1715
  8
241
 10
57.000000177395009
 20
-17.003750000000078
 30
0.0
 40
6.0
  0
LINE
  5
1716
  8
241
 10
22.0
 20
0.0
 30
0.0
 11
22.0
 21
-31.5
 31
0.0
  0
LINE
  5
1717
  8
241
  6
CONTINUOUS
 10
14.050000000000001
 20
-8.9923414200000007
 30
0.0
 11
14.050000000000001
 21
-30.181374259999998
 31
0.0
  0
LINE
  5
1718
  8
241
  6
CONTINUOUS
 10
9.9499999999999993
 20
-8.9923414200000007
 30
0.0
 11
9.9499999999999993
 21
-30.181374259999998
 31
0.0
  0
LINE
  5
1719
  8
240
  6
CONTINUOUS
 10
-38.0
 20
-20.347318619999999
 30
0.0
 11
-38.0
 21
0.0
 31
0.0
1001
GRPNAME
1000
PASTMD1D
  0
LINE
  5
171A
  8
241
 10
-36.5
 20
-21.213344020000001
 30
0.0
 11
-36.5
 21
0.0
 31
0.0
  0
LINE
  5
171B
  8
241
 10
-2.2000000000000002
 20
-22.07078641
 30
0.0
 11
-2.2000000000000002
 21
0.0
 31
0.0
  0
LINE
  5
171C
  8
241
 10
0.0
 20
-22.07078641
 30
0.0
 11
0.0
 21
0.0
 31
0.0
  0
LINE
  5
171D
  8
240
  6
CONTINUOUS
 10
-2.2000000000000002
 20
22.07078641
 30
0.0
 11
-36.5
 21
21.213344020000001
 31
0.0
1001
GRPNAME
1000
PASTMD1E
  0
LINE
  5
171E
  8
241
 10
-36.5
 20
21.213344020000001
 30
0.0
 11
-36.5
 21
0.0
 31
0.0
  0
LINE
  5
171F
  8
240
  6
CONTINUOUS
 10
-38.0
 20
20.347318619999999
 30
0.0
 11
-38.0
 21
0.0
 31
0.0
1001
GRPNAME
1000
PASTMD1D
  0
LINE
  5
1720
  8
240
  6
CONTINUOUS
 10
-36.5
 20
21.213344020000001
 30
0.0
 11
-38.0
 21
20.347318619999999
 31
0.0
1001
GRPNAME
1000
PASTMD16
  0
LINE
  5
1721
  8
241
  6
HIDDEN2
 10
-31.800000000000001
 20
3.5945
 30
0.0
 11
-31.800000000000001
 21
-3.5945
 31
0.0
  0
LINE
  5
1722
  8
241
  6
HIDDEN2
 10
-36.5
 20
3.5945
 30
0.0
 11
-31.800000000000001
 21
3.5945
 31
0.0
  0
LINE
  5
1723
  8
241
  6
HIDDEN2
 10
-38.0
 20
2.728474599999998
 30
0.0
 11
-36.5
 21
3.5945
 31
0.0
  0
LINE
  5
1724
  8
241
  6
HIDDEN2
 10
-36.5
 20
-3.5945
 30
0.0
 11
-31.800000000000001
 21
-3.5945
 31
0.0
  0
LINE
  5
1725
  8
241
  6
HIDDEN2
 10
-38.0
 20
-2.728474599999998
 30
0.0
 11
-36.5
 21
-3.5945
 31
0.0
  0
LINE
  5
1726
  8
240
  6
CONTINUOUS
 10
0.0
 20
31.4925
 30
0.0
 11
22.0037498226156
 21
31.4925
 31
0.0
  0
LINE
  5
1727
  8
241
  6
CONTINUOUS
 10
9.9499999999999993
 20
-8.9923414200000007
 30
0.0
 11
14.050000000000001
 21
-8.9923414200000007
 31
0.0
  0
CIRCLE
  5
1728
  8
241
 10
11.999999880000001
 20
0.0
 30
0.0
 40
5.0
  0
LINE
  5
1729
  8
241
  6
CONTINUOUS
 10
9.9499999999999993
 20
8.9923414200000007
 30
0.0
 11
14.050000000000001
 21
8.9923414200000007
 31
0.0
  0
LINE
  5
172A
  8
241
  6
CONTINUOUS
 10
9.9499999999999993
 20
30.181374259999998
 30
0.0
 11
14.050000000000001
 21
30.181374259999998
 31
0.0
  0
LINE
  5
172B
  8
241
  6
CONTINUOUS
 10
9.9499999999999993
 20
8.9923414200000007
 30
0.0
 11
9.9499999999999993
 21
30.181374259999998
 31
0.0
  0
LINE
  5
172C
  8
241
 10
0.0
 20
22.07078641
 30
0.0
 11
0.0
 21
0.0
 31
0.0
  0
LINE
  5
172D
  8
241
 10
-2.2000000000000002
 20
22.07078641
 30
0.0
 11
-2.2000000000000002
 21
0.0
 31
0.0
  0
LINE
  5
172E
  8
240
  6
CONTINUOUS
 10
0.0
 20
22.07078641
 30
0.0
 11
0.0
 21
31.4925
 31
0.0
  0
LINE
  5
172F
  8
240
 10
-2.2000000000000002
 20
22.07078641
 30
0.0
 11
0.0
 21
22.07078641
 31
0.0
  0
LINE
  5
1730
  8
241
 10
22.0
 20
0.0
 30
0.0
 11
22.0
 21
31.4925
 31
0.0
  0
LINE
  5
1731
  8
241
  6
CONTINUOUS
 10
14.050000000000001
 20
8.9923414200000007
 30
0.0
 11
14.050000000000001
 21
30.181374259999998
 31
0.0
  0
LINE
  5
1732
  8
240
  6
CONTINUOUS
 10
-2.2000000000000002
 20
-22.07078641
 30
0.0
 11
-36.5
 21
-21.213344020000001
 31
0.0
1001
GRPNAME
1000
PASTMD15
  0
LINE
  5
1733
  8
240
  6
CONTINUOUS
 10
-38.0
 20
-20.347318619999999
 30
0.0
 11
-36.5
 21
-21.213344020000001
 31
0.0
1001
GRPNAME
1000
PASTMD1D
  0
LINE
  5
1734
  8
241
  6
CONTINUOUS
 10
9.9499999999999993
 20
-30.181374259999998
 30
0.0
 11
14.050000000000001
 21
-30.181374259999998
 31
0.0
  0
LINE
  5
1735
  8
240
  6
CONTINUOUS
 10
0.0
 20
-22.07078641
 30
0.0
 11
0.0
 21
-31.4925
 31
0.0
  0
LINE
  5
1736
  8
240
 10
-2.2000000000000002
 20
-22.07078641
 30
0.0
 11
0.0
 21
-22.07078641
 31
0.0
  0
CIRCLE
  5
1737
  8
242
 10
82.000000177395023
 20
-17.003750000000021
 30
0.0
 40
5.125
  0
CIRCLE
  5
1738
  8
241
 10
82.000000177395023
 20
-17.003750000000021
 30
0.0
 40
6.0
  0
CIRCLE
  5
1739
  8
241
 10
107.00000017739499
 20
-17.003749999999972
 30
0.0
 40
6.0
  0
CIRCLE
  5
173A
  8
242
 10
107.00000017739499
 20
-17.003749999999972
 30
0.0
 40
5.125
  0
LINE
  5
173B
  8
245
 10
47.956000177394991
 20
-17.003750000000078
 30
0.0
 11
116.04400017739501
 21
-17.003750000000078
 31
0.0
  0
LINE
  5
173C
  8
245
 10
82.000000177395023
 20
-26.047750000000011
 30
0.0
 11
82.00000017739498
 21
-7.9597500000000414
 31
0.0
  0
LINE
  5
173D
  8
245
 10
57.000000177395037
 20
-26.047750000000072
 30
0.0
 11
57.00000017739498
 21
-7.9597500000000991
 31
0.0
  0
LINE
  5
173E
  8
245
 10
107.00000017739499
 20
-26.047749999999951
 30
0.0
 11
107.00000017739499
 21
-7.9597499999999828
 31
0.0
  0
ARC
  5
173F
  8
240
  6
CONTINUOUS
 10
110.0000001773942
 20
9.8541143762685124
 30
0.0
 40
10.0
 50
0.0000000000031691
 51
45.000000000000092
  0
LINE
  5
1740
  8
240
  6
CONTINUOUS
 10
23.69999999999996
 20
-29.503750000000881
 30
0.0
 11
115.4763310927412
 21
-29.503750000000881
 31
0.0
  0
LINE
  5
1741
  8
240
  6
CONTINUOUS
 10
120.0
 20
-24.811493368883411
 30
0.0
 11
120.0
 21
9.8542499999988422
 31
0.0
  0
ARC
  5
1742
  8
241
  6
CONTINUOUS
 10
115.0081735859023
 20
-24.52571539297071
 30
0.0
 40
5.0000000000000124
 50
275.37255952313421
 51
356.7234400095121
  0
LINE
  5
1743
  8
240
  6
CONTINUOUS
 10
115.4763310927412
 20
-29.503750000000881
 30
0.0
 11
119.0000013508003
 21
-29.503750000001109
 31
0.0
  0
ARC
  5
1744
  8
240
  6
CONTINUOUS
 10
119.0000003036768
 20
-28.50375000000156
 30
0.0
 40
1.0000000000000351
 50
270.00005999575899
 51
359.9553477422192
  0
LINE
  5
1745
  8
240
  6
CONTINUOUS
 10
120.0
 20
-24.811493368884271
 30
0.0
 11
120.0
 21
-28.504529328774549
 31
0.0
  0
LINE
  5
1746
  8
240
 10
22.69999999999996
 20
-30.796250000011572
 30
0.0
 11
22.69999999999996
 21
-30.503750000000931
 31
0.0
  0
ARC
  5
1747
  8
240
 10
23.69999999999996
 20
-30.503750000000931
 30
0.0
 40
1.0
 50
90.000000000000028
 51
180.0
1001
ASK_MEN_XD
1005
0
1070
     1
1005
1746
1070
     1
  0
LINE
  5
1748
  8
240
 10
23.183422154817439
 20
30.792499999999631
 30
0.0
 11
22.700000000011251
 21
30.792500000000079
 31
0.0
  0
ARC
  5
1749
  8
240
  6
CONTINUOUS
 10
101.7611499698022
 20
11.02203221833258
 30
0.0
 40
15.0
 50
45.000000000000092
 51
86.000000000000313
  0
LINE
  5
174A
  8
240
  6
CONTINUOUS
 10
117.0710678118638
 20
16.925317811866879
 30
0.0
 11
112.3677516876011
 21
21.628633936130921
 31
0.0
  0
LINE
  5
174B
  8
240
 10
102.80749707596399
 20
25.985492972229789
 30
0.0
 11
25.316458323771862
 21
31.404194266361799
 31
0.0
  0
ARC
  5
174C
  8
240
 10
23.33337527270956
 20
33.788749999988681
 30
0.0
 40
3.0
 50
267.13491252068559
 51
295.0560888335346
  0
LINE
  5
174D
  8
240
 10
24.60389109875328
 20
31.07106908866513
 30
0.0
 11
25.316458323771862
 21
31.404194266361799
 31
0.0
  0
LINE
  5
174E
  8
240
 10
21.99999982260988
 20
31.49625000000572
 30
0.0
 11
22.699999822615439
 21
30.79625000000016
 31
0.0
  0
LINE
  5
174F
  8
240
 10
21.99999982260988
 20
-31.496250000005709
 30
0.0
 11
22.699999822615439
 21
-30.79625000000015
 31
0.0
  0
LINE
  5
1750
  8
243
 10
38.000000000000007
 20
-4.5
 30
0.0
 11
120.0
 21
-4.5
 31
0.0
  0
LINE
  5
1751
  8
243
 10
38.000000000000021
 20
-29.503750000000881
 30
0.0
 11
38.000000000000007
 21
-4.5
 31
0.0
  0
LINE
  5
1752
  8
245
 10
262.79399999999998
 20
0.0
 30
0.0
 11
168.0
 21
0.0
 31
0.0
  0
LINE
  5
1753
  8
245
 10
210.0
 20
-42.000000000000007
 30
0.0
 11
210.0
 21
42.0
 31
0.0
  0
ARC
  5
1754
  8
240
  6
CONTINUOUS
 10
210.0
 20
0.0000000000000129
 30
0.0
 40
45.000000000000021
 50
331.09666546015171
 51
27.387107502653819
1001
GENIUS_GENODEF_13
1002
{
1000
HIER
1070
     0
1002
}
1002
{
1000
MANEDIT
1070
     0
1002
}
1002
{
1000
NOSEL
1070
     0
1002
}
1002
{
1000
BEHIND
1070
     0
1002
}
1002
{
1000
OTHER
1070
     0
1002
}
1002
{
1000
REACTOR
1002
}
1001
GENIUS_GENOBJ-N-FIL_13
1002
{
1000
OWNER
1000
GEN
1002
}
  0
ARC
  5
1755
  8
240
  6
CONTINUOUS
 10
236.2630919733372
 20
-14.50000000000106
 30
0.0
 40
15.0
 50
270.0
 51
331.09666546015171
1001
ASK_MEN_XD
1005
1754
1070
     1
1005
1760
1070
     1
  0
LINE
  5
1756
  8
241
  6
CONTINUOUS
 10
209.7999999999995
 20
-4.5000000000008988
 30
0.0
 11
209.79999999999961
 21
-29.50000000000141
 31
0.0
  0
LINE
  5
1757
  8
241
  6
CONTINUOUS
 10
234.7999999999995
 20
-4.5000000000009663
 30
0.0
 11
209.7999999999995
 21
-4.5000000000008988
 31
0.0
  0
ARC
  5
1758
  8
241
  6
CONTINUOUS
 10
234.7999999999995
 20
-4.7000000000009381
 30
0.0
 40
0.2
 50
0.0
 51
90.000000000000028
1001
ASK_MEN_XD
1005
1759
1070
     1
1005
1757
1070
     1
  0
LINE
  5
1759
  8
241
  6
CONTINUOUS
 10
234.99999999999949
 20
-4.7000000000009532
 30
0.0
 11
234.9999999999996
 21
-29.500000000001201
 31
0.0
  0
ARC
  5
175A
  8
240
  6
CONTINUOUS
 10
210.0
 20
0.0000000000000129
 30
0.0
 40
31.499999999999989
 50
126.2338386999871
 51
180.0
  0
LINE
  5
175B
  8
241
  6
CONTINUOUS
 10
251.6942041898063
 20
16.92906781186559
 30
0.0
 11
183.43580110334079
 21
16.92906781186548
 31
0.0
  0
LINE
  5
175C
  8
241
  6
CONTINUOUS
 10
246.5701808669468
 20
25.40825789206156
 30
0.0
 11
191.3809121896243
 21
25.40825789206156
 31
0.0
  0
LINE
  5
175D
  8
240
  6
CONTINUOUS
 10
232.19797288042321
 20
31.499999999999321
 30
0.0
 11
210.0
 21
31.499999999999321
 31
0.0
  0
ARC
  5
175E
  8
240
  6
CONTINUOUS
 10
232.19797288042321
 20
11.500000000000011
 30
0.0
 40
19.999999999999648
 50
27.387107502653819
 51
90.000000000000028
  0
ARC
  5
175F
  8
240
  6
CONTINUOUS
 10
210.0
 20
0.0000000000009224
 30
0.0
 40
31.499999999999218
 50
90.000000000000028
 51
126.2338386999899
  0
LINE
  5
1760
  8
240
  6
CONTINUOUS
 10
208.0000000000002
 20
-29.500000000001421
 30
0.0
 11
236.26309197333731
 21
-29.500000000001201
 31
0.0
  0
ARC
  5
1761
  8
240
 10
208.0
 20
0.0000000000000127
 30
0.0
 40
29.5
 50
180.0
 51
270.0
  0
LINE
  5
1762
  8
241
 10
104.00000017739499
 20
-15.271699189999961
 30
0.0
 11
107.00000017739499
 21
-13.539648379999971
 31
0.0
  0
LINE
  5
1763
  8
241
 10
107.00000017739499
 20
-13.539648379999971
 30
0.0
 11
110.00000017739499
 21
-15.271699189999961
 31
0.0
  0
LINE
  5
1764
  8
241
 10
110.00000017739499
 20
-15.271699189999961
 30
0.0
 11
110.00000017739499
 21
-18.735800809999969
 31
0.0
  0
LINE
  5
1765
  8
241
 10
110.00000017739499
 20
-18.735800809999969
 30
0.0
 11
107.00000017739499
 21
-20.467851619999969
 31
0.0
  0
LINE
  5
1766
  8
241
 10
107.00000017739499
 20
-20.467851619999969
 30
0.0
 11
104.00000017739499
 21
-18.735800809999969
 31
0.0
  0
LINE
  5
1767
  8
241
 10
104.00000017739499
 20
-18.735800809999969
 30
0.0
 11
104.00000017739499
 21
-15.271699189999961
 31
0.0
  0
LINE
  5
1768
  8
241
 10
79.00000017739498
 20
-15.271699190000019
 30
0.0
 11
82.000000177395023
 21
-13.53964838000002
 31
0.0
  0
LINE
  5
1769
  8
241
 10
82.000000177395023
 20
-13.53964838000002
 30
0.0
 11
85.00000017739498
 21
-15.271699190000019
 31
0.0
  0
LINE
  5
176A
  8
241
 10
85.00000017739498
 20
-15.271699190000019
 30
0.0
 11
85.00000017739498
 21
-18.735800810000018
 31
0.0
  0
LINE
  5
176B
  8
241
 10
85.00000017739498
 20
-18.735800810000018
 30
0.0
 11
82.000000177395023
 21
-20.46785162000003
 31
0.0
  0
LINE
  5
176C
  8
241
 10
82.000000177395023
 20
-20.46785162000003
 30
0.0
 11
79.00000017739498
 21
-18.735800810000018
 31
0.0
  0
LINE
  5
176D
  8
241
 10
79.00000017739498
 20
-18.735800810000018
 30
0.0
 11
79.00000017739498
 21
-15.271699190000019
 31
0.0
  0
LINE
  5
176E
  8
241
 10
54.000000177395002
 20
-15.27169919000008
 30
0.0
 11
57.000000177395009
 21
-13.539648380000081
 31
0.0
  0
LINE
  5
176F
  8
241
 10
57.000000177395009
 20
-13.539648380000081
 30
0.0
 11
60.000000177395009
 21
-15.27169919000008
 31
0.0
  0
LINE
  5
1770
  8
241
 10
60.000000177395009
 20
-15.27169919000008
 30
0.0
 11
60.000000177395009
 21
-18.735800810000079
 31
0.0
  0
LINE
  5
1771
  8
241
 10
60.000000177395009
 20
-18.735800810000079
 30
0.0
 11
57.000000177395009
 21
-20.467851620000079
 31
0.0
  0
LINE
  5
1772
  8
241
 10
57.000000177395009
 20
-20.467851620000079
 30
0.0
 11
54.000000177395002
 21
-18.735800810000079
 31
0.0
  0
LINE
  5
1773
  8
241
 10
54.000000177395002
 20
-18.735800810000079
 30
0.0
 11
54.000000177395002
 21
-15.27169919000008
 31
0.0
  0
LINE
  5
1B45
  8
250
 10
210.0
 20
-42.5
 30
0.0
 11
210.0
 21
-54.999999999999993
 31
0.0
  0
LINE
  5
1B46
  8
250
 10
234.9999999999996
 20
-30.000000000001211
 30
0.0
 11
234.9999999999996
 21
-54.999999999999993
 31
0.0
  0
LINE
  5
1B47
  8
250
 10
212.22999999999999
 20
-53.999999999999979
 30
0.0
 11
232.76999999999961
 21
-53.999999999999979
 31
0.0
  0
LINE
  5
1B4C
  8
250
 10
0.0
 20
-31.9925
 30
0.0
 11
-0.000000000000002
 21
-63.999999999999957
 31
0.0
  0
LINE
  5
1B4D
  8
250
 10
120.0
 20
-29.004529328774549
 30
0.0
 11
120.0
 21
-63.999999999999957
 31
0.0
  0
LINE
  5
1B4E
  8
250
 10
2.2299999999999982
 20
-62.999999999999972
 30
0.0
 11
117.77
 21
-62.999999999999972
 31
0.0
  0
LINE
  5
1B52
  8
250
 10
120.0000000000001
 20
-29.0045293288394
 30
0.0
 11
120.0000000000001
 21
-57.0
 31
0.0
  0
LINE
  5
1B53
  8
250
 10
38.000000000000021
 20
-30.003750000000881
 30
0.0
 11
38.000000000000021
 21
-57.0
 31
0.0
  0
LINE
  5
1B54
  8
250
 10
117.77
 20
-56.0
 30
0.0
 11
40.230000000000011
 21
-56.0
 31
0.0
  0
LINE
  5
1B58
  8
250
 10
-35.466666666666669
 20
-35.0
 30
0.0
 11
-28.0
 21
-35.0
 31
0.0
  0
LINE
  5
1B59
  8
250
 10
-28.0
 20
-35.0
 30
0.0
 11
-20.200341523257929
 21
-23.497770221112159
 31
0.0
  0
LINE
  5
1B5A
  8
250
 10
-20.200341523257929
 20
-23.497770221112159
 30
0.0
 11
-18.948789588608001
 21
-21.652094801415071
 31
0.0
  0
LINE
  5
1B5B
  8
250
 10
-19.957353745603282
 20
-23.662540158433998
 30
0.0
 11
-18.948789588608001
 21
-21.652094801415071
 31
0.0
  0
LINE
  5
1B5C
  8
250
 10
-18.948789588608001
 20
-21.652094801415071
 30
0.0
 11
-20.44332930091257
 21
-23.333000283790319
 31
0.0
  0
LINE
  5
1B5E
  8
241
 10
14.050000000000001
 20
30.1814
 30
0.0
 11
14.0837
 21
30.048100000000002
 31
0.0
  0
LINE
  5
1B5F
  8
241
 10
14.0837
 20
30.048100000000002
 30
0.0
 11
14.1173
 21
29.9148
 31
0.0
  0
LINE
  5
1B60
  8
241
 10
14.1173
 20
29.9148
 30
0.0
 11
14.151
 21
29.781600000000001
 31
0.0
  0
LINE
  5
1B61
  8
241
 10
14.151
 20
29.781600000000001
 30
0.0
 11
14.1846
 21
29.648299999999999
 31
0.0
  0
LINE
  5
1B62
  8
241
 10
14.1846
 20
29.648299999999999
 30
0.0
 11
14.2182
 21
29.5151
 31
0.0
  0
LINE
  5
1B63
  8
241
 10
14.2182
 20
29.5151
 30
0.0
 11
14.2517
 21
29.381799999999998
 31
0.0
  0
LINE
  5
1B64
  8
241
 10
14.2517
 20
29.381799999999998
 30
0.0
 11
14.2852
 21
29.2485
 31
0.0
  0
LINE
  5
1B65
  8
241
 10
14.2852
 20
29.2485
 30
0.0
 11
14.3185
 21
29.115300000000001
 31
0.0
  0
LINE
  5
1B66
  8
241
 10
14.3185
 20
29.115300000000001
 30
0.0
 11
14.351800000000001
 21
28.981999999999999
 31
0.0
  0
LINE
  5
1B67
  8
241
 10
14.351800000000001
 20
28.981999999999999
 30
0.0
 11
14.385
 21
28.848700000000001
 31
0.0
  0
LINE
  5
1B68
  8
241
 10
14.385
 20
28.848700000000001
 30
0.0
 11
14.418100000000001
 21
28.715499999999999
 31
0.0
  0
LINE
  5
1B69
  8
241
 10
14.418100000000001
 20
28.715499999999999
 30
0.0
 11
14.4511
 21
28.5822
 31
0.0
  0
LINE
  5
1B6A
  8
241
 10
14.4511
 20
28.5822
 30
0.0
 11
14.4839
 21
28.448899999999998
 31
0.0
  0
LINE
  5
1B6B
  8
241
 10
14.4839
 20
28.448899999999998
 30
0.0
 11
14.5166
 21
28.3157
 31
0.0
  0
LINE
  5
1B6C
  8
241
 10
14.5166
 20
28.3157
 30
0.0
 11
14.549200000000001
 21
28.182400000000001
 31
0.0
  0
LINE
  5
1B6D
  8
241
 10
14.549200000000001
 20
28.182400000000001
 30
0.0
 11
14.5816
 21
28.049099999999999
 31
0.0
  0
LINE
  5
1B6E
  8
241
 10
14.5816
 20
28.049099999999999
 30
0.0
 11
14.613799999999999
 21
27.915900000000001
 31
0.0
  0
LINE
  5
1B6F
  8
241
 10
14.613799999999999
 20
27.915900000000001
 30
0.0
 11
14.645899999999999
 21
27.782599999999999
 31
0.0
  0
LINE
  5
1B70
  8
241
 10
14.645899999999999
 20
27.782599999999999
 30
0.0
 11
14.6777
 21
27.6494
 31
0.0
  0
LINE
  5
1B71
  8
241
 10
14.6777
 20
27.6494
 30
0.0
 11
14.7094
 21
27.516100000000002
 31
0.0
  0
LINE
  5
1B72
  8
241
 10
14.7094
 20
27.516100000000002
 30
0.0
 11
14.7408
 21
27.3828
 31
0.0
  0
LINE
  5
1B73
  8
241
 10
14.7408
 20
27.3828
 30
0.0
 11
14.772
 21
27.249600000000001
 31
0.0
  0
LINE
  5
1B74
  8
241
 10
14.772
 20
27.249600000000001
 30
0.0
 11
14.803000000000001
 21
27.116299999999999
 31
0.0
  0
LINE
  5
1B75
  8
241
 10
14.803000000000001
 20
27.116299999999999
 30
0.0
 11
14.8338
 21
26.983000000000001
 31
0.0
  0
LINE
  5
1B76
  8
241
 10
14.8338
 20
26.983000000000001
 30
0.0
 11
14.8642
 21
26.849799999999998
 31
0.0
  0
LINE
  5
1B77
  8
241
 10
14.8642
 20
26.849799999999998
 30
0.0
 11
14.894500000000001
 21
26.7165
 31
0.0
  0
LINE
  5
1B78
  8
241
 10
14.894500000000001
 20
26.7165
 30
0.0
 11
14.9244
 21
26.583200000000001
 31
0.0
  0
LINE
  5
1B79
  8
241
 10
14.9244
 20
26.583200000000001
 30
0.0
 11
14.9541
 21
26.449999999999999
 31
0.0
  0
LINE
  5
1B7A
  8
241
 10
14.9541
 20
26.449999999999999
 30
0.0
 11
14.9834
 21
26.316700000000001
 31
0.0
  0
LINE
  5
1B7B
  8
241
 10
14.9834
 20
26.316700000000001
 30
0.0
 11
15.0124
 21
26.183399999999999
 31
0.0
  0
LINE
  5
1B7C
  8
241
 10
15.0124
 20
26.183399999999999
 30
0.0
 11
15.0412
 21
26.0502
 31
0.0
  0
LINE
  5
1B7D
  8
241
 10
15.0412
 20
26.0502
 30
0.0
 11
15.069599999999999
 21
25.916899999999998
 31
0.0
  0
LINE
  5
1B7E
  8
241
 10
15.069599999999999
 20
25.916899999999998
 30
0.0
 11
15.0976
 21
25.7837
 31
0.0
  0
LINE
  5
1B7F
  8
241
 10
15.0976
 20
25.7837
 30
0.0
 11
15.125299999999999
 21
25.650400000000001
 31
0.0
  0
LINE
  5
1B80
  8
241
 10
15.125299999999999
 20
25.650400000000001
 30
0.0
 11
15.1526
 21
25.517099999999999
 31
0.0
  0
LINE
  5
1B81
  8
241
 10
15.1526
 20
25.517099999999999
 30
0.0
 11
15.179600000000001
 21
25.383900000000001
 31
0.0
  0
LINE
  5
1B82
  8
241
 10
15.179600000000001
 20
25.383900000000001
 30
0.0
 11
15.206200000000001
 21
25.250599999999999
 31
0.0
  0
LINE
  5
1B83
  8
241
 10
15.206200000000001
 20
25.250599999999999
 30
0.0
 11
15.2324
 21
25.1173
 31
0.0
  0
LINE
  5
1B84
  8
241
 10
15.2324
 20
25.1173
 30
0.0
 11
15.2582
 21
24.984100000000002
 31
0.0
  0
LINE
  5
1B85
  8
241
 10
15.2582
 20
24.984100000000002
 30
0.0
 11
15.2835
 21
24.8508
 31
0.0
  0
LINE
  5
1B86
  8
241
 10
15.2835
 20
24.8508
 30
0.0
 11
15.3085
 21
24.717500000000001
 31
0.0
  0
LINE
  5
1B87
  8
241
 10
15.3085
 20
24.717500000000001
 30
0.0
 11
15.333
 21
24.584299999999999
 31
0.0
  0
LINE
  5
1B88
  8
241
 10
15.333
 20
24.584299999999999
 30
0.0
 11
15.356999999999999
 21
24.451000000000001
 31
0.0
  0
LINE
  5
1B89
  8
241
 10
15.356999999999999
 20
24.451000000000001
 30
0.0
 11
15.380599999999999
 21
24.317699999999999
 31
0.0
  0
LINE
  5
1B8A
  8
241
 10
15.380599999999999
 20
24.317699999999999
 30
0.0
 11
15.403700000000001
 21
24.1845
 31
0.0
  0
LINE
  5
1B8B
  8
241
 10
15.403700000000001
 20
24.1845
 30
0.0
 11
15.426399999999999
 21
24.051200000000001
 31
0.0
  0
LINE
  5
1B8C
  8
241
 10
15.426399999999999
 20
24.051200000000001
 30
0.0
 11
15.448499999999999
 21
23.917899999999999
 31
0.0
  0
LINE
  5
1B8D
  8
241
 10
15.448499999999999
 20
23.917899999999999
 30
0.0
 11
15.4702
 21
23.784700000000001
 31
0.0
  0
LINE
  5
1B8E
  8
241
 10
15.4702
 20
23.784700000000001
 30
0.0
 11
15.491300000000001
 21
23.651399999999999
 31
0.0
  0
LINE
  5
1B8F
  8
241
 10
15.491300000000001
 20
23.651399999999999
 30
0.0
 11
15.512
 21
23.5182
 31
0.0
  0
LINE
  5
1B90
  8
241
 10
15.512
 20
23.5182
 30
0.0
 11
15.5321
 21
23.384899999999998
 31
0.0
  0
LINE
  5
1B91
  8
241
 10
15.5321
 20
23.384899999999998
 30
0.0
 11
15.551600000000001
 21
23.2516
 31
0.0
  0
LINE
  5
1B92
  8
241
 10
15.551600000000001
 20
23.2516
 30
0.0
 11
15.570600000000001
 21
23.118400000000001
 31
0.0
  0
LINE
  5
1B93
  8
241
 10
15.570600000000001
 20
23.118400000000001
 30
0.0
 11
15.589
 21
22.985099999999999
 31
0.0
  0
LINE
  5
1B94
  8
241
 10
15.589
 20
22.985099999999999
 30
0.0
 11
15.6069
 21
22.851800000000001
 31
0.0
  0
LINE
  5
1B95
  8
241
 10
15.6069
 20
22.851800000000001
 30
0.0
 11
15.6241
 21
22.718599999999999
 31
0.0
  0
LINE
  5
1B96
  8
241
 10
15.6241
 20
22.718599999999999
 30
0.0
 11
15.6408
 21
22.5853
 31
0.0
  0
LINE
  5
1B97
  8
241
 10
15.6408
 20
22.5853
 30
0.0
 11
15.6569
 21
22.452000000000002
 31
0.0
  0
LINE
  5
1B98
  8
241
 10
15.6569
 20
22.452000000000002
 30
0.0
 11
15.6723
 21
22.3188
 31
0.0
  0
LINE
  5
1B99
  8
241
 10
15.6723
 20
22.3188
 30
0.0
 11
15.687099999999999
 21
22.185500000000001
 31
0.0
  0
LINE
  5
1B9A
  8
241
 10
15.687099999999999
 20
22.185500000000001
 30
0.0
 11
15.7013
 21
22.052199999999999
 31
0.0
  0
LINE
  5
1B9B
  8
241
 10
15.7013
 20
22.052199999999999
 30
0.0
 11
15.7148
 21
21.919
 31
0.0
  0
LINE
  5
1B9C
  8
241
 10
15.7148
 20
21.919
 30
0.0
 11
15.7277
 21
21.785699999999999
 31
0.0
  0
LINE
  5
1B9D
  8
241
 10
15.7277
 20
21.785699999999999
 30
0.0
 11
15.7399
 21
21.6525
 31
0.0
  0
LINE
  5
1B9E
  8
241
 10
15.7399
 20
21.6525
 30
0.0
 11
15.7514
 21
21.519200000000001
 31
0.0
  0
LINE
  5
1B9F
  8
241
 10
15.7514
 20
21.519200000000001
 30
0.0
 11
15.7622
 21
21.385899999999999
 31
0.0
  0
LINE
  5
1BA0
  8
241
 10
15.7622
 20
21.385899999999999
 30
0.0
 11
15.7723
 21
21.252700000000001
 31
0.0
  0
LINE
  5
1BA1
  8
241
 10
15.7723
 20
21.252700000000001
 30
0.0
 11
15.781700000000001
 21
21.119399999999999
 31
0.0
  0
LINE
  5
1BA2
  8
241
 10
15.781700000000001
 20
21.119399999999999
 30
0.0
 11
15.7904
 21
20.9861
 31
0.0
  0
LINE
  5
1BA3
  8
241
 10
15.7904
 20
20.9861
 30
0.0
 11
15.798299999999999
 21
20.852900000000002
 31
0.0
  0
LINE
  5
1BA4
  8
241
 10
15.798299999999999
 20
20.852900000000002
 30
0.0
 11
15.8055
 21
20.7196
 31
0.0
  0
LINE
  5
1BA5
  8
241
 10
15.8055
 20
20.7196
 30
0.0
 11
15.811999999999999
 21
20.586300000000001
 31
0.0
  0
LINE
  5
1BA6
  8
241
 10
15.811999999999999
 20
20.586300000000001
 30
0.0
 11
15.817600000000001
 21
20.453099999999999
 31
0.0
  0
LINE
  5
1BA7
  8
241
 10
15.817600000000001
 20
20.453099999999999
 30
0.0
 11
15.8225
 21
20.319800000000001
 31
0.0
  0
LINE
  5
1BA8
  8
241
 10
15.8225
 20
20.319800000000001
 30
0.0
 11
15.826599999999999
 21
20.186499999999999
 31
0.0
  0
LINE
  5
1BA9
  8
241
 10
15.826599999999999
 20
20.186499999999999
 30
0.0
 11
15.8299
 21
20.0533
 31
0.0
  0
LINE
  5
1BAA
  8
241
 10
15.8299
 20
20.0533
 30
0.0
 11
15.8324
 21
19.920000000000002
 31
0.0
  0
LINE
  5
1BAB
  8
241
 10
15.8324
 20
19.920000000000002
 30
0.0
 11
15.834099999999999
 21
19.786799999999999
 31
0.0
  0
LINE
  5
1BAC
  8
241
 10
15.834099999999999
 20
19.786799999999999
 30
0.0
 11
15.834899999999999
 21
19.653500000000001
 31
0.0
  0
LINE
  5
1BAD
  8
241
 10
15.834899999999999
 20
19.653500000000001
 30
0.0
 11
15.834899999999999
 21
19.520199999999999
 31
0.0
  0
LINE
  5
1BAE
  8
241
 10
15.834899999999999
 20
19.520199999999999
 30
0.0
 11
15.834099999999999
 21
19.387
 31
0.0
  0
LINE
  5
1BAF
  8
241
 10
15.834099999999999
 20
19.387
 30
0.0
 11
15.8324
 21
19.253699999999998
 31
0.0
  0
LINE
  5
1BB0
  8
241
 10
15.8324
 20
19.253699999999998
 30
0.0
 11
15.8299
 21
19.1204
 31
0.0
  0
LINE
  5
1BB1
  8
241
 10
15.8299
 20
19.1204
 30
0.0
 11
15.826599999999999
 21
18.987200000000001
 31
0.0
  0
LINE
  5
1BB2
  8
241
 10
15.826599999999999
 20
18.987200000000001
 30
0.0
 11
15.8225
 21
18.853899999999999
 31
0.0
  0
LINE
  5
1BB3
  8
241
 10
15.8225
 20
18.853899999999999
 30
0.0
 11
15.817600000000001
 21
18.720600000000001
 31
0.0
  0
LINE
  5
1BB4
  8
241
 10
15.817600000000001
 20
18.720600000000001
 30
0.0
 11
15.811999999999999
 21
18.587399999999999
 31
0.0
  0
LINE
  5
1BB5
  8
241
 10
15.811999999999999
 20
18.587399999999999
 30
0.0
 11
15.8055
 21
18.4541
 31
0.0
  0
LINE
  5
1BB6
  8
241
 10
15.8055
 20
18.4541
 30
0.0
 11
15.798299999999999
 21
18.320799999999998
 31
0.0
  0
LINE
  5
1BB7
  8
241
 10
15.798299999999999
 20
18.320799999999998
 30
0.0
 11
15.7904
 21
18.1876
 31
0.0
  0
LINE
  5
1BB8
  8
241
 10
15.7904
 20
18.1876
 30
0.0
 11
15.781700000000001
 21
18.054300000000001
 31
0.0
  0
LINE
  5
1BB9
  8
241
 10
15.781700000000001
 20
18.054300000000001
 30
0.0
 11
15.7723
 21
17.921099999999999
 31
0.0
  0
LINE
  5
1BBA
  8
241
 10
15.7723
 20
17.921099999999999
 30
0.0
 11
15.7622
 21
17.787800000000001
 31
0.0
  0
LINE
  5
1BBB
  8
241
 10
15.7622
 20
17.787800000000001
 30
0.0
 11
15.7514
 21
17.654499999999999
 31
0.0
  0
LINE
  5
1BBC
  8
241
 10
15.7514
 20
17.654499999999999
 30
0.0
 11
15.7399
 21
17.5213
 31
0.0
  0
LINE
  5
1BBD
  8
241
 10
15.7399
 20
17.5213
 30
0.0
 11
15.7277
 21
17.388000000000002
 31
0.0
  0
LINE
  5
1BBE
  8
241
 10
15.7277
 20
17.388000000000002
 30
0.0
 11
15.7148
 21
17.2547
 31
0.0
  0
LINE
  5
1BBF
  8
241
 10
15.7148
 20
17.2547
 30
0.0
 11
15.7013
 21
17.121500000000001
 31
0.0
  0
LINE
  5
1BC0
  8
241
 10
15.7013
 20
17.121500000000001
 30
0.0
 11
15.687099999999999
 21
16.988199999999999
 31
0.0
  0
LINE
  5
1BC1
  8
241
 10
15.687099999999999
 20
16.988199999999999
 30
0.0
 11
15.6723
 21
16.854900000000001
 31
0.0
  0
LINE
  5
1BC2
  8
241
 10
15.6723
 20
16.854900000000001
 30
0.0
 11
15.6569
 21
16.721699999999998
 31
0.0
  0
LINE
  5
1BC3
  8
241
 10
15.6569
 20
16.721699999999998
 30
0.0
 11
15.6408
 21
16.5884
 31
0.0
  0
LINE
  5
1BC4
  8
241
 10
15.6408
 20
16.5884
 30
0.0
 11
15.6241
 21
16.455100000000002
 31
0.0
  0
LINE
  5
1BC5
  8
241
 10
15.6241
 20
16.455100000000002
 30
0.0
 11
15.6069
 21
16.321899999999999
 31
0.0
  0
LINE
  5
1BC6
  8
241
 10
15.6069
 20
16.321899999999999
 30
0.0
 11
15.589
 21
16.188600000000001
 31
0.0
  0
LINE
  5
1BC7
  8
241
 10
15.589
 20
16.188600000000001
 30
0.0
 11
15.570600000000001
 21
16.055399999999999
 31
0.0
  0
LINE
  5
1BC8
  8
241
 10
15.570600000000001
 20
16.055399999999999
 30
0.0
 11
15.551600000000001
 21
15.9221
 31
0.0
  0
LINE
  5
1BC9
  8
241
 10
15.551600000000001
 20
15.9221
 30
0.0
 11
15.5321
 21
15.7888
 31
0.0
  0
LINE
  5
1BCA
  8
241
 10
15.5321
 20
15.7888
 30
0.0
 11
15.512
 21
15.6556
 31
0.0
  0
LINE
  5
1BCB
  8
241
 10
15.512
 20
15.6556
 30
0.0
 11
15.491300000000001
 21
15.5223
 31
0.0
  0
LINE
  5
1BCC
  8
241
 10
15.491300000000001
 20
15.5223
 30
0.0
 11
15.4702
 21
15.388999999999999
 31
0.0
  0
LINE
  5
1BCD
  8
241
 10
15.4702
 20
15.388999999999999
 30
0.0
 11
15.448499999999999
 21
15.255800000000001
 31
0.0
  0
LINE
  5
1BCE
  8
241
 10
15.448499999999999
 20
15.255800000000001
 30
0.0
 11
15.426399999999999
 21
15.1225
 31
0.0
  0
LINE
  5
1BCF
  8
241
 10
15.426399999999999
 20
15.1225
 30
0.0
 11
15.403700000000001
 21
14.9892
 31
0.0
  0
LINE
  5
1BD0
  8
241
 10
15.403700000000001
 20
14.9892
 30
0.0
 11
15.380599999999999
 21
14.856
 31
0.0
  0
LINE
  5
1BD1
  8
241
 10
15.380599999999999
 20
14.856
 30
0.0
 11
15.356999999999999
 21
14.7227
 31
0.0
  0
LINE
  5
1BD2
  8
241
 10
15.356999999999999
 20
14.7227
 30
0.0
 11
15.333
 21
14.589399999999999
 31
0.0
  0
LINE
  5
1BD3
  8
241
 10
15.333
 20
14.589399999999999
 30
0.0
 11
15.3085
 21
14.456200000000001
 31
0.0
  0
LINE
  5
1BD4
  8
241
 10
15.3085
 20
14.456200000000001
 30
0.0
 11
15.2835
 21
14.322900000000001
 31
0.0
  0
LINE
  5
1BD5
  8
241
 10
15.2835
 20
14.322900000000001
 30
0.0
 11
15.2582
 21
14.1897
 31
0.0
  0
LINE
  5
1BD6
  8
241
 10
15.2582
 20
14.1897
 30
0.0
 11
15.2324
 21
14.0564
 31
0.0
  0
LINE
  5
1BD7
  8
241
 10
15.2324
 20
14.0564
 30
0.0
 11
15.206200000000001
 21
13.9231
 31
0.0
  0
LINE
  5
1BD8
  8
241
 10
15.206200000000001
 20
13.9231
 30
0.0
 11
15.179600000000001
 21
13.789899999999999
 31
0.0
  0
LINE
  5
1BD9
  8
241
 10
15.179600000000001
 20
13.789899999999999
 30
0.0
 11
15.1526
 21
13.656599999999999
 31
0.0
  0
LINE
  5
1BDA
  8
241
 10
15.1526
 20
13.656599999999999
 30
0.0
 11
15.125299999999999
 21
13.523300000000001
 31
0.0
  0
LINE
  5
1BDB
  8
241
 10
15.125299999999999
 20
13.523300000000001
 30
0.0
 11
15.0976
 21
13.3901
 31
0.0
  0
LINE
  5
1BDC
  8
241
 10
15.0976
 20
13.3901
 30
0.0
 11
15.069599999999999
 21
13.2568
 31
0.0
  0
LINE
  5
1BDD
  8
241
 10
15.069599999999999
 20
13.2568
 30
0.0
 11
15.0412
 21
13.1235
 31
0.0
  0
LINE
  5
1BDE
  8
241
 10
15.0412
 20
13.1235
 30
0.0
 11
15.0124
 21
12.9903
 31
0.0
  0
LINE
  5
1BDF
  8
241
 10
15.0124
 20
12.9903
 30
0.0
 11
14.9834
 21
12.856999999999999
 31
0.0
  0
LINE
  5
1BE0
  8
241
 10
14.9834
 20
12.856999999999999
 30
0.0
 11
14.9541
 21
12.723699999999999
 31
0.0
  0
LINE
  5
1BE1
  8
241
 10
14.9541
 20
12.723699999999999
 30
0.0
 11
14.9244
 21
12.5905
 31
0.0
  0
LINE
  5
1BE2
  8
241
 10
14.9244
 20
12.5905
 30
0.0
 11
14.894500000000001
 21
12.4572
 31
0.0
  0
LINE
  5
1BE3
  8
241
 10
14.894500000000001
 20
12.4572
 30
0.0
 11
14.8642
 21
12.324
 31
0.0
  0
LINE
  5
1BE4
  8
241
 10
14.8642
 20
12.324
 30
0.0
 11
14.8338
 21
12.1907
 31
0.0
  0
LINE
  5
1BE5
  8
241
 10
14.8338
 20
12.1907
 30
0.0
 11
14.803000000000001
 21
12.057399999999999
 31
0.0
  0
LINE
  5
1BE6
  8
241
 10
14.803000000000001
 20
12.057399999999999
 30
0.0
 11
14.772
 21
11.924200000000001
 31
0.0
  0
LINE
  5
1BE7
  8
241
 10
14.772
 20
11.924200000000001
 30
0.0
 11
14.7408
 21
11.790900000000001
 31
0.0
  0
LINE
  5
1BE8
  8
241
 10
14.7408
 20
11.790900000000001
 30
0.0
 11
14.7094
 21
11.6576
 31
0.0
  0
LINE
  5
1BE9
  8
241
 10
14.7094
 20
11.6576
 30
0.0
 11
14.6777
 21
11.5244
 31
0.0
  0
LINE
  5
1BEA
  8
241
 10
14.6777
 20
11.5244
 30
0.0
 11
14.645899999999999
 21
11.3911
 31
0.0
  0
LINE
  5
1BEB
  8
241
 10
14.645899999999999
 20
11.3911
 30
0.0
 11
14.613799999999999
 21
11.2578
 31
0.0
  0
LINE
  5
1BEC
  8
241
 10
14.613799999999999
 20
11.2578
 30
0.0
 11
14.5816
 21
11.124599999999999
 31
0.0
  0
LINE
  5
1BED
  8
241
 10
14.5816
 20
11.124599999999999
 30
0.0
 11
14.549200000000001
 21
10.991300000000001
 31
0.0
  0
LINE
  5
1BEE
  8
241
 10
14.549200000000001
 20
10.991300000000001
 30
0.0
 11
14.5166
 21
10.858000000000001
 31
0.0
  0
LINE
  5
1BEF
  8
241
 10
14.5166
 20
10.858000000000001
 30
0.0
 11
14.4839
 21
10.7248
 31
0.0
  0
LINE
  5
1BF0
  8
241
 10
14.4839
 20
10.7248
 30
0.0
 11
14.4511
 21
10.5915
 31
0.0
  0
LINE
  5
1BF1
  8
241
 10
14.4511
 20
10.5915
 30
0.0
 11
14.418100000000001
 21
10.4582
 31
0.0
  0
LINE
  5
1BF2
  8
241
 10
14.418100000000001
 20
10.4582
 30
0.0
 11
14.385
 21
10.324999999999999
 31
0.0
  0
LINE
  5
1BF3
  8
241
 10
14.385
 20
10.324999999999999
 30
0.0
 11
14.351800000000001
 21
10.191700000000001
 31
0.0
  0
LINE
  5
1BF4
  8
241
 10
14.351800000000001
 20
10.191700000000001
 30
0.0
 11
14.3185
 21
10.0585
 31
0.0
  0
LINE
  5
1BF5
  8
241
 10
14.3185
 20
10.0585
 30
0.0
 11
14.2852
 21
9.9251900000000006
 31
0.0
  0
LINE
  5
1BF6
  8
241
 10
14.2852
 20
9.9251900000000006
 30
0.0
 11
14.2517
 21
9.7919300000000007
 31
0.0
  0
LINE
  5
1BF7
  8
241
 10
14.2517
 20
9.7919300000000007
 30
0.0
 11
14.2182
 21
9.6586599999999994
 31
0.0
  0
LINE
  5
1BF8
  8
241
 10
14.2182
 20
9.6586599999999994
 30
0.0
 11
14.1846
 21
9.5253999999999994
 31
0.0
  0
LINE
  5
1BF9
  8
241
 10
14.1846
 20
9.5253999999999994
 30
0.0
 11
14.151
 21
9.3921300000000016
 31
0.0
  0
LINE
  5
1BFA
  8
241
 10
14.151
 20
9.3921300000000016
 30
0.0
 11
14.1173
 21
9.2588699999999982
 31
0.0
  0
LINE
  5
1BFB
  8
241
 10
14.1173
 20
9.2588699999999982
 30
0.0
 11
14.0837
 21
9.1256099999999982
 31
0.0
  0
LINE
  5
1BFC
  8
241
 10
14.0837
 20
9.1256099999999982
 30
0.0
 11
14.050000000000001
 21
8.9923399999999987
 31
0.0
  0
LINE
  5
1BFD
  8
241
 10
9.9499999999999993
 20
8.9923399999999987
 30
0.0
 11
9.9163199999999971
 21
9.1256099999999982
 31
0.0
  0
LINE
  5
1BFE
  8
241
 10
9.9163199999999971
 20
9.1256099999999982
 30
0.0
 11
9.8826499999999982
 21
9.2588699999999982
 31
0.0
  0
LINE
  5
1BFF
  8
241
 10
9.8826499999999982
 20
9.2588699999999982
 30
0.0
 11
9.8490099999999998
 21
9.3921300000000016
 31
0.0
  0
LINE
  5
1C00
  8
241
 10
9.8490099999999998
 20
9.3921300000000016
 30
0.0
 11
9.8153899999999972
 21
9.5253999999999994
 31
0.0
  0
LINE
  5
1C01
  8
241
 10
9.8153899999999972
 20
9.5253999999999994
 30
0.0
 11
9.7818199999999997
 21
9.6586599999999994
 31
0.0
  0
LINE
  5
1C02
  8
241
 10
9.7818199999999997
 20
9.6586599999999994
 30
0.0
 11
9.7483000000000004
 21
9.7919300000000007
 31
0.0
  0
LINE
  5
1C03
  8
241
 10
9.7483000000000004
 20
9.7919300000000007
 30
0.0
 11
9.7148500000000002
 21
9.9251900000000006
 31
0.0
  0
LINE
  5
1C04
  8
241
 10
9.7148500000000002
 20
9.9251900000000006
 30
0.0
 11
9.6814699999999991
 21
10.0585
 31
0.0
  0
LINE
  5
1C05
  8
241
 10
9.6814699999999991
 20
10.0585
 30
0.0
 11
9.6481700000000004
 21
10.191700000000001
 31
0.0
  0
LINE
  5
1C06
  8
241
 10
9.6481700000000004
 20
10.191700000000001
 30
0.0
 11
9.6149699999999996
 21
10.324999999999999
 31
0.0
  0
LINE
  5
1C07
  8
241
 10
9.6149699999999996
 20
10.324999999999999
 30
0.0
 11
9.5818799999999982
 21
10.4582
 31
0.0
  0
LINE
  5
1C08
  8
241
 10
9.5818799999999982
 20
10.4582
 30
0.0
 11
9.5489099999999993
 21
10.5915
 31
0.0
  0
LINE
  5
1C09
  8
241
 10
9.5489099999999993
 20
10.5915
 30
0.0
 11
9.5160599999999995
 21
10.7248
 31
0.0
  0
LINE
  5
1C0A
  8
241
 10
9.5160599999999995
 20
10.7248
 30
0.0
 11
9.4833499999999997
 21
10.858000000000001
 31
0.0
  0
LINE
  5
1C0B
  8
241
 10
9.4833499999999997
 20
10.858000000000001
 30
0.0
 11
9.4507899999999996
 21
10.991300000000001
 31
0.0
  0
LINE
  5
1C0C
  8
241
 10
9.4507899999999996
 20
10.991300000000001
 30
0.0
 11
9.4183899999999987
 21
11.124599999999999
 31
0.0
  0
LINE
  5
1C0D
  8
241
 10
9.4183899999999987
 20
11.124599999999999
 30
0.0
 11
9.3861600000000003
 21
11.2578
 31
0.0
  0
LINE
  5
1C0E
  8
241
 10
9.3861600000000003
 20
11.2578
 30
0.0
 11
9.3541199999999982
 21
11.3911
 31
0.0
  0
LINE
  5
1C0F
  8
241
 10
9.3541199999999982
 20
11.3911
 30
0.0
 11
9.3222599999999982
 21
11.5244
 31
0.0
  0
LINE
  5
1C10
  8
241
 10
9.3222599999999982
 20
11.5244
 30
0.0
 11
9.2906099999999991
 21
11.6576
 31
0.0
  0
LINE
  5
1C11
  8
241
 10
9.2906099999999991
 20
11.6576
 30
0.0
 11
9.2591699999999992
 21
11.790900000000001
 31
0.0
  0
LINE
  5
1C12
  8
241
 10
9.2591699999999992
 20
11.790900000000001
 30
0.0
 11
9.2279500000000017
 21
11.924200000000001
 31
0.0
  0
LINE
  5
1C13
  8
241
 10
9.2279500000000017
 20
11.924200000000001
 30
0.0
 11
9.1969700000000003
 21
12.057399999999999
 31
0.0
  0
LINE
  5
1C14
  8
241
 10
9.1969700000000003
 20
12.057399999999999
 30
0.0
 11
9.1662300000000005
 21
12.1907
 31
0.0
  0
LINE
  5
1C15
  8
241
 10
9.1662300000000005
 20
12.1907
 30
0.0
 11
9.1357499999999998
 21
12.324
 31
0.0
  0
LINE
  5
1C16
  8
241
 10
9.1357499999999998
 20
12.324
 30
0.0
 11
9.1055399999999995
 21
12.4572
 31
0.0
  0
LINE
  5
1C17
  8
241
 10
9.1055399999999995
 20
12.4572
 30
0.0
 11
9.0755999999999997
 21
12.5905
 31
0.0
  0
LINE
  5
1C18
  8
241
 10
9.0755999999999997
 20
12.5905
 30
0.0
 11
9.0459499999999995
 21
12.723699999999999
 31
0.0
  0
LINE
  5
1C19
  8
241
 10
9.0459499999999995
 20
12.723699999999999
 30
0.0
 11
9.0166000000000004
 21
12.856999999999999
 31
0.0
  0
LINE
  5
1C1A
  8
241
 10
9.0166000000000004
 20
12.856999999999999
 30
0.0
 11
8.9875600000000002
 21
12.9903
 31
0.0
  0
LINE
  5
1C1B
  8
241
 10
8.9875600000000002
 20
12.9903
 30
0.0
 11
8.9588300000000007
 21
13.1235
 31
0.0
  0
LINE
  5
1C1C
  8
241
 10
8.9588300000000007
 20
13.1235
 30
0.0
 11
8.9304399999999973
 21
13.2568
 31
0.0
  0
LINE
  5
1C1D
  8
241
 10
8.9304399999999973
 20
13.2568
 30
0.0
 11
8.9023899999999987
 21
13.3901
 31
0.0
  0
LINE
  5
1C1E
  8
241
 10
8.9023899999999987
 20
13.3901
 30
0.0
 11
8.8746899999999975
 21
13.523300000000001
 31
0.0
  0
LINE
  5
1C1F
  8
241
 10
8.8746899999999975
 20
13.523300000000001
 30
0.0
 11
8.8473500000000005
 21
13.656599999999999
 31
0.0
  0
LINE
  5
1C20
  8
241
 10
8.8473500000000005
 20
13.656599999999999
 30
0.0
 11
8.8203899999999962
 21
13.789899999999999
 31
0.0
  0
LINE
  5
1C21
  8
241
 10
8.8203899999999962
 20
13.789899999999999
 30
0.0
 11
8.7938100000000006
 21
13.9231
 31
0.0
  0
LINE
  5
1C22
  8
241
 10
8.7938100000000006
 20
13.9231
 30
0.0
 11
8.7676199999999991
 21
14.0564
 31
0.0
  0
LINE
  5
1C23
  8
241
 10
8.7676199999999991
 20
14.0564
 30
0.0
 11
8.7418399999999998
 21
14.1897
 31
0.0
  0
LINE
  5
1C24
  8
241
 10
8.7418399999999998
 20
14.1897
 30
0.0
 11
8.7164800000000007
 21
14.322900000000001
 31
0.0
  0
LINE
  5
1C25
  8
241
 10
8.7164800000000007
 20
14.322900000000001
 30
0.0
 11
8.6915399999999998
 21
14.456200000000001
 31
0.0
  0
LINE
  5
1C26
  8
241
 10
8.6915399999999998
 20
14.456200000000001
 30
0.0
 11
8.6670400000000001
 21
14.589399999999999
 31
0.0
  0
LINE
  5
1C27
  8
241
 10
8.6670400000000001
 20
14.589399999999999
 30
0.0
 11
8.6429799999999979
 21
14.7227
 31
0.0
  0
LINE
  5
1C28
  8
241
 10
8.6429799999999979
 20
14.7227
 30
0.0
 11
8.6193899999999992
 21
14.856
 31
0.0
  0
LINE
  5
1C29
  8
241
 10
8.6193899999999992
 20
14.856
 30
0.0
 11
8.5962599999999991
 21
14.9892
 31
0.0
  0
LINE
  5
1C2A
  8
241
 10
8.5962599999999991
 20
14.9892
 30
0.0
 11
8.5736100000000004
 21
15.1225
 31
0.0
  0
LINE
  5
1C2B
  8
241
 10
8.5736100000000004
 20
15.1225
 30
0.0
 11
8.5514500000000009
 21
15.255800000000001
 31
0.0
  0
LINE
  5
1C2C
  8
241
 10
8.5514500000000009
 20
15.255800000000001
 30
0.0
 11
8.5297999999999998
 21
15.388999999999999
 31
0.0
  0
LINE
  5
1C2D
  8
241
 10
8.5297999999999998
 20
15.388999999999999
 30
0.0
 11
8.5086499999999976
 21
15.5223
 31
0.0
  0
LINE
  5
1C2E
  8
241
 10
8.5086499999999976
 20
15.5223
 30
0.0
 11
8.4880300000000002
 21
15.6556
 31
0.0
  0
LINE
  5
1C2F
  8
241
 10
8.4880300000000002
 20
15.6556
 30
0.0
 11
8.4679399999999987
 21
15.7888
 31
0.0
  0
LINE
  5
1C30
  8
241
 10
8.4679399999999987
 20
15.7888
 30
0.0
 11
8.4483899999999998
 21
15.9221
 31
0.0
  0
LINE
  5
1C31
  8
241
 10
8.4483899999999998
 20
15.9221
 30
0.0
 11
8.4293999999999976
 21
16.055399999999999
 31
0.0
  0
LINE
  5
1C32
  8
241
 10
8.4293999999999976
 20
16.055399999999999
 30
0.0
 11
8.4109800000000003
 21
16.188600000000001
 31
0.0
  0
LINE
  5
1C33
  8
241
 10
8.4109800000000003
 20
16.188600000000001
 30
0.0
 11
8.3931199999999961
 21
16.321899999999999
 31
0.0
  0
LINE
  5
1C34
  8
241
 10
8.3931199999999961
 20
16.321899999999999
 30
0.0
 11
8.3758600000000012
 21
16.455100000000002
 31
0.0
  0
LINE
  5
1C35
  8
241
 10
8.3758600000000012
 20
16.455100000000002
 30
0.0
 11
8.3591899999999981
 21
16.5884
 31
0.0
  0
LINE
  5
1C36
  8
241
 10
8.3591899999999981
 20
16.5884
 30
0.0
 11
8.3431300000000004
 21
16.721699999999998
 31
0.0
  0
LINE
  5
1C37
  8
241
 10
8.3431300000000004
 20
16.721699999999998
 30
0.0
 11
8.3276899999999987
 21
16.854900000000001
 31
0.0
  0
LINE
  5
1C38
  8
241
 10
8.3276899999999987
 20
16.854900000000001
 30
0.0
 11
8.3128700000000002
 21
16.988199999999999
 31
0.0
  0
LINE
  5
1C39
  8
241
 10
8.3128700000000002
 20
16.988199999999999
 30
0.0
 11
8.2987000000000002
 21
17.121500000000001
 31
0.0
  0
LINE
  5
1C3A
  8
241
 10
8.2987000000000002
 20
17.121500000000001
 30
0.0
 11
8.285169999999999
 21
17.2547
 31
0.0
  0
LINE
  5
1C3B
  8
241
 10
8.285169999999999
 20
17.2547
 30
0.0
 11
8.2723099999999992
 21
17.388000000000002
 31
0.0
  0
LINE
  5
1C3C
  8
241
 10
8.2723099999999992
 20
17.388000000000002
 30
0.0
 11
8.2601200000000006
 21
17.5213
 31
0.0
  0
LINE
  5
1C3D
  8
241
 10
8.2601200000000006
 20
17.5213
 30
0.0
 11
8.2486100000000011
 21
17.654499999999999
 31
0.0
  0
LINE
  5
1C3E
  8
241
 10
8.2486100000000011
 20
17.654499999999999
 30
0.0
 11
8.2377899999999986
 21
17.787800000000001
 31
0.0
  0
LINE
  5
1C3F
  8
241
 10
8.2377899999999986
 20
17.787800000000001
 30
0.0
 11
8.2276799999999977
 21
17.921099999999999
 31
0.0
  0
LINE
  5
1C40
  8
241
 10
8.2276799999999977
 20
17.921099999999999
 30
0.0
 11
8.21828
 21
18.054300000000001
 31
0.0
  0
LINE
  5
1C41
  8
241
 10
8.21828
 20
18.054300000000001
 30
0.0
 11
8.2096
 21
18.1876
 31
0.0
  0
LINE
  5
1C42
  8
241
 10
8.2096
 20
18.1876
 30
0.0
 11
8.2016600000000004
 21
18.320799999999998
 31
0.0
  0
LINE
  5
1C43
  8
241
 10
8.2016600000000004
 20
18.320799999999998
 30
0.0
 11
8.194469999999999
 21
18.4541
 31
0.0
  0
LINE
  5
1C44
  8
241
 10
8.194469999999999
 20
18.4541
 30
0.0
 11
8.1880299999999977
 21
18.587399999999999
 31
0.0
  0
LINE
  5
1C45
  8
241
 10
8.1880299999999977
 20
18.587399999999999
 30
0.0
 11
8.1823599999999992
 21
18.720600000000001
 31
0.0
  0
LINE
  5
1C46
  8
241
 10
8.1823599999999992
 20
18.720600000000001
 30
0.0
 11
8.1774699999999978
 21
18.853899999999999
 31
0.0
  0
LINE
  5
1C47
  8
241
 10
8.1774699999999978
 20
18.853899999999999
 30
0.0
 11
8.1733700000000002
 21
18.987200000000001
 31
0.0
  0
LINE
  5
1C48
  8
241
 10
8.1733700000000002
 20
18.987200000000001
 30
0.0
 11
8.1700600000000012
 21
19.1204
 31
0.0
  0
LINE
  5
1C49
  8
241
 10
8.1700600000000012
 20
19.1204
 30
0.0
 11
8.1675699999999978
 21
19.253699999999998
 31
0.0
  0
LINE
  5
1C4A
  8
241
 10
8.1675699999999978
 20
19.253699999999998
 30
0.0
 11
8.1659000000000006
 21
19.387
 31
0.0
  0
LINE
  5
1C4B
  8
241
 10
8.1659000000000006
 20
19.387
 30
0.0
 11
8.1650600000000004
 21
19.520199999999999
 31
0.0
  0
LINE
  5
1C4C
  8
241
 10
8.1650600000000004
 20
19.520199999999999
 30
0.0
 11
8.1650600000000004
 21
19.653500000000001
 31
0.0
  0
LINE
  5
1C4D
  8
241
 10
8.1650600000000004
 20
19.653500000000001
 30
0.0
 11
8.1659000000000006
 21
19.786799999999999
 31
0.0
  0
LINE
  5
1C4E
  8
241
 10
8.1659000000000006
 20
19.786799999999999
 30
0.0
 11
8.1675699999999978
 21
19.920000000000002
 31
0.0
  0
LINE
  5
1C4F
  8
241
 10
8.1675699999999978
 20
19.920000000000002
 30
0.0
 11
8.1700600000000012
 21
20.0533
 31
0.0
  0
LINE
  5
1C50
  8
241
 10
8.1700600000000012
 20
20.0533
 30
0.0
 11
8.1733700000000002
 21
20.186499999999999
 31
0.0
  0
LINE
  5
1C51
  8
241
 10
8.1733700000000002
 20
20.186499999999999
 30
0.0
 11
8.1774699999999978
 21
20.319800000000001
 31
0.0
  0
LINE
  5
1C52
  8
241
 10
8.1774699999999978
 20
20.319800000000001
 30
0.0
 11
8.1823599999999992
 21
20.453099999999999
 31
0.0
  0
LINE
  5
1C53
  8
241
 10
8.1823599999999992
 20
20.453099999999999
 30
0.0
 11
8.1880299999999977
 21
20.586300000000001
 31
0.0
  0
LINE
  5
1C54
  8
241
 10
8.1880299999999977
 20
20.586300000000001
 30
0.0
 11
8.194469999999999
 21
20.7196
 31
0.0
  0
LINE
  5
1C55
  8
241
 10
8.194469999999999
 20
20.7196
 30
0.0
 11
8.2016600000000004
 21
20.852900000000002
 31
0.0
  0
LINE
  5
1C56
  8
241
 10
8.2016600000000004
 20
20.852900000000002
 30
0.0
 11
8.2096
 21
20.9861
 31
0.0
  0
LINE
  5
1C57
  8
241
 10
8.2096
 20
20.9861
 30
0.0
 11
8.21828
 21
21.119399999999999
 31
0.0
  0
LINE
  5
1C58
  8
241
 10
8.21828
 20
21.119399999999999
 30
0.0
 11
8.2276799999999977
 21
21.252700000000001
 31
0.0
  0
LINE
  5
1C59
  8
241
 10
8.2276799999999977
 20
21.252700000000001
 30
0.0
 11
8.2377899999999986
 21
21.385899999999999
 31
0.0
  0
LINE
  5
1C5A
  8
241
 10
8.2377899999999986
 20
21.385899999999999
 30
0.0
 11
8.2486100000000011
 21
21.519200000000001
 31
0.0
  0
LINE
  5
1C5B
  8
241
 10
8.2486100000000011
 20
21.519200000000001
 30
0.0
 11
8.2601200000000006
 21
21.6525
 31
0.0
  0
LINE
  5
1C5C
  8
241
 10
8.2601200000000006
 20
21.6525
 30
0.0
 11
8.2723099999999992
 21
21.785699999999999
 31
0.0
  0
LINE
  5
1C5D
  8
241
 10
8.2723099999999992
 20
21.785699999999999
 30
0.0
 11
8.285169999999999
 21
21.919
 31
0.0
  0
LINE
  5
1C5E
  8
241
 10
8.285169999999999
 20
21.919
 30
0.0
 11
8.2987000000000002
 21
22.052199999999999
 31
0.0
  0
LINE
  5
1C5F
  8
241
 10
8.2987000000000002
 20
22.052199999999999
 30
0.0
 11
8.3128700000000002
 21
22.185500000000001
 31
0.0
  0
LINE
  5
1C60
  8
241
 10
8.3128700000000002
 20
22.185500000000001
 30
0.0
 11
8.3276899999999987
 21
22.3188
 31
0.0
  0
LINE
  5
1C61
  8
241
 10
8.3276899999999987
 20
22.3188
 30
0.0
 11
8.3431300000000004
 21
22.452000000000002
 31
0.0
  0
LINE
  5
1C62
  8
241
 10
8.3431300000000004
 20
22.452000000000002
 30
0.0
 11
8.3591899999999981
 21
22.5853
 31
0.0
  0
LINE
  5
1C63
  8
241
 10
8.3591899999999981
 20
22.5853
 30
0.0
 11
8.3758600000000012
 21
22.718599999999999
 31
0.0
  0
LINE
  5
1C64
  8
241
 10
8.3758600000000012
 20
22.718599999999999
 30
0.0
 11
8.3931199999999961
 21
22.851800000000001
 31
0.0
  0
LINE
  5
1C65
  8
241
 10
8.3931199999999961
 20
22.851800000000001
 30
0.0
 11
8.4109800000000003
 21
22.985099999999999
 31
0.0
  0
LINE
  5
1C66
  8
241
 10
8.4109800000000003
 20
22.985099999999999
 30
0.0
 11
8.4293999999999976
 21
23.118400000000001
 31
0.0
  0
LINE
  5
1C67
  8
241
 10
8.4293999999999976
 20
23.118400000000001
 30
0.0
 11
8.4483899999999998
 21
23.2516
 31
0.0
  0
LINE
  5
1C68
  8
241
 10
8.4483899999999998
 20
23.2516
 30
0.0
 11
8.4679399999999987
 21
23.384899999999998
 31
0.0
  0
LINE
  5
1C69
  8
241
 10
8.4679399999999987
 20
23.384899999999998
 30
0.0
 11
8.4880300000000002
 21
23.5182
 31
0.0
  0
LINE
  5
1C6A
  8
241
 10
8.4880300000000002
 20
23.5182
 30
0.0
 11
8.5086499999999976
 21
23.651399999999999
 31
0.0
  0
LINE
  5
1C6B
  8
241
 10
8.5086499999999976
 20
23.651399999999999
 30
0.0
 11
8.5297999999999998
 21
23.784700000000001
 31
0.0
  0
LINE
  5
1C6C
  8
241
 10
8.5297999999999998
 20
23.784700000000001
 30
0.0
 11
8.5514500000000009
 21
23.917899999999999
 31
0.0
  0
LINE
  5
1C6D
  8
241
 10
8.5514500000000009
 20
23.917899999999999
 30
0.0
 11
8.5736100000000004
 21
24.051200000000001
 31
0.0
  0
LINE
  5
1C6E
  8
241
 10
8.5736100000000004
 20
24.051200000000001
 30
0.0
 11
8.5962599999999991
 21
24.1845
 31
0.0
  0
LINE
  5
1C6F
  8
241
 10
8.5962599999999991
 20
24.1845
 30
0.0
 11
8.6193899999999992
 21
24.317699999999999
 31
0.0
  0
LINE
  5
1C70
  8
241
 10
8.6193899999999992
 20
24.317699999999999
 30
0.0
 11
8.6429799999999979
 21
24.451000000000001
 31
0.0
  0
LINE
  5
1C71
  8
241
 10
8.6429799999999979
 20
24.451000000000001
 30
0.0
 11
8.6670400000000001
 21
24.584299999999999
 31
0.0
  0
LINE
  5
1C72
  8
241
 10
8.6670400000000001
 20
24.584299999999999
 30
0.0
 11
8.6915399999999998
 21
24.717500000000001
 31
0.0
  0
LINE
  5
1C73
  8
241
 10
8.6915399999999998
 20
24.717500000000001
 30
0.0
 11
8.7164800000000007
 21
24.8508
 31
0.0
  0
LINE
  5
1C74
  8
241
 10
8.7164800000000007
 20
24.8508
 30
0.0
 11
8.7418399999999998
 21
24.984100000000002
 31
0.0
  0
LINE
  5
1C75
  8
241
 10
8.7418399999999998
 20
24.984100000000002
 30
0.0
 11
8.7676199999999991
 21
25.1173
 31
0.0
  0
LINE
  5
1C76
  8
241
 10
8.7676199999999991
 20
25.1173
 30
0.0
 11
8.7938100000000006
 21
25.250599999999999
 31
0.0
  0
LINE
  5
1C77
  8
241
 10
8.7938100000000006
 20
25.250599999999999
 30
0.0
 11
8.8203899999999962
 21
25.383900000000001
 31
0.0
  0
LINE
  5
1C78
  8
241
 10
8.8203899999999962
 20
25.383900000000001
 30
0.0
 11
8.8473500000000005
 21
25.517099999999999
 31
0.0
  0
LINE
  5
1C79
  8
241
 10
8.8473500000000005
 20
25.517099999999999
 30
0.0
 11
8.8746899999999975
 21
25.650400000000001
 31
0.0
  0
LINE
  5
1C7A
  8
241
 10
8.8746899999999975
 20
25.650400000000001
 30
0.0
 11
8.9023899999999987
 21
25.7837
 31
0.0
  0
LINE
  5
1C7B
  8
241
 10
8.9023899999999987
 20
25.7837
 30
0.0
 11
8.9304399999999973
 21
25.916899999999998
 31
0.0
  0
LINE
  5
1C7C
  8
241
 10
8.9304399999999973
 20
25.916899999999998
 30
0.0
 11
8.9588300000000007
 21
26.0502
 31
0.0
  0
LINE
  5
1C7D
  8
241
 10
8.9588300000000007
 20
26.0502
 30
0.0
 11
8.9875600000000002
 21
26.183399999999999
 31
0.0
  0
LINE
  5
1C7E
  8
241
 10
8.9875600000000002
 20
26.183399999999999
 30
0.0
 11
9.0166000000000004
 21
26.316700000000001
 31
0.0
  0
LINE
  5
1C7F
  8
241
 10
9.0166000000000004
 20
26.316700000000001
 30
0.0
 11
9.0459499999999995
 21
26.449999999999999
 31
0.0
  0
LINE
  5
1C80
  8
241
 10
9.0459499999999995
 20
26.449999999999999
 30
0.0
 11
9.0755999999999997
 21
26.583200000000001
 31
0.0
  0
LINE
  5
1C81
  8
241
 10
9.0755999999999997
 20
26.583200000000001
 30
0.0
 11
9.1055399999999995
 21
26.7165
 31
0.0
  0
LINE
  5
1C82
  8
241
 10
9.1055399999999995
 20
26.7165
 30
0.0
 11
9.1357499999999998
 21
26.849799999999998
 31
0.0
  0
LINE
  5
1C83
  8
241
 10
9.1357499999999998
 20
26.849799999999998
 30
0.0
 11
9.1662300000000005
 21
26.983000000000001
 31
0.0
  0
LINE
  5
1C84
  8
241
 10
9.1662300000000005
 20
26.983000000000001
 30
0.0
 11
9.1969700000000003
 21
27.116299999999999
 31
0.0
  0
LINE
  5
1C85
  8
241
 10
9.1969700000000003
 20
27.116299999999999
 30
0.0
 11
9.2279500000000017
 21
27.249600000000001
 31
0.0
  0
LINE
  5
1C86
  8
241
 10
9.2279500000000017
 20
27.249600000000001
 30
0.0
 11
9.2591699999999992
 21
27.3828
 31
0.0
  0
LINE
  5
1C87
  8
241
 10
9.2591699999999992
 20
27.3828
 30
0.0
 11
9.2906099999999991
 21
27.516100000000002
 31
0.0
  0
LINE
  5
1C88
  8
241
 10
9.2906099999999991
 20
27.516100000000002
 30
0.0
 11
9.3222599999999982
 21
27.6494
 31
0.0
  0
LINE
  5
1C89
  8
241
 10
9.3222599999999982
 20
27.6494
 30
0.0
 11
9.3541199999999982
 21
27.782599999999999
 31
0.0
  0
LINE
  5
1C8A
  8
241
 10
9.3541199999999982
 20
27.782599999999999
 30
0.0
 11
9.3861600000000003
 21
27.915900000000001
 31
0.0
  0
LINE
  5
1C8B
  8
241
 10
9.3861600000000003
 20
27.915900000000001
 30
0.0
 11
9.4183899999999987
 21
28.049099999999999
 31
0.0
  0
LINE
  5
1C8C
  8
241
 10
9.4183899999999987
 20
28.049099999999999
 30
0.0
 11
9.4507899999999996
 21
28.182400000000001
 31
0.0
  0
LINE
  5
1C8D
  8
241
 10
9.4507899999999996
 20
28.182400000000001
 30
0.0
 11
9.4833499999999997
 21
28.3157
 31
0.0
  0
LINE
  5
1C8E
  8
241
 10
9.4833499999999997
 20
28.3157
 30
0.0
 11
9.5160599999999995
 21
28.448899999999998
 31
0.0
  0
LINE
  5
1C8F
  8
241
 10
9.5160599999999995
 20
28.448899999999998
 30
0.0
 11
9.5489099999999993
 21
28.5822
 31
0.0
  0
LINE
  5
1C90
  8
241
 10
9.5489099999999993
 20
28.5822
 30
0.0
 11
9.5818799999999982
 21
28.715499999999999
 31
0.0
  0
LINE
  5
1C91
  8
241
 10
9.5818799999999982
 20
28.715499999999999
 30
0.0
 11
9.6149699999999996
 21
28.848700000000001
 31
0.0
  0
LINE
  5
1C92
  8
241
 10
9.6149699999999996
 20
28.848700000000001
 30
0.0
 11
9.6481700000000004
 21
28.981999999999999
 31
0.0
  0
LINE
  5
1C93
  8
241
 10
9.6481700000000004
 20
28.981999999999999
 30
0.0
 11
9.6814699999999991
 21
29.115300000000001
 31
0.0
  0
LINE
  5
1C94
  8
241
 10
9.6814699999999991
 20
29.115300000000001
 30
0.0
 11
9.7148500000000002
 21
29.2485
 31
0.0
  0
LINE
  5
1C95
  8
241
 10
9.7148500000000002
 20
29.2485
 30
0.0
 11
9.7483000000000004
 21
29.381799999999998
 31
0.0
  0
LINE
  5
1C96
  8
241
 10
9.7483000000000004
 20
29.381799999999998
 30
0.0
 11
9.7818199999999997
 21
29.5151
 31
0.0
  0
LINE
  5
1C97
  8
241
 10
9.7818199999999997
 20
29.5151
 30
0.0
 11
9.8153899999999972
 21
29.648299999999999
 31
0.0
  0
LINE
  5
1C98
  8
241
 10
9.8153899999999972
 20
29.648299999999999
 30
0.0
 11
9.8490099999999998
 21
29.781600000000001
 31
0.0
  0
LINE
  5
1C99
  8
241
 10
9.8490099999999998
 20
29.781600000000001
 30
0.0
 11
9.8826499999999982
 21
29.9148
 31
0.0
  0
LINE
  5
1C9A
  8
241
 10
9.8826499999999982
 20
29.9148
 30
0.0
 11
9.9163199999999971
 21
30.048100000000002
 31
0.0
  0
LINE
  5
1C9B
  8
241
 10
9.9163199999999971
 20
30.048100000000002
 30
0.0
 11
9.9499999999999993
 21
30.1814
 31
0.0
  0
LINE
  5
1C9C
  8
241
 10
-31.800000000000001
 20
-3.5945
 30
0.0
 11
-31.7636
 21
-3.5492900000000001
 31
0.0
  0
LINE
  5
1C9D
  8
241
 10
-31.7636
 20
-3.5492900000000001
 30
0.0
 11
-31.7273
 21
-3.5040699999999991
 31
0.0
  0
LINE
  5
1C9E
  8
241
 10
-31.7273
 20
-3.5040699999999991
 30
0.0
 11
-31.690899999999999
 21
-3.45886
 31
0.0
  0
LINE
  5
1C9F
  8
241
 10
-31.690899999999999
 20
-3.45886
 30
0.0
 11
-31.654599999999999
 21
-3.41364
 31
0.0
  0
LINE
  5
1CA0
  8
241
 10
-31.654599999999999
 20
-3.41364
 30
0.0
 11
-31.618300000000001
 21
-3.36843
 31
0.0
  0
LINE
  5
1CA1
  8
241
 10
-31.618300000000001
 20
-3.36843
 30
0.0
 11
-31.582100000000001
 21
-3.3232199999999992
 31
0.0
  0
LINE
  5
1CA2
  8
241
 10
-31.582100000000001
 20
-3.3232199999999992
 30
0.0
 11
-31.545999999999999
 21
-3.278
 31
0.0
  0
LINE
  5
1CA3
  8
241
 10
-31.545999999999999
 20
-3.278
 30
0.0
 11
-31.509899999999998
 21
-3.2327900000000001
 31
0.0
  0
LINE
  5
1CA4
  8
241
 10
-31.509899999999998
 20
-3.2327900000000001
 30
0.0
 11
-31.474
 21
-3.1875800000000001
 31
0.0
  0
LINE
  5
1CA5
  8
241
 10
-31.474
 20
-3.1875800000000001
 30
0.0
 11
-31.438099999999999
 21
-3.14236
 31
0.0
  0
LINE
  5
1CA6
  8
241
 10
-31.438099999999999
 20
-3.14236
 30
0.0
 11
-31.4024
 21
-3.0971500000000001
 31
0.0
  0
LINE
  5
1CA7
  8
241
 10
-31.4024
 20
-3.0971500000000001
 30
0.0
 11
-31.366800000000001
 21
-3.05193
 31
0.0
  0
LINE
  5
1CA8
  8
241
 10
-31.366800000000001
 20
-3.05193
 30
0.0
 11
-31.331299999999999
 21
-3.0067200000000001
 31
0.0
  0
LINE
  5
1CA9
  8
241
 10
-31.331299999999999
 20
-3.0067200000000001
 30
0.0
 11
-31.2959
 21
-2.9615099999999992
 31
0.0
  0
LINE
  5
1CAA
  8
241
 10
-31.2959
 20
-2.9615099999999992
 30
0.0
 11
-31.2608
 21
-2.91629
 31
0.0
  0
LINE
  5
1CAB
  8
241
 10
-31.2608
 20
-2.91629
 30
0.0
 11
-31.2258
 21
-2.8710800000000001
 31
0.0
  0
LINE
  5
1CAC
  8
241
 10
-31.2258
 20
-2.8710800000000001
 30
0.0
 11
-31.190999999999999
 21
-2.82586
 31
0.0
  0
LINE
  5
1CAD
  8
241
 10
-31.190999999999999
 20
-2.82586
 30
0.0
 11
-31.156300000000002
 21
-2.7806500000000001
 31
0.0
  0
LINE
  5
1CAE
  8
241
 10
-31.156300000000002
 20
-2.7806500000000001
 30
0.0
 11
-31.1219
 21
-2.7354400000000001
 31
0.0
  0
LINE
  5
1CAF
  8
241
 10
-31.1219
 20
-2.7354400000000001
 30
0.0
 11
-31.087700000000002
 21
-2.6902200000000001
 31
0.0
  0
LINE
  5
1CB0
  8
241
 10
-31.087700000000002
 20
-2.6902200000000001
 30
0.0
 11
-31.053799999999999
 21
-2.6450099999999992
 31
0.0
  0
LINE
  5
1CB1
  8
241
 10
-31.053799999999999
 20
-2.6450099999999992
 30
0.0
 11
-31.020099999999999
 21
-2.5998000000000001
 31
0.0
  0
LINE
  5
1CB2
  8
241
 10
-31.020099999999999
 20
-2.5998000000000001
 30
0.0
 11
-30.986599999999999
 21
-2.5545800000000001
 31
0.0
  0
LINE
  5
1CB3
  8
241
 10
-30.986599999999999
 20
-2.5545800000000001
 30
0.0
 11
-30.953399999999998
 21
-2.5093700000000001
 31
0.0
  0
LINE
  5
1CB4
  8
241
 10
-30.953399999999998
 20
-2.5093700000000001
 30
0.0
 11
-30.920500000000001
 21
-2.4641500000000001
 31
0.0
  0
LINE
  5
1CB5
  8
241
 10
-30.920500000000001
 20
-2.4641500000000001
 30
0.0
 11
-30.887799999999999
 21
-2.4189400000000001
 31
0.0
  0
LINE
  5
1CB6
  8
241
 10
-30.887799999999999
 20
-2.4189400000000001
 30
0.0
 11
-30.855499999999999
 21
-2.3737300000000001
 31
0.0
  0
LINE
  5
1CB7
  8
241
 10
-30.855499999999999
 20
-2.3737300000000001
 30
0.0
 11
-30.823499999999999
 21
-2.3285099999999992
 31
0.0
  0
LINE
  5
1CB8
  8
241
 10
-30.823499999999999
 20
-2.3285099999999992
 30
0.0
 11
-30.791799999999999
 21
-2.2833000000000001
 31
0.0
  0
LINE
  5
1CB9
  8
241
 10
-30.791799999999999
 20
-2.2833000000000001
 30
0.0
 11
-30.760400000000001
 21
-2.2380800000000001
 31
0.0
  0
LINE
  5
1CBA
  8
241
 10
-30.760400000000001
 20
-2.2380800000000001
 30
0.0
 11
-30.729399999999998
 21
-2.1928700000000001
 31
0.0
  0
LINE
  5
1CBB
  8
241
 10
-30.729399999999998
 20
-2.1928700000000001
 30
0.0
 11
-30.698699999999999
 21
-2.1476599999999979
 31
0.0
  0
LINE
  5
1CBC
  8
241
 10
-30.698699999999999
 20
-2.1476599999999979
 30
0.0
 11
-30.668399999999998
 21
-2.1024400000000001
 31
0.0
  0
LINE
  5
1CBD
  8
241
 10
-30.668399999999998
 20
-2.1024400000000001
 30
0.0
 11
-30.638500000000001
 21
-2.0572300000000001
 31
0.0
  0
LINE
  5
1CBE
  8
241
 10
-30.638500000000001
 20
-2.0572300000000001
 30
0.0
 11
-30.609000000000002
 21
-2.0120200000000001
 31
0.0
  0
LINE
  5
1CBF
  8
241
 10
-30.609000000000002
 20
-2.0120200000000001
 30
0.0
 11
-30.579799999999999
 21
-1.9668000000000001
 31
0.0
  0
LINE
  5
1CC0
  8
241
 10
-30.579799999999999
 20
-1.9668000000000001
 30
0.0
 11
-30.551100000000002
 21
-1.921589999999999
 31
0.0
  0
LINE
  5
1CC1
  8
241
 10
-30.551100000000002
 20
-1.921589999999999
 30
0.0
 11
-30.5228
 21
-1.8763700000000001
 31
0.0
  0
LINE
  5
1CC2
  8
241
 10
-30.5228
 20
-1.8763700000000001
 30
0.0
 11
-30.495000000000001
 21
-1.8311599999999979
 31
0.0
  0
LINE
  5
1CC3
  8
241
 10
-30.495000000000001
 20
-1.8311599999999979
 30
0.0
 11
-30.467600000000001
 21
-1.7859499999999979
 31
0.0
  0
LINE
  5
1CC4
  8
241
 10
-30.467600000000001
 20
-1.7859499999999979
 30
0.0
 11
-30.4407
 21
-1.740729999999999
 31
0.0
  0
LINE
  5
1CC5
  8
241
 10
-30.4407
 20
-1.740729999999999
 30
0.0
 11
-30.414200000000001
 21
-1.695519999999999
 31
0.0
  0
LINE
  5
1CC6
  8
241
 10
-30.414200000000001
 20
-1.695519999999999
 30
0.0
 11
-30.388200000000001
 21
-1.6503099999999991
 31
0.0
  0
LINE
  5
1CC7
  8
241
 10
-30.388200000000001
 20
-1.6503099999999991
 30
0.0
 11
-30.3627
 21
-1.6050899999999979
 31
0.0
  0
LINE
  5
1CC8
  8
241
 10
-30.3627
 20
-1.6050899999999979
 30
0.0
 11
-30.337700000000002
 21
-1.559879999999999
 31
0.0
  0
LINE
  5
1CC9
  8
241
 10
-30.337700000000002
 20
-1.559879999999999
 30
0.0
 11
-30.313300000000002
 21
-1.514659999999999
 31
0.0
  0
LINE
  5
1CCA
  8
241
 10
-30.313300000000002
 20
-1.514659999999999
 30
0.0
 11
-30.289300000000001
 21
-1.469449999999999
 31
0.0
  0
LINE
  5
1CCB
  8
241
 10
-30.289300000000001
 20
-1.469449999999999
 30
0.0
 11
-30.265899999999998
 21
-1.4242399999999991
 31
0.0
  0
LINE
  5
1CCC
  8
241
 10
-30.265899999999998
 20
-1.4242399999999991
 30
0.0
 11
-30.243099999999998
 21
-1.379019999999999
 31
0.0
  0
LINE
  5
1CCD
  8
241
 10
-30.243099999999998
 20
-1.379019999999999
 30
0.0
 11
-30.220800000000001
 21
-1.3338099999999991
 31
0.0
  0
LINE
  5
1CCE
  8
241
 10
-30.220800000000001
 20
-1.3338099999999991
 30
0.0
 11
-30.199100000000001
 21
-1.288589999999999
 31
0.0
  0
LINE
  5
1CCF
  8
241
 10
-30.199100000000001
 20
-1.288589999999999
 30
0.0
 11
-30.178000000000001
 21
-1.243379999999999
 31
0.0
  0
LINE
  5
1CD0
  8
241
 10
-30.178000000000001
 20
-1.243379999999999
 30
0.0
 11
-30.157499999999999
 21
-1.19817
 31
0.0
  0
LINE
  5
1CD1
  8
241
 10
-30.157499999999999
 20
-1.19817
 30
0.0
 11
-30.137599999999999
 21
-1.152949999999999
 31
0.0
  0
LINE
  5
1CD2
  8
241
 10
-30.137599999999999
 20
-1.152949999999999
 30
0.0
 11
-30.118300000000001
 21
-1.1077399999999991
 31
0.0
  0
LINE
  5
1CD3
  8
241
 10
-30.118300000000001
 20
-1.1077399999999991
 30
0.0
 11
-30.099699999999999
 21
-1.0625299999999991
 31
0.0
  0
LINE
  5
1CD4
  8
241
 10
-30.099699999999999
 20
-1.0625299999999991
 30
0.0
 11
-30.081700000000001
 21
-1.017309999999999
 31
0.0
  0
LINE
  5
1CD5
  8
241
 10
-30.081700000000001
 20
-1.017309999999999
 30
0.0
 11
-30.064299999999999
 21
-0.9720969999999999
 31
0.0
  0
LINE
  5
1CD6
  8
241
 10
-30.064299999999999
 20
-0.9720969999999999
 30
0.0
 11
-30.047599999999999
 21
-0.926884
 31
0.0
  0
LINE
  5
1CD7
  8
241
 10
-30.047599999999999
 20
-0.926884
 30
0.0
 11
-30.031600000000001
 21
-0.88167
 31
0.0
  0
LINE
  5
1CD8
  8
241
 10
-30.031600000000001
 20
-0.88167
 30
0.0
 11
-30.016300000000001
 21
-0.8364559999999999
 31
0.0
  0
LINE
  5
1CD9
  8
241
 10
-30.016300000000001
 20
-0.8364559999999999
 30
0.0
 11
-30.0017
 21
-0.791242
 31
0.0
  0
LINE
  5
1CDA
  8
241
 10
-30.0017
 20
-0.791242
 30
0.0
 11
-29.9878
 21
-0.746028
 31
0.0
  0
LINE
  5
1CDB
  8
241
 10
-29.9878
 20
-0.746028
 30
0.0
 11
-29.974699999999999
 21
-0.7008140000000001
 31
0.0
  0
LINE
  5
1CDC
  8
241
 10
-29.974699999999999
 20
-0.7008140000000001
 30
0.0
 11
-29.962199999999999
 21
-0.655601
 31
0.0
  0
LINE
  5
1CDD
  8
241
 10
-29.962199999999999
 20
-0.655601
 30
0.0
 11
-29.950500000000002
 21
-0.6103870000000002
 31
0.0
  0
LINE
  5
1CDE
  8
241
 10
-29.950500000000002
 20
-0.6103870000000002
 30
0.0
 11
-29.939599999999999
 21
-0.5651729999999999
 31
0.0
  0
LINE
  5
1CDF
  8
241
 10
-29.939599999999999
 20
-0.5651729999999999
 30
0.0
 11
-29.929500000000001
 21
-0.5199590000000001
 31
0.0
  0
LINE
  5
1CE0
  8
241
 10
-29.929500000000001
 20
-0.5199590000000001
 30
0.0
 11
-29.920100000000001
 21
-0.474745
 31
0.0
  0
LINE
  5
1CE1
  8
241
 10
-29.920100000000001
 20
-0.474745
 30
0.0
 11
-29.9115
 21
-0.4295310000000001
 31
0.0
  0
LINE
  5
1CE2
  8
241
 10
-29.9115
 20
-0.4295310000000001
 30
0.0
 11
-29.903700000000001
 21
-0.384318
 31
0.0
  0
LINE
  5
1CE3
  8
241
 10
-29.903700000000001
 20
-0.384318
 30
0.0
 11
-29.896799999999999
 21
-0.339104
 31
0.0
  0
LINE
  5
1CE4
  8
241
 10
-29.896799999999999
 20
-0.339104
 30
0.0
 11
-29.890699999999999
 21
-0.29389
 31
0.0
  0
LINE
  5
1CE5
  8
241
 10
-29.890699999999999
 20
-0.29389
 30
0.0
 11
-29.885400000000001
 21
-0.248676
 31
0.0
  0
LINE
  5
1CE6
  8
241
 10
-29.885400000000001
 20
-0.248676
 30
0.0
 11
-29.8809
 21
-0.203462
 31
0.0
  0
LINE
  5
1CE7
  8
241
 10
-29.8809
 20
-0.203462
 30
0.0
 11
-29.877400000000002
 21
-0.158248
 31
0.0
  0
LINE
  5
1CE8
  8
241
 10
-29.877400000000002
 20
-0.158248
 30
0.0
 11
-29.874700000000001
 21
-0.113035
 31
0.0
  0
LINE
  5
1CE9
  8
241
 10
-29.874700000000001
 20
-0.113035
 30
0.0
 11
-29.872900000000001
 21
-0.0678208
 31
0.0
  0
LINE
  5
1CEA
  8
241
 10
-29.872900000000001
 20
-0.0678208
 30
0.0
 11
-29.872
 21
-0.0226069
 31
0.0
  0
LINE
  5
1CEB
  8
241
 10
-29.872
 20
-0.0226069
 30
0.0
 11
-29.872
 21
0.0226069
 31
0.0
  0
LINE
  5
1CEC
  8
241
 10
-29.872
 20
0.0226069
 30
0.0
 11
-29.872900000000001
 21
0.0678208
 31
0.0
  0
LINE
  5
1CED
  8
241
 10
-29.872900000000001
 20
0.0678208
 30
0.0
 11
-29.874700000000001
 21
0.113035
 31
0.0
  0
LINE
  5
1CEE
  8
241
 10
-29.874700000000001
 20
0.113035
 30
0.0
 11
-29.877400000000002
 21
0.158248
 31
0.0
  0
LINE
  5
1CEF
  8
241
 10
-29.877400000000002
 20
0.158248
 30
0.0
 11
-29.8809
 21
0.203462
 31
0.0
  0
LINE
  5
1CF0
  8
241
 10
-29.8809
 20
0.203462
 30
0.0
 11
-29.885400000000001
 21
0.248676
 31
0.0
  0
LINE
  5
1CF1
  8
241
 10
-29.885400000000001
 20
0.248676
 30
0.0
 11
-29.890699999999999
 21
0.29389
 31
0.0
  0
LINE
  5
1CF2
  8
241
 10
-29.890699999999999
 20
0.29389
 30
0.0
 11
-29.896799999999999
 21
0.339104
 31
0.0
  0
LINE
  5
1CF3
  8
241
 10
-29.896799999999999
 20
0.339104
 30
0.0
 11
-29.903700000000001
 21
0.384318
 31
0.0
  0
LINE
  5
1CF4
  8
241
 10
-29.903700000000001
 20
0.384318
 30
0.0
 11
-29.9115
 21
0.4295310000000001
 31
0.0
  0
LINE
  5
1CF5
  8
241
 10
-29.9115
 20
0.4295310000000001
 30
0.0
 11
-29.920100000000001
 21
0.474745
 31
0.0
  0
LINE
  5
1CF6
  8
241
 10
-29.920100000000001
 20
0.474745
 30
0.0
 11
-29.929500000000001
 21
0.5199590000000001
 31
0.0
  0
LINE
  5
1CF7
  8
241
 10
-29.929500000000001
 20
0.5199590000000001
 30
0.0
 11
-29.939599999999999
 21
0.5651729999999999
 31
0.0
  0
LINE
  5
1CF8
  8
241
 10
-29.939599999999999
 20
0.5651729999999999
 30
0.0
 11
-29.950500000000002
 21
0.6103870000000002
 31
0.0
  0
LINE
  5
1CF9
  8
241
 10
-29.950500000000002
 20
0.6103870000000002
 30
0.0
 11
-29.962199999999999
 21
0.655601
 31
0.0
  0
LINE
  5
1CFA
  8
241
 10
-29.962199999999999
 20
0.655601
 30
0.0
 11
-29.974699999999999
 21
0.7008140000000001
 31
0.0
  0
LINE
  5
1CFB
  8
241
 10
-29.974699999999999
 20
0.7008140000000001
 30
0.0
 11
-29.9878
 21
0.746028
 31
0.0
  0
LINE
  5
1CFC
  8
241
 10
-29.9878
 20
0.746028
 30
0.0
 11
-30.0017
 21
0.791242
 31
0.0
  0
LINE
  5
1CFD
  8
241
 10
-30.0017
 20
0.791242
 30
0.0
 11
-30.016300000000001
 21
0.8364559999999999
 31
0.0
  0
LINE
  5
1CFE
  8
241
 10
-30.016300000000001
 20
0.8364559999999999
 30
0.0
 11
-30.031600000000001
 21
0.88167
 31
0.0
  0
LINE
  5
1CFF
  8
241
 10
-30.031600000000001
 20
0.88167
 30
0.0
 11
-30.047599999999999
 21
0.926884
 31
0.0
  0
LINE
  5
1D00
  8
241
 10
-30.047599999999999
 20
0.926884
 30
0.0
 11
-30.064299999999999
 21
0.9720969999999999
 31
0.0
  0
LINE
  5
1D01
  8
241
 10
-30.064299999999999
 20
0.9720969999999999
 30
0.0
 11
-30.081700000000001
 21
1.017309999999999
 31
0.0
  0
LINE
  5
1D02
  8
241
 10
-30.081700000000001
 20
1.017309999999999
 30
0.0
 11
-30.099699999999999
 21
1.0625299999999991
 31
0.0
  0
LINE
  5
1D03
  8
241
 10
-30.099699999999999
 20
1.0625299999999991
 30
0.0
 11
-30.118300000000001
 21
1.1077399999999991
 31
0.0
  0
LINE
  5
1D04
  8
241
 10
-30.118300000000001
 20
1.1077399999999991
 30
0.0
 11
-30.137599999999999
 21
1.152949999999999
 31
0.0
  0
LINE
  5
1D05
  8
241
 10
-30.137599999999999
 20
1.152949999999999
 30
0.0
 11
-30.157499999999999
 21
1.19817
 31
0.0
  0
LINE
  5
1D06
  8
241
 10
-30.157499999999999
 20
1.19817
 30
0.0
 11
-30.178000000000001
 21
1.243379999999999
 31
0.0
  0
LINE
  5
1D07
  8
241
 10
-30.178000000000001
 20
1.243379999999999
 30
0.0
 11
-30.199100000000001
 21
1.288589999999999
 31
0.0
  0
LINE
  5
1D08
  8
241
 10
-30.199100000000001
 20
1.288589999999999
 30
0.0
 11
-30.220800000000001
 21
1.3338099999999991
 31
0.0
  0
LINE
  5
1D09
  8
241
 10
-30.220800000000001
 20
1.3338099999999991
 30
0.0
 11
-30.243099999999998
 21
1.379019999999999
 31
0.0
  0
LINE
  5
1D0A
  8
241
 10
-30.243099999999998
 20
1.379019999999999
 30
0.0
 11
-30.265899999999998
 21
1.4242399999999991
 31
0.0
  0
LINE
  5
1D0B
  8
241
 10
-30.265899999999998
 20
1.4242399999999991
 30
0.0
 11
-30.289300000000001
 21
1.469449999999999
 31
0.0
  0
LINE
  5
1D0C
  8
241
 10
-30.289300000000001
 20
1.469449999999999
 30
0.0
 11
-30.313300000000002
 21
1.514659999999999
 31
0.0
  0
LINE
  5
1D0D
  8
241
 10
-30.313300000000002
 20
1.514659999999999
 30
0.0
 11
-30.337700000000002
 21
1.559879999999999
 31
0.0
  0
LINE
  5
1D0E
  8
241
 10
-30.337700000000002
 20
1.559879999999999
 30
0.0
 11
-30.3627
 21
1.6050899999999979
 31
0.0
  0
LINE
  5
1D0F
  8
241
 10
-30.3627
 20
1.6050899999999979
 30
0.0
 11
-30.388200000000001
 21
1.6503099999999991
 31
0.0
  0
LINE
  5
1D10
  8
241
 10
-30.388200000000001
 20
1.6503099999999991
 30
0.0
 11
-30.414200000000001
 21
1.695519999999999
 31
0.0
  0
LINE
  5
1D11
  8
241
 10
-30.414200000000001
 20
1.695519999999999
 30
0.0
 11
-30.4407
 21
1.740729999999999
 31
0.0
  0
LINE
  5
1D12
  8
241
 10
-30.4407
 20
1.740729999999999
 30
0.0
 11
-30.467600000000001
 21
1.7859499999999979
 31
0.0
  0
LINE
  5
1D13
  8
241
 10
-30.467600000000001
 20
1.7859499999999979
 30
0.0
 11
-30.495000000000001
 21
1.8311599999999979
 31
0.0
  0
LINE
  5
1D14
  8
241
 10
-30.495000000000001
 20
1.8311599999999979
 30
0.0
 11
-30.5228
 21
1.8763700000000001
 31
0.0
  0
LINE
  5
1D15
  8
241
 10
-30.5228
 20
1.8763700000000001
 30
0.0
 11
-30.551100000000002
 21
1.921589999999999
 31
0.0
  0
LINE
  5
1D16
  8
241
 10
-30.551100000000002
 20
1.921589999999999
 30
0.0
 11
-30.579799999999999
 21
1.9668000000000001
 31
0.0
  0
LINE
  5
1D17
  8
241
 10
-30.579799999999999
 20
1.9668000000000001
 30
0.0
 11
-30.609000000000002
 21
2.0120200000000001
 31
0.0
  0
LINE
  5
1D18
  8
241
 10
-30.609000000000002
 20
2.0120200000000001
 30
0.0
 11
-30.638500000000001
 21
2.0572300000000001
 31
0.0
  0
LINE
  5
1D19
  8
241
 10
-30.638500000000001
 20
2.0572300000000001
 30
0.0
 11
-30.668399999999998
 21
2.1024400000000001
 31
0.0
  0
LINE
  5
1D1A
  8
241
 10
-30.668399999999998
 20
2.1024400000000001
 30
0.0
 11
-30.698699999999999
 21
2.1476599999999979
 31
0.0
  0
LINE
  5
1D1B
  8
241
 10
-30.698699999999999
 20
2.1476599999999979
 30
0.0
 11
-30.729399999999998
 21
2.1928700000000001
 31
0.0
  0
LINE
  5
1D1C
  8
241
 10
-30.729399999999998
 20
2.1928700000000001
 30
0.0
 11
-30.760400000000001
 21
2.2380800000000001
 31
0.0
  0
LINE
  5
1D1D
  8
241
 10
-30.760400000000001
 20
2.2380800000000001
 30
0.0
 11
-30.791799999999999
 21
2.2833000000000001
 31
0.0
  0
LINE
  5
1D1E
  8
241
 10
-30.791799999999999
 20
2.2833000000000001
 30
0.0
 11
-30.823499999999999
 21
2.3285099999999992
 31
0.0
  0
LINE
  5
1D1F
  8
241
 10
-30.823499999999999
 20
2.3285099999999992
 30
0.0
 11
-30.855499999999999
 21
2.3737300000000001
 31
0.0
  0
LINE
  5
1D20
  8
241
 10
-30.855499999999999
 20
2.3737300000000001
 30
0.0
 11
-30.887799999999999
 21
2.4189400000000001
 31
0.0
  0
LINE
  5
1D21
  8
241
 10
-30.887799999999999
 20
2.4189400000000001
 30
0.0
 11
-30.920500000000001
 21
2.4641500000000001
 31
0.0
  0
LINE
  5
1D22
  8
241
 10
-30.920500000000001
 20
2.4641500000000001
 30
0.0
 11
-30.953399999999998
 21
2.5093700000000001
 31
0.0
  0
LINE
  5
1D23
  8
241
 10
-30.953399999999998
 20
2.5093700000000001
 30
0.0
 11
-30.986599999999999
 21
2.5545800000000001
 31
0.0
  0
LINE
  5
1D24
  8
241
 10
-30.986599999999999
 20
2.5545800000000001
 30
0.0
 11
-31.020099999999999
 21
2.5998000000000001
 31
0.0
  0
LINE
  5
1D25
  8
241
 10
-31.020099999999999
 20
2.5998000000000001
 30
0.0
 11
-31.053799999999999
 21
2.6450099999999992
 31
0.0
  0
LINE
  5
1D26
  8
241
 10
-31.053799999999999
 20
2.6450099999999992
 30
0.0
 11
-31.087700000000002
 21
2.6902200000000001
 31
0.0
  0
LINE
  5
1D27
  8
241
 10
-31.087700000000002
 20
2.6902200000000001
 30
0.0
 11
-31.1219
 21
2.7354400000000001
 31
0.0
  0
LINE
  5
1D28
  8
241
 10
-31.1219
 20
2.7354400000000001
 30
0.0
 11
-31.156300000000002
 21
2.7806500000000001
 31
0.0
  0
LINE
  5
1D29
  8
241
 10
-31.156300000000002
 20
2.7806500000000001
 30
0.0
 11
-31.190999999999999
 21
2.82586
 31
0.0
  0
LINE
  5
1D2A
  8
241
 10
-31.190999999999999
 20
2.82586
 30
0.0
 11
-31.2258
 21
2.8710800000000001
 31
0.0
  0
LINE
  5
1D2B
  8
241
 10
-31.2258
 20
2.8710800000000001
 30
0.0
 11
-31.2608
 21
2.91629
 31
0.0
  0
LINE
  5
1D2C
  8
241
 10
-31.2608
 20
2.91629
 30
0.0
 11
-31.2959
 21
2.9615099999999992
 31
0.0
  0
LINE
  5
1D2D
  8
241
 10
-31.2959
 20
2.9615099999999992
 30
0.0
 11
-31.331299999999999
 21
3.0067200000000001
 31
0.0
  0
LINE
  5
1D2E
  8
241
 10
-31.331299999999999
 20
3.0067200000000001
 30
0.0
 11
-31.366800000000001
 21
3.05193
 31
0.0
  0
LINE
  5
1D2F
  8
241
 10
-31.366800000000001
 20
3.05193
 30
0.0
 11
-31.4024
 21
3.0971500000000001
 31
0.0
  0
LINE
  5
1D30
  8
241
 10
-31.4024
 20
3.0971500000000001
 30
0.0
 11
-31.438099999999999
 21
3.14236
 31
0.0
  0
LINE
  5
1D31
  8
241
 10
-31.438099999999999
 20
3.14236
 30
0.0
 11
-31.474
 21
3.1875800000000001
 31
0.0
  0
LINE
  5
1D32
  8
241
 10
-31.474
 20
3.1875800000000001
 30
0.0
 11
-31.509899999999998
 21
3.2327900000000001
 31
0.0
  0
LINE
  5
1D33
  8
241
 10
-31.509899999999998
 20
3.2327900000000001
 30
0.0
 11
-31.545999999999999
 21
3.278
 31
0.0
  0
LINE
  5
1D34
  8
241
 10
-31.545999999999999
 20
3.278
 30
0.0
 11
-31.582100000000001
 21
3.3232199999999992
 31
0.0
  0
LINE
  5
1D35
  8
241
 10
-31.582100000000001
 20
3.3232199999999992
 30
0.0
 11
-31.618300000000001
 21
3.36843
 31
0.0
  0
LINE
  5
1D36
  8
241
 10
-31.618300000000001
 20
3.36843
 30
0.0
 11
-31.654599999999999
 21
3.41364
 31
0.0
  0
LINE
  5
1D37
  8
241
 10
-31.654599999999999
 20
3.41364
 30
0.0
 11
-31.690899999999999
 21
3.45886
 31
0.0
  0
LINE
  5
1D38
  8
241
 10
-31.690899999999999
 20
3.45886
 30
0.0
 11
-31.7273
 21
3.5040699999999991
 31
0.0
  0
LINE
  5
1D39
  8
241
 10
-31.7273
 20
3.5040699999999991
 30
0.0
 11
-31.7636
 21
3.5492900000000001
 31
0.0
  0
LINE
  5
1D3A
  8
241
 10
-31.7636
 20
3.5492900000000001
 30
0.0
 11
-31.800000000000001
 21
3.5945
 31
0.0
  0
LINE
  5
1D3B
  8
241
 10
14.050000000000001
 20
-30.1814
 30
0.0
 11
14.0837
 21
-30.048100000000002
 31
0.0
  0
LINE
  5
1D3C
  8
241
 10
14.0837
 20
-30.048100000000002
 30
0.0
 11
14.1173
 21
-29.9148
 31
0.0
  0
LINE
  5
1D3D
  8
241
 10
14.1173
 20
-29.9148
 30
0.0
 11
14.151
 21
-29.781600000000001
 31
0.0
  0
LINE
  5
1D3E
  8
241
 10
14.151
 20
-29.781600000000001
 30
0.0
 11
14.1846
 21
-29.648299999999999
 31
0.0
  0
LINE
  5
1D3F
  8
241
 10
14.1846
 20
-29.648299999999999
 30
0.0
 11
14.2182
 21
-29.5151
 31
0.0
  0
LINE
  5
1D40
  8
241
 10
14.2182
 20
-29.5151
 30
0.0
 11
14.2517
 21
-29.381799999999998
 31
0.0
  0
LINE
  5
1D41
  8
241
 10
14.2517
 20
-29.381799999999998
 30
0.0
 11
14.2852
 21
-29.2485
 31
0.0
  0
LINE
  5
1D42
  8
241
 10
14.2852
 20
-29.2485
 30
0.0
 11
14.3185
 21
-29.115300000000001
 31
0.0
  0
LINE
  5
1D43
  8
241
 10
14.3185
 20
-29.115300000000001
 30
0.0
 11
14.351800000000001
 21
-28.981999999999999
 31
0.0
  0
LINE
  5
1D44
  8
241
 10
14.351800000000001
 20
-28.981999999999999
 30
0.0
 11
14.385
 21
-28.848700000000001
 31
0.0
  0
LINE
  5
1D45
  8
241
 10
14.385
 20
-28.848700000000001
 30
0.0
 11
14.418100000000001
 21
-28.715499999999999
 31
0.0
  0
LINE
  5
1D46
  8
241
 10
14.418100000000001
 20
-28.715499999999999
 30
0.0
 11
14.4511
 21
-28.5822
 31
0.0
  0
LINE
  5
1D47
  8
241
 10
14.4511
 20
-28.5822
 30
0.0
 11
14.4839
 21
-28.448899999999998
 31
0.0
  0
LINE
  5
1D48
  8
241
 10
14.4839
 20
-28.448899999999998
 30
0.0
 11
14.5166
 21
-28.3157
 31
0.0
  0
LINE
  5
1D49
  8
241
 10
14.5166
 20
-28.3157
 30
0.0
 11
14.549200000000001
 21
-28.182400000000001
 31
0.0
  0
LINE
  5
1D4A
  8
241
 10
14.549200000000001
 20
-28.182400000000001
 30
0.0
 11
14.5816
 21
-28.049099999999999
 31
0.0
  0
LINE
  5
1D4B
  8
241
 10
14.5816
 20
-28.049099999999999
 30
0.0
 11
14.613799999999999
 21
-27.915900000000001
 31
0.0
  0
LINE
  5
1D4C
  8
241
 10
14.613799999999999
 20
-27.915900000000001
 30
0.0
 11
14.645899999999999
 21
-27.782599999999999
 31
0.0
  0
LINE
  5
1D4D
  8
241
 10
14.645899999999999
 20
-27.782599999999999
 30
0.0
 11
14.6777
 21
-27.6494
 31
0.0
  0
LINE
  5
1D4E
  8
241
 10
14.6777
 20
-27.6494
 30
0.0
 11
14.7094
 21
-27.516100000000002
 31
0.0
  0
LINE
  5
1D4F
  8
241
 10
14.7094
 20
-27.516100000000002
 30
0.0
 11
14.7408
 21
-27.3828
 31
0.0
  0
LINE
  5
1D50
  8
241
 10
14.7408
 20
-27.3828
 30
0.0
 11
14.772
 21
-27.249600000000001
 31
0.0
  0
LINE
  5
1D51
  8
241
 10
14.772
 20
-27.249600000000001
 30
0.0
 11
14.803000000000001
 21
-27.116299999999999
 31
0.0
  0
LINE
  5
1D52
  8
241
 10
14.803000000000001
 20
-27.116299999999999
 30
0.0
 11
14.8338
 21
-26.983000000000001
 31
0.0
  0
LINE
  5
1D53
  8
241
 10
14.8338
 20
-26.983000000000001
 30
0.0
 11
14.8642
 21
-26.849799999999998
 31
0.0
  0
LINE
  5
1D54
  8
241
 10
14.8642
 20
-26.849799999999998
 30
0.0
 11
14.894500000000001
 21
-26.7165
 31
0.0
  0
LINE
  5
1D55
  8
241
 10
14.894500000000001
 20
-26.7165
 30
0.0
 11
14.9244
 21
-26.583200000000001
 31
0.0
  0
LINE
  5
1D56
  8
241
 10
14.9244
 20
-26.583200000000001
 30
0.0
 11
14.9541
 21
-26.449999999999999
 31
0.0
  0
LINE
  5
1D57
  8
241
 10
14.9541
 20
-26.449999999999999
 30
0.0
 11
14.9834
 21
-26.316700000000001
 31
0.0
  0
LINE
  5
1D58
  8
241
 10
14.9834
 20
-26.316700000000001
 30
0.0
 11
15.0124
 21
-26.183399999999999
 31
0.0
  0
LINE
  5
1D59
  8
241
 10
15.0124
 20
-26.183399999999999
 30
0.0
 11
15.0412
 21
-26.0502
 31
0.0
  0
LINE
  5
1D5A
  8
241
 10
15.0412
 20
-26.0502
 30
0.0
 11
15.069599999999999
 21
-25.916899999999998
 31
0.0
  0
LINE
  5
1D5B
  8
241
 10
15.069599999999999
 20
-25.916899999999998
 30
0.0
 11
15.0976
 21
-25.7837
 31
0.0
  0
LINE
  5
1D5C
  8
241
 10
15.0976
 20
-25.7837
 30
0.0
 11
15.125299999999999
 21
-25.650400000000001
 31
0.0
  0
LINE
  5
1D5D
  8
241
 10
15.125299999999999
 20
-25.650400000000001
 30
0.0
 11
15.1526
 21
-25.517099999999999
 31
0.0
  0
LINE
  5
1D5E
  8
241
 10
15.1526
 20
-25.517099999999999
 30
0.0
 11
15.179600000000001
 21
-25.383900000000001
 31
0.0
  0
LINE
  5
1D5F
  8
241
 10
15.179600000000001
 20
-25.383900000000001
 30
0.0
 11
15.206200000000001
 21
-25.250599999999999
 31
0.0
  0
LINE
  5
1D60
  8
241
 10
15.206200000000001
 20
-25.250599999999999
 30
0.0
 11
15.2324
 21
-25.1173
 31
0.0
  0
LINE
  5
1D61
  8
241
 10
15.2324
 20
-25.1173
 30
0.0
 11
15.2582
 21
-24.984100000000002
 31
0.0
  0
LINE
  5
1D62
  8
241
 10
15.2582
 20
-24.984100000000002
 30
0.0
 11
15.2835
 21
-24.8508
 31
0.0
  0
LINE
  5
1D63
  8
241
 10
15.2835
 20
-24.8508
 30
0.0
 11
15.3085
 21
-24.717500000000001
 31
0.0
  0
LINE
  5
1D64
  8
241
 10
15.3085
 20
-24.717500000000001
 30
0.0
 11
15.333
 21
-24.584299999999999
 31
0.0
  0
LINE
  5
1D65
  8
241
 10
15.333
 20
-24.584299999999999
 30
0.0
 11
15.356999999999999
 21
-24.451000000000001
 31
0.0
  0
LINE
  5
1D66
  8
241
 10
15.356999999999999
 20
-24.451000000000001
 30
0.0
 11
15.380599999999999
 21
-24.317699999999999
 31
0.0
  0
LINE
  5
1D67
  8
241
 10
15.380599999999999
 20
-24.317699999999999
 30
0.0
 11
15.403700000000001
 21
-24.1845
 31
0.0
  0
LINE
  5
1D68
  8
241
 10
15.403700000000001
 20
-24.1845
 30
0.0
 11
15.426399999999999
 21
-24.051200000000001
 31
0.0
  0
LINE
  5
1D69
  8
241
 10
15.426399999999999
 20
-24.051200000000001
 30
0.0
 11
15.448499999999999
 21
-23.917899999999999
 31
0.0
  0
LINE
  5
1D6A
  8
241
 10
15.448499999999999
 20
-23.917899999999999
 30
0.0
 11
15.4702
 21
-23.784700000000001
 31
0.0
  0
LINE
  5
1D6B
  8
241
 10
15.4702
 20
-23.784700000000001
 30
0.0
 11
15.491300000000001
 21
-23.651399999999999
 31
0.0
  0
LINE
  5
1D6C
  8
241
 10
15.491300000000001
 20
-23.651399999999999
 30
0.0
 11
15.512
 21
-23.5182
 31
0.0
  0
LINE
  5
1D6D
  8
241
 10
15.512
 20
-23.5182
 30
0.0
 11
15.5321
 21
-23.384899999999998
 31
0.0
  0
LINE
  5
1D6E
  8
241
 10
15.5321
 20
-23.384899999999998
 30
0.0
 11
15.551600000000001
 21
-23.2516
 31
0.0
  0
LINE
  5
1D6F
  8
241
 10
15.551600000000001
 20
-23.2516
 30
0.0
 11
15.570600000000001
 21
-23.118400000000001
 31
0.0
  0
LINE
  5
1D70
  8
241
 10
15.570600000000001
 20
-23.118400000000001
 30
0.0
 11
15.589
 21
-22.985099999999999
 31
0.0
  0
LINE
  5
1D71
  8
241
 10
15.589
 20
-22.985099999999999
 30
0.0
 11
15.6069
 21
-22.851800000000001
 31
0.0
  0
LINE
  5
1D72
  8
241
 10
15.6069
 20
-22.851800000000001
 30
0.0
 11
15.6241
 21
-22.718599999999999
 31
0.0
  0
LINE
  5
1D73
  8
241
 10
15.6241
 20
-22.718599999999999
 30
0.0
 11
15.6408
 21
-22.5853
 31
0.0
  0
LINE
  5
1D74
  8
241
 10
15.6408
 20
-22.5853
 30
0.0
 11
15.6569
 21
-22.452000000000002
 31
0.0
  0
LINE
  5
1D75
  8
241
 10
15.6569
 20
-22.452000000000002
 30
0.0
 11
15.6723
 21
-22.3188
 31
0.0
  0
LINE
  5
1D76
  8
241
 10
15.6723
 20
-22.3188
 30
0.0
 11
15.687099999999999
 21
-22.185500000000001
 31
0.0
  0
LINE
  5
1D77
  8
241
 10
15.687099999999999
 20
-22.185500000000001
 30
0.0
 11
15.7013
 21
-22.052199999999999
 31
0.0
  0
LINE
  5
1D78
  8
241
 10
15.7013
 20
-22.052199999999999
 30
0.0
 11
15.7148
 21
-21.919
 31
0.0
  0
LINE
  5
1D79
  8
241
 10
15.7148
 20
-21.919
 30
0.0
 11
15.7277
 21
-21.785699999999999
 31
0.0
  0
LINE
  5
1D7A
  8
241
 10
15.7277
 20
-21.785699999999999
 30
0.0
 11
15.7399
 21
-21.6525
 31
0.0
  0
LINE
  5
1D7B
  8
241
 10
15.7399
 20
-21.6525
 30
0.0
 11
15.7514
 21
-21.519200000000001
 31
0.0
  0
LINE
  5
1D7C
  8
241
 10
15.7514
 20
-21.519200000000001
 30
0.0
 11
15.7622
 21
-21.385899999999999
 31
0.0
  0
LINE
  5
1D7D
  8
241
 10
15.7622
 20
-21.385899999999999
 30
0.0
 11
15.7723
 21
-21.252700000000001
 31
0.0
  0
LINE
  5
1D7E
  8
241
 10
15.7723
 20
-21.252700000000001
 30
0.0
 11
15.781700000000001
 21
-21.119399999999999
 31
0.0
  0
LINE
  5
1D7F
  8
241
 10
15.781700000000001
 20
-21.119399999999999
 30
0.0
 11
15.7904
 21
-20.9861
 31
0.0
  0
LINE
  5
1D80
  8
241
 10
15.7904
 20
-20.9861
 30
0.0
 11
15.798299999999999
 21
-20.852900000000002
 31
0.0
  0
LINE
  5
1D81
  8
241
 10
15.798299999999999
 20
-20.852900000000002
 30
0.0
 11
15.8055
 21
-20.7196
 31
0.0
  0
LINE
  5
1D82
  8
241
 10
15.8055
 20
-20.7196
 30
0.0
 11
15.811999999999999
 21
-20.586300000000001
 31
0.0
  0
LINE
  5
1D83
  8
241
 10
15.811999999999999
 20
-20.586300000000001
 30
0.0
 11
15.817600000000001
 21
-20.453099999999999
 31
0.0
  0
LINE
  5
1D84
  8
241
 10
15.817600000000001
 20
-20.453099999999999
 30
0.0
 11
15.8225
 21
-20.319800000000001
 31
0.0
  0
LINE
  5
1D85
  8
241
 10
15.8225
 20
-20.319800000000001
 30
0.0
 11
15.826599999999999
 21
-20.186499999999999
 31
0.0
  0
LINE
  5
1D86
  8
241
 10
15.826599999999999
 20
-20.186499999999999
 30
0.0
 11
15.8299
 21
-20.0533
 31
0.0
  0
LINE
  5
1D87
  8
241
 10
15.8299
 20
-20.0533
 30
0.0
 11
15.8324
 21
-19.920000000000002
 31
0.0
  0
LINE
  5
1D88
  8
241
 10
15.8324
 20
-19.920000000000002
 30
0.0
 11
15.834099999999999
 21
-19.786799999999999
 31
0.0
  0
LINE
  5
1D89
  8
241
 10
15.834099999999999
 20
-19.786799999999999
 30
0.0
 11
15.834899999999999
 21
-19.653500000000001
 31
0.0
  0
LINE
  5
1D8A
  8
241
 10
15.834899999999999
 20
-19.653500000000001
 30
0.0
 11
15.834899999999999
 21
-19.520199999999999
 31
0.0
  0
LINE
  5
1D8B
  8
241
 10
15.834899999999999
 20
-19.520199999999999
 30
0.0
 11
15.834099999999999
 21
-19.387
 31
0.0
  0
LINE
  5
1D8C
  8
241
 10
15.834099999999999
 20
-19.387
 30
0.0
 11
15.8324
 21
-19.253699999999998
 31
0.0
  0
LINE
  5
1D8D
  8
241
 10
15.8324
 20
-19.253699999999998
 30
0.0
 11
15.8299
 21
-19.1204
 31
0.0
  0
LINE
  5
1D8E
  8
241
 10
15.8299
 20
-19.1204
 30
0.0
 11
15.826599999999999
 21
-18.987200000000001
 31
0.0
  0
LINE
  5
1D8F
  8
241
 10
15.826599999999999
 20
-18.987200000000001
 30
0.0
 11
15.8225
 21
-18.853899999999999
 31
0.0
  0
LINE
  5
1D90
  8
241
 10
15.8225
 20
-18.853899999999999
 30
0.0
 11
15.817600000000001
 21
-18.720600000000001
 31
0.0
  0
LINE
  5
1D91
  8
241
 10
15.817600000000001
 20
-18.720600000000001
 30
0.0
 11
15.811999999999999
 21
-18.587399999999999
 31
0.0
  0
LINE
  5
1D92
  8
241
 10
15.811999999999999
 20
-18.587399999999999
 30
0.0
 11
15.8055
 21
-18.4541
 31
0.0
  0
LINE
  5
1D93
  8
241
 10
15.8055
 20
-18.4541
 30
0.0
 11
15.798299999999999
 21
-18.320799999999998
 31
0.0
  0
LINE
  5
1D94
  8
241
 10
15.798299999999999
 20
-18.320799999999998
 30
0.0
 11
15.7904
 21
-18.1876
 31
0.0
  0
LINE
  5
1D95
  8
241
 10
15.7904
 20
-18.1876
 30
0.0
 11
15.781700000000001
 21
-18.054300000000001
 31
0.0
  0
LINE
  5
1D96
  8
241
 10
15.781700000000001
 20
-18.054300000000001
 30
0.0
 11
15.7723
 21
-17.921099999999999
 31
0.0
  0
LINE
  5
1D97
  8
241
 10
15.7723
 20
-17.921099999999999
 30
0.0
 11
15.7622
 21
-17.787800000000001
 31
0.0
  0
LINE
  5
1D98
  8
241
 10
15.7622
 20
-17.787800000000001
 30
0.0
 11
15.7514
 21
-17.654499999999999
 31
0.0
  0
LINE
  5
1D99
  8
241
 10
15.7514
 20
-17.654499999999999
 30
0.0
 11
15.7399
 21
-17.5213
 31
0.0
  0
LINE
  5
1D9A
  8
241
 10
15.7399
 20
-17.5213
 30
0.0
 11
15.7277
 21
-17.388000000000002
 31
0.0
  0
LINE
  5
1D9B
  8
241
 10
15.7277
 20
-17.388000000000002
 30
0.0
 11
15.7148
 21
-17.2547
 31
0.0
  0
LINE
  5
1D9C
  8
241
 10
15.7148
 20
-17.2547
 30
0.0
 11
15.7013
 21
-17.121500000000001
 31
0.0
  0
LINE
  5
1D9D
  8
241
 10
15.7013
 20
-17.121500000000001
 30
0.0
 11
15.687099999999999
 21
-16.988199999999999
 31
0.0
  0
LINE
  5
1D9E
  8
241
 10
15.687099999999999
 20
-16.988199999999999
 30
0.0
 11
15.6723
 21
-16.854900000000001
 31
0.0
  0
LINE
  5
1D9F
  8
241
 10
15.6723
 20
-16.854900000000001
 30
0.0
 11
15.6569
 21
-16.721699999999998
 31
0.0
  0
LINE
  5
1DA0
  8
241
 10
15.6569
 20
-16.721699999999998
 30
0.0
 11
15.6408
 21
-16.5884
 31
0.0
  0
LINE
  5
1DA1
  8
241
 10
15.6408
 20
-16.5884
 30
0.0
 11
15.6241
 21
-16.455100000000002
 31
0.0
  0
LINE
  5
1DA2
  8
241
 10
15.6241
 20
-16.455100000000002
 30
0.0
 11
15.6069
 21
-16.321899999999999
 31
0.0
  0
LINE
  5
1DA3
  8
241
 10
15.6069
 20
-16.321899999999999
 30
0.0
 11
15.589
 21
-16.188600000000001
 31
0.0
  0
LINE
  5
1DA4
  8
241
 10
15.589
 20
-16.188600000000001
 30
0.0
 11
15.570600000000001
 21
-16.055399999999999
 31
0.0
  0
LINE
  5
1DA5
  8
241
 10
15.570600000000001
 20
-16.055399999999999
 30
0.0
 11
15.551600000000001
 21
-15.9221
 31
0.0
  0
LINE
  5
1DA6
  8
241
 10
15.551600000000001
 20
-15.9221
 30
0.0
 11
15.5321
 21
-15.7888
 31
0.0
  0
LINE
  5
1DA7
  8
241
 10
15.5321
 20
-15.7888
 30
0.0
 11
15.512
 21
-15.6556
 31
0.0
  0
LINE
  5
1DA8
  8
241
 10
15.512
 20
-15.6556
 30
0.0
 11
15.491300000000001
 21
-15.5223
 31
0.0
  0
LINE
  5
1DA9
  8
241
 10
15.491300000000001
 20
-15.5223
 30
0.0
 11
15.4702
 21
-15.388999999999999
 31
0.0
  0
LINE
  5
1DAA
  8
241
 10
15.4702
 20
-15.388999999999999
 30
0.0
 11
15.448499999999999
 21
-15.255800000000001
 31
0.0
  0
LINE
  5
1DAB
  8
241
 10
15.448499999999999
 20
-15.255800000000001
 30
0.0
 11
15.426399999999999
 21
-15.1225
 31
0.0
  0
LINE
  5
1DAC
  8
241
 10
15.426399999999999
 20
-15.1225
 30
0.0
 11
15.403700000000001
 21
-14.9892
 31
0.0
  0
LINE
  5
1DAD
  8
241
 10
15.403700000000001
 20
-14.9892
 30
0.0
 11
15.380599999999999
 21
-14.856
 31
0.0
  0
LINE
  5
1DAE
  8
241
 10
15.380599999999999
 20
-14.856
 30
0.0
 11
15.356999999999999
 21
-14.7227
 31
0.0
  0
LINE
  5
1DAF
  8
241
 10
15.356999999999999
 20
-14.7227
 30
0.0
 11
15.333
 21
-14.589399999999999
 31
0.0
  0
LINE
  5
1DB0
  8
241
 10
15.333
 20
-14.589399999999999
 30
0.0
 11
15.3085
 21
-14.456200000000001
 31
0.0
  0
LINE
  5
1DB1
  8
241
 10
15.3085
 20
-14.456200000000001
 30
0.0
 11
15.2835
 21
-14.322900000000001
 31
0.0
  0
LINE
  5
1DB2
  8
241
 10
15.2835
 20
-14.322900000000001
 30
0.0
 11
15.2582
 21
-14.1897
 31
0.0
  0
LINE
  5
1DB3
  8
241
 10
15.2582
 20
-14.1897
 30
0.0
 11
15.2324
 21
-14.0564
 31
0.0
  0
LINE
  5
1DB4
  8
241
 10
15.2324
 20
-14.0564
 30
0.0
 11
15.206200000000001
 21
-13.9231
 31
0.0
  0
LINE
  5
1DB5
  8
241
 10
15.206200000000001
 20
-13.9231
 30
0.0
 11
15.179600000000001
 21
-13.789899999999999
 31
0.0
  0
LINE
  5
1DB6
  8
241
 10
15.179600000000001
 20
-13.789899999999999
 30
0.0
 11
15.1526
 21
-13.656599999999999
 31
0.0
  0
LINE
  5
1DB7
  8
241
 10
15.1526
 20
-13.656599999999999
 30
0.0
 11
15.125299999999999
 21
-13.523300000000001
 31
0.0
  0
LINE
  5
1DB8
  8
241
 10
15.125299999999999
 20
-13.523300000000001
 30
0.0
 11
15.0976
 21
-13.3901
 31
0.0
  0
LINE
  5
1DB9
  8
241
 10
15.0976
 20
-13.3901
 30
0.0
 11
15.069599999999999
 21
-13.2568
 31
0.0
  0
LINE
  5
1DBA
  8
241
 10
15.069599999999999
 20
-13.2568
 30
0.0
 11
15.0412
 21
-13.1235
 31
0.0
  0
LINE
  5
1DBB
  8
241
 10
15.0412
 20
-13.1235
 30
0.0
 11
15.0124
 21
-12.9903
 31
0.0
  0
LINE
  5
1DBC
  8
241
 10
15.0124
 20
-12.9903
 30
0.0
 11
14.9834
 21
-12.856999999999999
 31
0.0
  0
LINE
  5
1DBD
  8
241
 10
14.9834
 20
-12.856999999999999
 30
0.0
 11
14.9541
 21
-12.723699999999999
 31
0.0
  0
LINE
  5
1DBE
  8
241
 10
14.9541
 20
-12.723699999999999
 30
0.0
 11
14.9244
 21
-12.5905
 31
0.0
  0
LINE
  5
1DBF
  8
241
 10
14.9244
 20
-12.5905
 30
0.0
 11
14.894500000000001
 21
-12.4572
 31
0.0
  0
LINE
  5
1DC0
  8
241
 10
14.894500000000001
 20
-12.4572
 30
0.0
 11
14.8642
 21
-12.324
 31
0.0
  0
LINE
  5
1DC1
  8
241
 10
14.8642
 20
-12.324
 30
0.0
 11
14.8338
 21
-12.1907
 31
0.0
  0
LINE
  5
1DC2
  8
241
 10
14.8338
 20
-12.1907
 30
0.0
 11
14.803000000000001
 21
-12.057399999999999
 31
0.0
  0
LINE
  5
1DC3
  8
241
 10
14.803000000000001
 20
-12.057399999999999
 30
0.0
 11
14.772
 21
-11.924200000000001
 31
0.0
  0
LINE
  5
1DC4
  8
241
 10
14.772
 20
-11.924200000000001
 30
0.0
 11
14.7408
 21
-11.790900000000001
 31
0.0
  0
LINE
  5
1DC5
  8
241
 10
14.7408
 20
-11.790900000000001
 30
0.0
 11
14.7094
 21
-11.6576
 31
0.0
  0
LINE
  5
1DC6
  8
241
 10
14.7094
 20
-11.6576
 30
0.0
 11
14.6777
 21
-11.5244
 31
0.0
  0
LINE
  5
1DC7
  8
241
 10
14.6777
 20
-11.5244
 30
0.0
 11
14.645899999999999
 21
-11.3911
 31
0.0
  0
LINE
  5
1DC8
  8
241
 10
14.645899999999999
 20
-11.3911
 30
0.0
 11
14.613799999999999
 21
-11.2578
 31
0.0
  0
LINE
  5
1DC9
  8
241
 10
14.613799999999999
 20
-11.2578
 30
0.0
 11
14.5816
 21
-11.124599999999999
 31
0.0
  0
LINE
  5
1DCA
  8
241
 10
14.5816
 20
-11.124599999999999
 30
0.0
 11
14.549200000000001
 21
-10.991300000000001
 31
0.0
  0
LINE
  5
1DCB
  8
241
 10
14.549200000000001
 20
-10.991300000000001
 30
0.0
 11
14.5166
 21
-10.858000000000001
 31
0.0
  0
LINE
  5
1DCC
  8
241
 10
14.5166
 20
-10.858000000000001
 30
0.0
 11
14.4839
 21
-10.7248
 31
0.0
  0
LINE
  5
1DCD
  8
241
 10
14.4839
 20
-10.7248
 30
0.0
 11
14.4511
 21
-10.5915
 31
0.0
  0
LINE
  5
1DCE
  8
241
 10
14.4511
 20
-10.5915
 30
0.0
 11
14.418100000000001
 21
-10.4582
 31
0.0
  0
LINE
  5
1DCF
  8
241
 10
14.418100000000001
 20
-10.4582
 30
0.0
 11
14.385
 21
-10.324999999999999
 31
0.0
  0
LINE
  5
1DD0
  8
241
 10
14.385
 20
-10.324999999999999
 30
0.0
 11
14.351800000000001
 21
-10.191700000000001
 31
0.0
  0
LINE
  5
1DD1
  8
241
 10
14.351800000000001
 20
-10.191700000000001
 30
0.0
 11
14.3185
 21
-10.0585
 31
0.0
  0
LINE
  5
1DD2
  8
241
 10
14.3185
 20
-10.0585
 30
0.0
 11
14.2852
 21
-9.9251900000000006
 31
0.0
  0
LINE
  5
1DD3
  8
241
 10
14.2852
 20
-9.9251900000000006
 30
0.0
 11
14.2517
 21
-9.7919300000000007
 31
0.0
  0
LINE
  5
1DD4
  8
241
 10
14.2517
 20
-9.7919300000000007
 30
0.0
 11
14.2182
 21
-9.6586599999999994
 31
0.0
  0
LINE
  5
1DD5
  8
241
 10
14.2182
 20
-9.6586599999999994
 30
0.0
 11
14.1846
 21
-9.5253999999999994
 31
0.0
  0
LINE
  5
1DD6
  8
241
 10
14.1846
 20
-9.5253999999999994
 30
0.0
 11
14.151
 21
-9.3921300000000016
 31
0.0
  0
LINE
  5
1DD7
  8
241
 10
14.151
 20
-9.3921300000000016
 30
0.0
 11
14.1173
 21
-9.2588699999999982
 31
0.0
  0
LINE
  5
1DD8
  8
241
 10
14.1173
 20
-9.2588699999999982
 30
0.0
 11
14.0837
 21
-9.1256099999999982
 31
0.0
  0
LINE
  5
1DD9
  8
241
 10
14.0837
 20
-9.1256099999999982
 30
0.0
 11
14.050000000000001
 21
-8.9923399999999987
 31
0.0
  0
LINE
  5
1DDA
  8
241
 10
9.9499999999999993
 20
-8.9923399999999987
 30
0.0
 11
9.9163199999999971
 21
-9.1256099999999982
 31
0.0
  0
LINE
  5
1DDB
  8
241
 10
9.9163199999999971
 20
-9.1256099999999982
 30
0.0
 11
9.8826499999999982
 21
-9.2588699999999982
 31
0.0
  0
LINE
  5
1DDC
  8
241
 10
9.8826499999999982
 20
-9.2588699999999982
 30
0.0
 11
9.8490099999999998
 21
-9.3921300000000016
 31
0.0
  0
LINE
  5
1DDD
  8
241
 10
9.8490099999999998
 20
-9.3921300000000016
 30
0.0
 11
9.8153899999999972
 21
-9.5253999999999994
 31
0.0
  0
LINE
  5
1DDE
  8
241
 10
9.8153899999999972
 20
-9.5253999999999994
 30
0.0
 11
9.7818199999999997
 21
-9.6586599999999994
 31
0.0
  0
LINE
  5
1DDF
  8
241
 10
9.7818199999999997
 20
-9.6586599999999994
 30
0.0
 11
9.7483000000000004
 21
-9.7919300000000007
 31
0.0
  0
LINE
  5
1DE0
  8
241
 10
9.7483000000000004
 20
-9.7919300000000007
 30
0.0
 11
9.7148500000000002
 21
-9.9251900000000006
 31
0.0
  0
LINE
  5
1DE1
  8
241
 10
9.7148500000000002
 20
-9.9251900000000006
 30
0.0
 11
9.6814699999999991
 21
-10.0585
 31
0.0
  0
LINE
  5
1DE2
  8
241
 10
9.6814699999999991
 20
-10.0585
 30
0.0
 11
9.6481700000000004
 21
-10.191700000000001
 31
0.0
  0
LINE
  5
1DE3
  8
241
 10
9.6481700000000004
 20
-10.191700000000001
 30
0.0
 11
9.6149699999999996
 21
-10.324999999999999
 31
0.0
  0
LINE
  5
1DE4
  8
241
 10
9.6149699999999996
 20
-10.324999999999999
 30
0.0
 11
9.5818799999999982
 21
-10.4582
 31
0.0
  0
LINE
  5
1DE5
  8
241
 10
9.5818799999999982
 20
-10.4582
 30
0.0
 11
9.5489099999999993
 21
-10.5915
 31
0.0
  0
LINE
  5
1DE6
  8
241
 10
9.5489099999999993
 20
-10.5915
 30
0.0
 11
9.5160599999999995
 21
-10.7248
 31
0.0
  0
LINE
  5
1DE7
  8
241
 10
9.5160599999999995
 20
-10.7248
 30
0.0
 11
9.4833499999999997
 21
-10.858000000000001
 31
0.0
  0
LINE
  5
1DE8
  8
241
 10
9.4833499999999997
 20
-10.858000000000001
 30
0.0
 11
9.4507899999999996
 21
-10.991300000000001
 31
0.0
  0
LINE
  5
1DE9
  8
241
 10
9.4507899999999996
 20
-10.991300000000001
 30
0.0
 11
9.4183899999999987
 21
-11.124599999999999
 31
0.0
  0
LINE
  5
1DEA
  8
241
 10
9.4183899999999987
 20
-11.124599999999999
 30
0.0
 11
9.3861600000000003
 21
-11.2578
 31
0.0
  0
LINE
  5
1DEB
  8
241
 10
9.3861600000000003
 20
-11.2578
 30
0.0
 11
9.3541199999999982
 21
-11.3911
 31
0.0
  0
LINE
  5
1DEC
  8
241
 10
9.3541199999999982
 20
-11.3911
 30
0.0
 11
9.3222599999999982
 21
-11.5244
 31
0.0
  0
LINE
  5
1DED
  8
241
 10
9.3222599999999982
 20
-11.5244
 30
0.0
 11
9.2906099999999991
 21
-11.6576
 31
0.0
  0
LINE
  5
1DEE
  8
241
 10
9.2906099999999991
 20
-11.6576
 30
0.0
 11
9.2591699999999992
 21
-11.790900000000001
 31
0.0
  0
LINE
  5
1DEF
  8
241
 10
9.2591699999999992
 20
-11.790900000000001
 30
0.0
 11
9.2279500000000017
 21
-11.924200000000001
 31
0.0
  0
LINE
  5
1DF0
  8
241
 10
9.2279500000000017
 20
-11.924200000000001
 30
0.0
 11
9.1969700000000003
 21
-12.057399999999999
 31
0.0
  0
LINE
  5
1DF1
  8
241
 10
9.1969700000000003
 20
-12.057399999999999
 30
0.0
 11
9.1662300000000005
 21
-12.1907
 31
0.0
  0
LINE
  5
1DF2
  8
241
 10
9.1662300000000005
 20
-12.1907
 30
0.0
 11
9.1357499999999998
 21
-12.324
 31
0.0
  0
LINE
  5
1DF3
  8
241
 10
9.1357499999999998
 20
-12.324
 30
0.0
 11
9.1055399999999995
 21
-12.4572
 31
0.0
  0
LINE
  5
1DF4
  8
241
 10
9.1055399999999995
 20
-12.4572
 30
0.0
 11
9.0755999999999997
 21
-12.5905
 31
0.0
  0
LINE
  5
1DF5
  8
241
 10
9.0755999999999997
 20
-12.5905
 30
0.0
 11
9.0459499999999995
 21
-12.723699999999999
 31
0.0
  0
LINE
  5
1DF6
  8
241
 10
9.0459499999999995
 20
-12.723699999999999
 30
0.0
 11
9.0166000000000004
 21
-12.856999999999999
 31
0.0
  0
LINE
  5
1DF7
  8
241
 10
9.0166000000000004
 20
-12.856999999999999
 30
0.0
 11
8.9875600000000002
 21
-12.9903
 31
0.0
  0
LINE
  5
1DF8
  8
241
 10
8.9875600000000002
 20
-12.9903
 30
0.0
 11
8.9588300000000007
 21
-13.1235
 31
0.0
  0
LINE
  5
1DF9
  8
241
 10
8.9588300000000007
 20
-13.1235
 30
0.0
 11
8.9304399999999973
 21
-13.2568
 31
0.0
  0
LINE
  5
1DFA
  8
241
 10
8.9304399999999973
 20
-13.2568
 30
0.0
 11
8.9023899999999987
 21
-13.3901
 31
0.0
  0
LINE
  5
1DFB
  8
241
 10
8.9023899999999987
 20
-13.3901
 30
0.0
 11
8.8746899999999975
 21
-13.523300000000001
 31
0.0
  0
LINE
  5
1DFC
  8
241
 10
8.8746899999999975
 20
-13.523300000000001
 30
0.0
 11
8.8473500000000005
 21
-13.656599999999999
 31
0.0
  0
LINE
  5
1DFD
  8
241
 10
8.8473500000000005
 20
-13.656599999999999
 30
0.0
 11
8.8203899999999962
 21
-13.789899999999999
 31
0.0
  0
LINE
  5
1DFE
  8
241
 10
8.8203899999999962
 20
-13.789899999999999
 30
0.0
 11
8.7938100000000006
 21
-13.9231
 31
0.0
  0
LINE
  5
1DFF
  8
241
 10
8.7938100000000006
 20
-13.9231
 30
0.0
 11
8.7676199999999991
 21
-14.0564
 31
0.0
  0
LINE
  5
1E00
  8
241
 10
8.7676199999999991
 20
-14.0564
 30
0.0
 11
8.7418399999999998
 21
-14.1897
 31
0.0
  0
LINE
  5
1E01
  8
241
 10
8.7418399999999998
 20
-14.1897
 30
0.0
 11
8.7164800000000007
 21
-14.322900000000001
 31
0.0
  0
LINE
  5
1E02
  8
241
 10
8.7164800000000007
 20
-14.322900000000001
 30
0.0
 11
8.6915399999999998
 21
-14.456200000000001
 31
0.0
  0
LINE
  5
1E03
  8
241
 10
8.6915399999999998
 20
-14.456200000000001
 30
0.0
 11
8.6670400000000001
 21
-14.589399999999999
 31
0.0
  0
LINE
  5
1E04
  8
241
 10
8.6670400000000001
 20
-14.589399999999999
 30
0.0
 11
8.6429799999999979
 21
-14.7227
 31
0.0
  0
LINE
  5
1E05
  8
241
 10
8.6429799999999979
 20
-14.7227
 30
0.0
 11
8.6193899999999992
 21
-14.856
 31
0.0
  0
LINE
  5
1E06
  8
241
 10
8.6193899999999992
 20
-14.856
 30
0.0
 11
8.5962599999999991
 21
-14.9892
 31
0.0
  0
LINE
  5
1E07
  8
241
 10
8.5962599999999991
 20
-14.9892
 30
0.0
 11
8.5736100000000004
 21
-15.1225
 31
0.0
  0
LINE
  5
1E08
  8
241
 10
8.5736100000000004
 20
-15.1225
 30
0.0
 11
8.5514500000000009
 21
-15.255800000000001
 31
0.0
  0
LINE
  5
1E09
  8
241
 10
8.5514500000000009
 20
-15.255800000000001
 30
0.0
 11
8.5297999999999998
 21
-15.388999999999999
 31
0.0
  0
LINE
  5
1E0A
  8
241
 10
8.5297999999999998
 20
-15.388999999999999
 30
0.0
 11
8.5086499999999976
 21
-15.5223
 31
0.0
  0
LINE
  5
1E0B
  8
241
 10
8.5086499999999976
 20
-15.5223
 30
0.0
 11
8.4880300000000002
 21
-15.6556
 31
0.0
  0
LINE
  5
1E0C
  8
241
 10
8.4880300000000002
 20
-15.6556
 30
0.0
 11
8.4679399999999987
 21
-15.7888
 31
0.0
  0
LINE
  5
1E0D
  8
241
 10
8.4679399999999987
 20
-15.7888
 30
0.0
 11
8.4483899999999998
 21
-15.9221
 31
0.0
  0
LINE
  5
1E0E
  8
241
 10
8.4483899999999998
 20
-15.9221
 30
0.0
 11
8.4293999999999976
 21
-16.055399999999999
 31
0.0
  0
LINE
  5
1E0F
  8
241
 10
8.4293999999999976
 20
-16.055399999999999
 30
0.0
 11
8.4109800000000003
 21
-16.188600000000001
 31
0.0
  0
LINE
  5
1E10
  8
241
 10
8.4109800000000003
 20
-16.188600000000001
 30
0.0
 11
8.3931199999999961
 21
-16.321899999999999
 31
0.0
  0
LINE
  5
1E11
  8
241
 10
8.3931199999999961
 20
-16.321899999999999
 30
0.0
 11
8.3758600000000012
 21
-16.455100000000002
 31
0.0
  0
LINE
  5
1E12
  8
241
 10
8.3758600000000012
 20
-16.455100000000002
 30
0.0
 11
8.3591899999999981
 21
-16.5884
 31
0.0
  0
LINE
  5
1E13
  8
241
 10
8.3591899999999981
 20
-16.5884
 30
0.0
 11
8.3431300000000004
 21
-16.721699999999998
 31
0.0
  0
LINE
  5
1E14
  8
241
 10
8.3431300000000004
 20
-16.721699999999998
 30
0.0
 11
8.3276899999999987
 21
-16.854900000000001
 31
0.0
  0
LINE
  5
1E15
  8
241
 10
8.3276899999999987
 20
-16.854900000000001
 30
0.0
 11
8.3128700000000002
 21
-16.988199999999999
 31
0.0
  0
LINE
  5
1E16
  8
241
 10
8.3128700000000002
 20
-16.988199999999999
 30
0.0
 11
8.2987000000000002
 21
-17.121500000000001
 31
0.0
  0
LINE
  5
1E17
  8
241
 10
8.2987000000000002
 20
-17.121500000000001
 30
0.0
 11
8.285169999999999
 21
-17.2547
 31
0.0
  0
LINE
  5
1E18
  8
241
 10
8.285169999999999
 20
-17.2547
 30
0.0
 11
8.2723099999999992
 21
-17.388000000000002
 31
0.0
  0
LINE
  5
1E19
  8
241
 10
8.2723099999999992
 20
-17.388000000000002
 30
0.0
 11
8.2601200000000006
 21
-17.5213
 31
0.0
  0
LINE
  5
1E1A
  8
241
 10
8.2601200000000006
 20
-17.5213
 30
0.0
 11
8.2486100000000011
 21
-17.654499999999999
 31
0.0
  0
LINE
  5
1E1B
  8
241
 10
8.2486100000000011
 20
-17.654499999999999
 30
0.0
 11
8.2377899999999986
 21
-17.787800000000001
 31
0.0
  0
LINE
  5
1E1C
  8
241
 10
8.2377899999999986
 20
-17.787800000000001
 30
0.0
 11
8.2276799999999977
 21
-17.921099999999999
 31
0.0
  0
LINE
  5
1E1D
  8
241
 10
8.2276799999999977
 20
-17.921099999999999
 30
0.0
 11
8.21828
 21
-18.054300000000001
 31
0.0
  0
LINE
  5
1E1E
  8
241
 10
8.21828
 20
-18.054300000000001
 30
0.0
 11
8.2096
 21
-18.1876
 31
0.0
  0
LINE
  5
1E1F
  8
241
 10
8.2096
 20
-18.1876
 30
0.0
 11
8.2016600000000004
 21
-18.320799999999998
 31
0.0
  0
LINE
  5
1E20
  8
241
 10
8.2016600000000004
 20
-18.320799999999998
 30
0.0
 11
8.194469999999999
 21
-18.4541
 31
0.0
  0
LINE
  5
1E21
  8
241
 10
8.194469999999999
 20
-18.4541
 30
0.0
 11
8.1880299999999977
 21
-18.587399999999999
 31
0.0
  0
LINE
  5
1E22
  8
241
 10
8.1880299999999977
 20
-18.587399999999999
 30
0.0
 11
8.1823599999999992
 21
-18.720600000000001
 31
0.0
  0
LINE
  5
1E23
  8
241
 10
8.1823599999999992
 20
-18.720600000000001
 30
0.0
 11
8.1774699999999978
 21
-18.853899999999999
 31
0.0
  0
LINE
  5
1E24
  8
241
 10
8.1774699999999978
 20
-18.853899999999999
 30
0.0
 11
8.1733700000000002
 21
-18.987200000000001
 31
0.0
  0
LINE
  5
1E25
  8
241
 10
8.1733700000000002
 20
-18.987200000000001
 30
0.0
 11
8.1700600000000012
 21
-19.1204
 31
0.0
  0
LINE
  5
1E26
  8
241
 10
8.1700600000000012
 20
-19.1204
 30
0.0
 11
8.1675699999999978
 21
-19.253699999999998
 31
0.0
  0
LINE
  5
1E27
  8
241
 10
8.1675699999999978
 20
-19.253699999999998
 30
0.0
 11
8.1659000000000006
 21
-19.387
 31
0.0
  0
LINE
  5
1E28
  8
241
 10
8.1659000000000006
 20
-19.387
 30
0.0
 11
8.1650600000000004
 21
-19.520199999999999
 31
0.0
  0
LINE
  5
1E29
  8
241
 10
8.1650600000000004
 20
-19.520199999999999
 30
0.0
 11
8.1650600000000004
 21
-19.653500000000001
 31
0.0
  0
LINE
  5
1E2A
  8
241
 10
8.1650600000000004
 20
-19.653500000000001
 30
0.0
 11
8.1659000000000006
 21
-19.786799999999999
 31
0.0
  0
LINE
  5
1E2B
  8
241
 10
8.1659000000000006
 20
-19.786799999999999
 30
0.0
 11
8.1675699999999978
 21
-19.920000000000002
 31
0.0
  0
LINE
  5
1E2C
  8
241
 10
8.1675699999999978
 20
-19.920000000000002
 30
0.0
 11
8.1700600000000012
 21
-20.0533
 31
0.0
  0
LINE
  5
1E2D
  8
241
 10
8.1700600000000012
 20
-20.0533
 30
0.0
 11
8.1733700000000002
 21
-20.186499999999999
 31
0.0
  0
LINE
  5
1E2E
  8
241
 10
8.1733700000000002
 20
-20.186499999999999
 30
0.0
 11
8.1774699999999978
 21
-20.319800000000001
 31
0.0
  0
LINE
  5
1E2F
  8
241
 10
8.1774699999999978
 20
-20.319800000000001
 30
0.0
 11
8.1823599999999992
 21
-20.453099999999999
 31
0.0
  0
LINE
  5
1E30
  8
241
 10
8.1823599999999992
 20
-20.453099999999999
 30
0.0
 11
8.1880299999999977
 21
-20.586300000000001
 31
0.0
  0
LINE
  5
1E31
  8
241
 10
8.1880299999999977
 20
-20.586300000000001
 30
0.0
 11
8.194469999999999
 21
-20.7196
 31
0.0
  0
LINE
  5
1E32
  8
241
 10
8.194469999999999
 20
-20.7196
 30
0.0
 11
8.2016600000000004
 21
-20.852900000000002
 31
0.0
  0
LINE
  5
1E33
  8
241
 10
8.2016600000000004
 20
-20.852900000000002
 30
0.0
 11
8.2096
 21
-20.9861
 31
0.0
  0
LINE
  5
1E34
  8
241
 10
8.2096
 20
-20.9861
 30
0.0
 11
8.21828
 21
-21.119399999999999
 31
0.0
  0
LINE
  5
1E35
  8
241
 10
8.21828
 20
-21.119399999999999
 30
0.0
 11
8.2276799999999977
 21
-21.252700000000001
 31
0.0
  0
LINE
  5
1E36
  8
241
 10
8.2276799999999977
 20
-21.252700000000001
 30
0.0
 11
8.2377899999999986
 21
-21.385899999999999
 31
0.0
  0
LINE
  5
1E37
  8
241
 10
8.2377899999999986
 20
-21.385899999999999
 30
0.0
 11
8.2486100000000011
 21
-21.519200000000001
 31
0.0
  0
LINE
  5
1E38
  8
241
 10
8.2486100000000011
 20
-21.519200000000001
 30
0.0
 11
8.2601200000000006
 21
-21.6525
 31
0.0
  0
LINE
  5
1E39
  8
241
 10
8.2601200000000006
 20
-21.6525
 30
0.0
 11
8.2723099999999992
 21
-21.785699999999999
 31
0.0
  0
LINE
  5
1E3A
  8
241
 10
8.2723099999999992
 20
-21.785699999999999
 30
0.0
 11
8.285169999999999
 21
-21.919
 31
0.0
  0
LINE
  5
1E3B
  8
241
 10
8.285169999999999
 20
-21.919
 30
0.0
 11
8.2987000000000002
 21
-22.052199999999999
 31
0.0
  0
LINE
  5
1E3C
  8
241
 10
8.2987000000000002
 20
-22.052199999999999
 30
0.0
 11
8.3128700000000002
 21
-22.185500000000001
 31
0.0
  0
LINE
  5
1E3D
  8
241
 10
8.3128700000000002
 20
-22.185500000000001
 30
0.0
 11
8.3276899999999987
 21
-22.3188
 31
0.0
  0
LINE
  5
1E3E
  8
241
 10
8.3276899999999987
 20
-22.3188
 30
0.0
 11
8.3431300000000004
 21
-22.452000000000002
 31
0.0
  0
LINE
  5
1E3F
  8
241
 10
8.3431300000000004
 20
-22.452000000000002
 30
0.0
 11
8.3591899999999981
 21
-22.5853
 31
0.0
  0
LINE
  5
1E40
  8
241
 10
8.3591899999999981
 20
-22.5853
 30
0.0
 11
8.3758600000000012
 21
-22.718599999999999
 31
0.0
  0
LINE
  5
1E41
  8
241
 10
8.3758600000000012
 20
-22.718599999999999
 30
0.0
 11
8.3931199999999961
 21
-22.851800000000001
 31
0.0
  0
LINE
  5
1E42
  8
241
 10
8.3931199999999961
 20
-22.851800000000001
 30
0.0
 11
8.4109800000000003
 21
-22.985099999999999
 31
0.0
  0
LINE
  5
1E43
  8
241
 10
8.4109800000000003
 20
-22.985099999999999
 30
0.0
 11
8.4293999999999976
 21
-23.118400000000001
 31
0.0
  0
LINE
  5
1E44
  8
241
 10
8.4293999999999976
 20
-23.118400000000001
 30
0.0
 11
8.4483899999999998
 21
-23.2516
 31
0.0
  0
LINE
  5
1E45
  8
241
 10
8.4483899999999998
 20
-23.2516
 30
0.0
 11
8.4679399999999987
 21
-23.384899999999998
 31
0.0
  0
LINE
  5
1E46
  8
241
 10
8.4679399999999987
 20
-23.384899999999998
 30
0.0
 11
8.4880300000000002
 21
-23.5182
 31
0.0
  0
LINE
  5
1E47
  8
241
 10
8.4880300000000002
 20
-23.5182
 30
0.0
 11
8.5086499999999976
 21
-23.651399999999999
 31
0.0
  0
LINE
  5
1E48
  8
241
 10
8.5086499999999976
 20
-23.651399999999999
 30
0.0
 11
8.5297999999999998
 21
-23.784700000000001
 31
0.0
  0
LINE
  5
1E49
  8
241
 10
8.5297999999999998
 20
-23.784700000000001
 30
0.0
 11
8.5514500000000009
 21
-23.917899999999999
 31
0.0
  0
LINE
  5
1E4A
  8
241
 10
8.5514500000000009
 20
-23.917899999999999
 30
0.0
 11
8.5736100000000004
 21
-24.051200000000001
 31
0.0
  0
LINE
  5
1E4B
  8
241
 10
8.5736100000000004
 20
-24.051200000000001
 30
0.0
 11
8.5962599999999991
 21
-24.1845
 31
0.0
  0
LINE
  5
1E4C
  8
241
 10
8.5962599999999991
 20
-24.1845
 30
0.0
 11
8.6193899999999992
 21
-24.317699999999999
 31
0.0
  0
LINE
  5
1E4D
  8
241
 10
8.6193899999999992
 20
-24.317699999999999
 30
0.0
 11
8.6429799999999979
 21
-24.451000000000001
 31
0.0
  0
LINE
  5
1E4E
  8
241
 10
8.6429799999999979
 20
-24.451000000000001
 30
0.0
 11
8.6670400000000001
 21
-24.584299999999999
 31
0.0
  0
LINE
  5
1E4F
  8
241
 10
8.6670400000000001
 20
-24.584299999999999
 30
0.0
 11
8.6915399999999998
 21
-24.717500000000001
 31
0.0
  0
LINE
  5
1E50
  8
241
 10
8.6915399999999998
 20
-24.717500000000001
 30
0.0
 11
8.7164800000000007
 21
-24.8508
 31
0.0
  0
LINE
  5
1E51
  8
241
 10
8.7164800000000007
 20
-24.8508
 30
0.0
 11
8.7418399999999998
 21
-24.984100000000002
 31
0.0
  0
LINE
  5
1E52
  8
241
 10
8.7418399999999998
 20
-24.984100000000002
 30
0.0
 11
8.7676199999999991
 21
-25.1173
 31
0.0
  0
LINE
  5
1E53
  8
241
 10
8.7676199999999991
 20
-25.1173
 30
0.0
 11
8.7938100000000006
 21
-25.250599999999999
 31
0.0
  0
LINE
  5
1E54
  8
241
 10
8.7938100000000006
 20
-25.250599999999999
 30
0.0
 11
8.8203899999999962
 21
-25.383900000000001
 31
0.0
  0
LINE
  5
1E55
  8
241
 10
8.8203899999999962
 20
-25.383900000000001
 30
0.0
 11
8.8473500000000005
 21
-25.517099999999999
 31
0.0
  0
LINE
  5
1E56
  8
241
 10
8.8473500000000005
 20
-25.517099999999999
 30
0.0
 11
8.8746899999999975
 21
-25.650400000000001
 31
0.0
  0
LINE
  5
1E57
  8
241
 10
8.8746899999999975
 20
-25.650400000000001
 30
0.0
 11
8.9023899999999987
 21
-25.7837
 31
0.0
  0
LINE
  5
1E58
  8
241
 10
8.9023899999999987
 20
-25.7837
 30
0.0
 11
8.9304399999999973
 21
-25.916899999999998
 31
0.0
  0
LINE
  5
1E59
  8
241
 10
8.9304399999999973
 20
-25.916899999999998
 30
0.0
 11
8.9588300000000007
 21
-26.0502
 31
0.0
  0
LINE
  5
1E5A
  8
241
 10
8.9588300000000007
 20
-26.0502
 30
0.0
 11
8.9875600000000002
 21
-26.183399999999999
 31
0.0
  0
LINE
  5
1E5B
  8
241
 10
8.9875600000000002
 20
-26.183399999999999
 30
0.0
 11
9.0166000000000004
 21
-26.316700000000001
 31
0.0
  0
LINE
  5
1E5C
  8
241
 10
9.0166000000000004
 20
-26.316700000000001
 30
0.0
 11
9.0459499999999995
 21
-26.449999999999999
 31
0.0
  0
LINE
  5
1E5D
  8
241
 10
9.0459499999999995
 20
-26.449999999999999
 30
0.0
 11
9.0755999999999997
 21
-26.583200000000001
 31
0.0
  0
LINE
  5
1E5E
  8
241
 10
9.0755999999999997
 20
-26.583200000000001
 30
0.0
 11
9.1055399999999995
 21
-26.7165
 31
0.0
  0
LINE
  5
1E5F
  8
241
 10
9.1055399999999995
 20
-26.7165
 30
0.0
 11
9.1357499999999998
 21
-26.849799999999998
 31
0.0
  0
LINE
  5
1E60
  8
241
 10
9.1357499999999998
 20
-26.849799999999998
 30
0.0
 11
9.1662300000000005
 21
-26.983000000000001
 31
0.0
  0
LINE
  5
1E61
  8
241
 10
9.1662300000000005
 20
-26.983000000000001
 30
0.0
 11
9.1969700000000003
 21
-27.116299999999999
 31
0.0
  0
LINE
  5
1E62
  8
241
 10
9.1969700000000003
 20
-27.116299999999999
 30
0.0
 11
9.2279500000000017
 21
-27.249600000000001
 31
0.0
  0
LINE
  5
1E63
  8
241
 10
9.2279500000000017
 20
-27.249600000000001
 30
0.0
 11
9.2591699999999992
 21
-27.3828
 31
0.0
  0
LINE
  5
1E64
  8
241
 10
9.2591699999999992
 20
-27.3828
 30
0.0
 11
9.2906099999999991
 21
-27.516100000000002
 31
0.0
  0
LINE
  5
1E65
  8
241
 10
9.2906099999999991
 20
-27.516100000000002
 30
0.0
 11
9.3222599999999982
 21
-27.6494
 31
0.0
  0
LINE
  5
1E66
  8
241
 10
9.3222599999999982
 20
-27.6494
 30
0.0
 11
9.3541199999999982
 21
-27.782599999999999
 31
0.0
  0
LINE
  5
1E67
  8
241
 10
9.3541199999999982
 20
-27.782599999999999
 30
0.0
 11
9.3861600000000003
 21
-27.915900000000001
 31
0.0
  0
LINE
  5
1E68
  8
241
 10
9.3861600000000003
 20
-27.915900000000001
 30
0.0
 11
9.4183899999999987
 21
-28.049099999999999
 31
0.0
  0
LINE
  5
1E69
  8
241
 10
9.4183899999999987
 20
-28.049099999999999
 30
0.0
 11
9.4507899999999996
 21
-28.182400000000001
 31
0.0
  0
LINE
  5
1E6A
  8
241
 10
9.4507899999999996
 20
-28.182400000000001
 30
0.0
 11
9.4833499999999997
 21
-28.3157
 31
0.0
  0
LINE
  5
1E6B
  8
241
 10
9.4833499999999997
 20
-28.3157
 30
0.0
 11
9.5160599999999995
 21
-28.448899999999998
 31
0.0
  0
LINE
  5
1E6C
  8
241
 10
9.5160599999999995
 20
-28.448899999999998
 30
0.0
 11
9.5489099999999993
 21
-28.5822
 31
0.0
  0
LINE
  5
1E6D
  8
241
 10
9.5489099999999993
 20
-28.5822
 30
0.0
 11
9.5818799999999982
 21
-28.715499999999999
 31
0.0
  0
LINE
  5
1E6E
  8
241
 10
9.5818799999999982
 20
-28.715499999999999
 30
0.0
 11
9.6149699999999996
 21
-28.848700000000001
 31
0.0
  0
LINE
  5
1E6F
  8
241
 10
9.6149699999999996
 20
-28.848700000000001
 30
0.0
 11
9.6481700000000004
 21
-28.981999999999999
 31
0.0
  0
LINE
  5
1E70
  8
241
 10
9.6481700000000004
 20
-28.981999999999999
 30
0.0
 11
9.6814699999999991
 21
-29.115300000000001
 31
0.0
  0
LINE
  5
1E71
  8
241
 10
9.6814699999999991
 20
-29.115300000000001
 30
0.0
 11
9.7148500000000002
 21
-29.2485
 31
0.0
  0
LINE
  5
1E72
  8
241
 10
9.7148500000000002
 20
-29.2485
 30
0.0
 11
9.7483000000000004
 21
-29.381799999999998
 31
0.0
  0
LINE
  5
1E73
  8
241
 10
9.7483000000000004
 20
-29.381799999999998
 30
0.0
 11
9.7818199999999997
 21
-29.5151
 31
0.0
  0
LINE
  5
1E74
  8
241
 10
9.7818199999999997
 20
-29.5151
 30
0.0
 11
9.8153899999999972
 21
-29.648299999999999
 31
0.0
  0
LINE
  5
1E75
  8
241
 10
9.8153899999999972
 20
-29.648299999999999
 30
0.0
 11
9.8490099999999998
 21
-29.781600000000001
 31
0.0
  0
LINE
  5
1E76
  8
241
 10
9.8490099999999998
 20
-29.781600000000001
 30
0.0
 11
9.8826499999999982
 21
-29.9148
 31
0.0
  0
LINE
  5
1E77
  8
241
 10
9.8826499999999982
 20
-29.9148
 30
0.0
 11
9.9163199999999971
 21
-30.048100000000002
 31
0.0
  0
LINE
  5
1E78
  8
241
 10
9.9163199999999971
 20
-30.048100000000002
 30
0.0
 11
9.9499999999999993
 21
-30.1814
 31
0.0
  0
TEXT
  5
1E79
  8
250
 10
219.83333333333309
 20
-52.999999999999979
 30
0.0
 40
2.7999999999999989
  1
25
  0
LINE
  5
1E7A
  8
250
 10
232.76999999999961
 20
-53.628333333333309
 30
0.0
 11
234.9999999999996
 21
-53.999999999999979
 31
0.0
  0
LINE
  5
1E7B
  8
250
 10
232.76999999999961
 20
-54.371666666666663
 30
0.0
 11
234.9999999999996
 21
-53.999999999999979
 31
0.0
  0
LINE
  5
1E7C
  8
250
 10
234.9999999999996
 20
-53.999999999999979
 30
0.0
 11
232.76999999999961
 21
-53.999999999999979
 31
0.0
  0
LINE
  5
1E7D
  8
250
 10
212.22999999999999
 20
-54.371666666666663
 30
0.0
 11
210.0
 21
-53.999999999999979
 31
0.0
  0
LINE
  5
1E7E
  8
250
 10
212.22999999999999
 20
-53.628333333333309
 30
0.0
 11
210.0
 21
-53.999999999999979
 31
0.0
  0
LINE
  5
1E7F
  8
250
 10
210.0
 20
-53.999999999999979
 30
0.0
 11
212.22999999999999
 21
-53.999999999999979
 31
0.0
  0
TEXT
  5
1E80
  8
250
 10
55.799999999999997
 20
-61.999999999999957
 30
0.0
 40
2.7999999999999989
  1
120
  0
LINE
  5
1E81
  8
250
 10
117.77
 20
-62.628333333333288
 30
0.0
 11
120.0
 21
-62.999999999999972
 31
0.0
  0
LINE
  5
1E82
  8
250
 10
117.77
 20
-63.371666666666627
 30
0.0
 11
120.0
 21
-62.999999999999972
 31
0.0
  0
LINE
  5
1E83
  8
250
 10
120.0
 20
-62.999999999999972
 30
0.0
 11
117.77
 21
-62.999999999999972
 31
0.0
  0
LINE
  5
1E84
  8
250
 10
2.2299999999999982
 20
-63.371666666666627
 30
0.0
 11
-0.0000000000000019
 21
-62.999999999999972
 31
0.0
  0
LINE
  5
1E85
  8
250
 10
2.2299999999999982
 20
-62.628333333333288
 30
0.0
 11
-0.0000000000000019
 21
-62.999999999999972
 31
0.0
  0
LINE
  5
1E86
  8
250
 10
-0.0000000000000019
 20
-62.999999999999972
 30
0.0
 11
2.2299999999999982
 21
-62.999999999999972
 31
0.0
  0
TEXT
  5
1E87
  8
250
 10
76.333333333333371
 20
-55.0
 30
0.0
 40
2.7999999999999989
  1
82
  0
LINE
  5
1E88
  8
250
 10
40.230000000000011
 20
-56.37166666666667
 30
0.0
 11
38.000000000000021
 21
-56.0
 31
0.0
  0
LINE
  5
1E89
  8
250
 10
40.230000000000011
 20
-55.62833333333333
 30
0.0
 11
38.000000000000021
 21
-56.0
 31
0.0
  0
LINE
  5
1E8A
  8
250
 10
38.000000000000021
 20
-56.0
 30
0.0
 11
40.230000000000011
 21
-56.0
 31
0.0
  0
LINE
  5
1E8B
  8
250
 10
117.77
 20
-55.62833333333333
 30
0.0
 11
120.0000000000001
 21
-56.0
 31
0.0
  0
LINE
  5
1E8C
  8
250
 10
117.77
 20
-56.37166666666667
 30
0.0
 11
120.0000000000001
 21
-56.0
 31
0.0
  0
LINE
  5
1E8D
  8
250
 10
120.0000000000001
 20
-56.0
 30
0.0
 11
117.77
 21
-56.0
 31
0.0
  0
TEXT
  5
1E8E
  8
250
 10
-35.866666666666667
 20
-33.600000000000001
 30
0.0
 40
2.7999999999999989
  1
C6
  7
YOKO
  0
VIEWPORT
  5
22
 67
     1
  8
0
 10
261.51769911504419
 20
148.5
 30
0.0
 40
523.0353982300885
 41
297.0
 68
     1
 69
     1
1001
ACAD
1000
MVIEW
1002
{
1070
    16
1010
0.0
1020
0.0
1030
0.0
1010
0.0
1020
0.0
1030
1.0
1040
0.0
1040
297.0
1040
261.51769911504419
1040
148.5
1040
50.0
1040
0.0
1040
0.0
1070
     0
1070
   100
1070
     1
1070
     1
1070
     0
1070
     0
1070
     0
1070
     0
1040
0.0
1040
0.0
1040
0.0
1040
1.0
1040
1.0
1040
10.0
1040
10.0
1070
     0
1002
{
1002
}
1002
}
1001
GENIUS_GENODEF_13
1002
{
1000
HIER
1070
     0
1002
}
1002
{
1000
MANEDIT
1070
     0
1002
}
1002
{
1000
NOSEL
1070
     0
1002
}
1002
{
1000
BEHIND
1070
     0
1002
}
1002
{
1000
OTHER
1070
     0
1002
}
1002
{
1000
REACTOR
1002
}
1001
GENIUS_GENOBJ-N-SDF_13
1002
{
1000
OWNER
1000
GEN
1002
}
1001
GENIUS_GENSCREG_15
1000
PF
1040
1.0
1000
DF
1040
1.0
1000
MIN
1011
0.0
1021
-0.0
1031
0.0
1021
0.0
1031
0.0
1000
MAX
1011
523.0353982300885
1021
-0.0
1031
0.0
1021
297.0
1031
0.0
1000
FLAGS
1070
     2
  0
ENDSEC
  0
EOF
