  0
SECTION
  2
HEADER
  9
$ACADVER
  1
AC1009
  9
$INSBASE
 10
0.0
 20
0.0
 30
0.0
  9
$EXTMIN
 10
-100.1550187717223
 20
-57.0
 30
0.0
  9
$EXTMAX
 10
209.9965717
 20
68.000000000000028
 30
0.0
  9
$LIMMIN
 10
0.0
 20
0.0
  9
$LIMMAX
 10
420.0
 20
297.0
  9
$ORTHOMODE
 70
     1
  9
$REGENMODE
 70
     1
  9
$FILLMODE
 70
     1
  9
$QTEXTMODE
 70
     0
  9
$MIRRTEXT
 70
     1
  9
$DRAGMODE
 70
     2
  9
$LTSCALE
 40
10.0
  9
$OSMODE
 70
    47
  9
$ATTMODE
 70
     1
  9
$TEXTSIZE
 40
3.0
  9
$TRACEWID
 40
1.0
  9
$TEXTSTYLE
  7
YOKO
  9
$CLAYER
  8
245
  9
$CELTYPE
  6
BYLAYER
  9
$CECOLOR
 62
   256
  9
$DIMSCALE
 40
1.0
  9
$DIMASZ
 40
2.0
  9
$DIMEXO
 40
0.5
  9
$DIMDLI
 40
2.5
  9
$DIMRND
 40
0.0
  9
$DIMDLE
 40
0.0
  9
$DIMEXE
 40
1.0
  9
$DIMTP
 40
0.0
  9
$DIMTM
 40
0.0
  9
$DIMTXT
 40
2.799999999999998
  9
$DIMCEN
 40
0.0
  9
$DIMTSZ
 40
0.0
  9
$DIMTOL
 70
     0
  9
$DIMLIM
 70
     0
  9
$DIMTIH
 70
     0
  9
$DIMTOH
 70
     0
  9
$DIMSE1
 70
     0
  9
$DIMSE2
 70
     0
  9
$DIMTAD
 70
     3
  9
$DIMZIN
 70
     8
  9
$DIMBLK
  1

  9
$DIMASO
 70
     1
  9
$DIMSHO
 70
     1
  9
$DIMPOST
  1
<>
  9
$DIMAPOST
  1

  9
$DIMALT
 70
     0
  9
$DIMALTD
 70
     2
  9
$DIMALTF
 40
25.399999999999999
  9
$DIMLFAC
 40
1.0
  9
$DIMTOFL
 70
     1
  9
$DIMTVP
 40
0.0
  9
$DIMTIX
 70
     1
  9
$DIMSOXD
 70
     0
  9
$DIMSAH
 70
     1
  9
$DIMBLK1
  1
OPEN
  9
$DIMBLK2
  1
OPEN
  9
$DIMSTYLE
  2
BIGT
  9
$DIMCLRD
 70
   256
  9
$DIMCLRE
 70
   256
  9
$DIMCLRT
 70
    40
  9
$DIMTFAC
 40
1.0
  9
$DIMGAP
 40
1.0
  9
$LUNITS
 70
     2
  9
$LUPREC
 70
     2
  9
$SKETCHINC
 40
1.0
  9
$FILLETRAD
 40
16.0
  9
$AUNITS
 70
     0
  9
$AUPREC
 70
     3
  9
$MENU
  1
.
  9
$ELEVATION
 40
0.0
  9
$PELEVATION
 40
0.0
  9
$THICKNESS
 40
0.0
  9
$LIMCHECK
 70
     0
  9
$BLIPMODE
 70
     0
  9
$CHAMFERA
 40
0.2
  9
$CHAMFERB
 40
0.2
  9
$SKPOLY
 70
     0
  9
$TDCREATE
 40
2455106.5739078699
  9
$TDUPDATE
 40
2459606.485492107
  9
$TDINDWG
 40
0.0604152431
  9
$TDUSRTIMER
 40
0.0604152315
  9
$USRTIMER
 70
     1
  9
$ANGBASE
 50
0.0
  9
$ANGDIR
 70
     0
  9
$PDMODE
 70
     0
  9
$PDSIZE
 40
-5.0
  9
$PLINEWID
 40
0.0
  9
$COORDS
 70
     1
  9
$SPLFRAME
 70
     0
  9
$SPLINETYPE
 70
     6
  9
$SPLINESEGS
 70
     8
  9
$ATTDIA
 70
     1
  9
$ATTREQ
 70
     1
  9
$HANDLING
 70
     1
  9
$HANDSEED
  5
1DD7
  9
$SURFTAB1
 70
     6
  9
$SURFTAB2
 70
     6
  9
$SURFTYPE
 70
     6
  9
$SURFU
 70
     6
  9
$SURFV
 70
     6
  9
$UCSNAME
  2

  9
$UCSORG
 10
0.0
 20
0.0
 30
0.0
  9
$UCSXDIR
 10
1.0
 20
0.0
 30
0.0
  9
$UCSYDIR
 10
0.0
 20
1.0
 30
0.0
  9
$PUCSNAME
  2

  9
$PUCSORG
 10
0.0
 20
0.0
 30
0.0
  9
$PUCSXDIR
 10
1.0
 20
0.0
 30
0.0
  9
$PUCSYDIR
 10
0.0
 20
1.0
 30
0.0
  9
$USERI1
 70
     1
  9
$USERI2
 70
     0
  9
$USERI3
 70
     0
  9
$USERI4
 70
     0
  9
$USERI5
 70
     0
  9
$USERR1
 40
0.0
  9
$USERR2
 40
0.0
  9
$USERR3
 40
0.0
  9
$USERR4
 40
0.0
  9
$USERR5
 40
0.0
  9
$WORLDVIEW
 70
     1
  9
$SHADEDGE
 70
     3
  9
$SHADEDIF
 70
    70
  9
$TILEMODE
 70
     1
  9
$MAXACTVP
 70
    16
  9
$PLIMCHECK
 70
     0
  9
$PEXTMIN
 10
1.0000000000000000E+020
 20
1.0000000000000000E+020
 30
1.0000000000000000E+020
  9
$PEXTMAX
 10
-1.0000000000000000E+020
 20
-1.0000000000000000E+020
 30
-1.0000000000000000E+020
  9
$PLIMMIN
 10
0.0
 20
0.0
  9
$PLIMMAX
 10
420.0
 20
297.0
  9
$UNITMODE
 70
     0
  9
$VISRETAIN
 70
     0
  9
$PLINEGEN
 70
     0
  9
$PSLTSCALE
 70
     1
  0
ENDSEC
  0
SECTION
  2
TABLES
  0
TABLE
  2
VPORT
 70
     1
  0
VPORT
  2
*ACTIVE
 70
     0
 10
0.0
 20
0.0
 11
1.0
 21
1.0
 12
17.568732001890709
 22
2.589597897008701
 13
0.0
 23
0.0
 14
7.0
 24
7.0
 15
7.0
 25
7.0
 16
0.0
 26
0.0
 36
1.0
 17
0.0
 27
0.0
 37
0.0
 40
275.77267027818988
 41
1.488859764089121
 42
50.0
 43
0.0
 44
0.0
 50
0.0
 51
0.0
 71
     0
 72
  2000
 73
     1
 74
     0
 75
     0
 76
     0
 77
     0
 78
     0
  0
ENDTAB
  0
TABLE
  2
LTYPE
 70
    16
  0
LTYPE
  2
CONTINUOUS
 70
     0
  3
Solid line
 72
    65
 73
     0
 40
0.0
  0
LTYPE
  2
CENTER2
 70
     0
  3
___ _ ___ _ ___ _ ___ _ ___ _ ___ _ ___ _ ___ _
 72
    65
 73
     4
 40
1.125
 49
0.75
 49
-0.125
 49
0.125
 49
-0.125
  0
LTYPE
  2
HIDDEN2
 70
     0
  3
_ _ _ _ _ _ _ _ _ _ _ _ _ _ _ _ _ _ _ _ _ _ _ _
 72
    65
 73
     2
 40
0.1875
 49
0.125
 49
-0.0625
  0
LTYPE
  2
PHANTOM2
 70
     0
  3
___ _ _ ___ _ _ ___ _ _ ___ _ _ ___ _ _ ___ _ _
 72
    65
 73
     6
 40
1.25
 49
0.625
 49
-0.125
 49
0.125
 49
-0.125
 49
0.125
 49
-0.125
  0
LTYPE
  2
HIDDEN
 70
     0
  3
Hidden __ __ __ __ __ __ __ __ __ __ __ __ __ _
 72
    65
 73
     2
 40
0.375
 49
0.25
 49
-0.125
  0
LTYPE
  2
CENTER
 70
     0
  3
Center ____ _ ____ _ ____ _ ____ _ ____ _ ____
 72
    65
 73
     4
 40
2.0
 49
1.25
 49
-0.25
 49
0.25
 49
-0.25
  0
LTYPE
  2
AMCONSTR
 70
     0
  3
_______________________
 72
    65
 73
     2
 40
9999.0
 49
9999.0
 49
0.0
  0
LTYPE
  2
AMZIGZAG2
 70
     0
  3
/\/-/\/-/\/-/\/-/\/-/\/
 72
    65
 73
     2
 40
0.4401
 49
0.0001
 49
-0.4400000000000001
  0
LTYPE
  2
ACANSTGB
 70
     0
  3
__ . . __ . .
 72
    65
 73
     6
 40
0.35433070866
 49
0.15748031496
 49
-0.03937007874
 49
0.03937007874
 49
-0.03937007874
 49
0.03937007874
 49
-0.03937007874
  0
LTYPE
  2
ACANSTGL
 70
     0
  3
_ _ _ _ _
 72
    65
 73
     2
 40
0.11811023622
 49
0.07874015748
 49
-0.03937007874
  0
ENDTAB
  0
TABLE
  2
LAYER
 70
     9
  0
LAYER
  2
0
 70
     0
 62
     7
  6
CONTINUOUS
  0
LAYER
  2
245
 70
     0
 62
     2
  6
CENTER2
  0
LAYER
  2
240
 70
     0
 62
     4
  6
CONTINUOUS
  0
LAYER
  2
241
 70
     0
 62
   211
  6
CONTINUOUS
  0
LAYER
  2
242
 70
     0
 62
     3
  6
CONTINUOUS
  0
LAYER
  2
250
 70
     0
 62
     3
  6
CONTINUOUS
  0
LAYER
  2
243
 70
     0
 62
   211
  6
HIDDEN2
  0
LAYER
  2
247
 70
     0
 62
    60
  6
CONTINUOUS
  0
ENDTAB
  0
TABLE
  2
STYLE
 70
     5
  0
STYLE
  2
STANDARD
 70
     0
 40
0.0
 41
1.0
 50
0.0
 71
     0
 42
2.799999999999998
  3
romans.shx
  4
BIGFONT.SHX
  0
STYLE
  2
YOKO
 70
     0
 40
0.0
 41
1.0
 50
0.0
 71
     0
 42
3.0
  3
romans.shx
  4
extfont.shx
  0
STYLE
  2

 70
     1
 40
0.0
 41
1.0
 50
0.0
 71
     0
 42
3.0
  3
genltshp.shx
  4

  0
STYLE
  2
ACANSGDT
 70
     0
 40
0.0
 41
1.0
 50
0.0
 71
     0
 42
3.0
  3
amgdt.shx
  4

  0
ENDTAB
  0
TABLE
  2
VIEW
 70
     0
  0
ENDTAB
  0
TABLE
  2
UCS
 70
     0
  0
ENDTAB
  0
TABLE
  2
APPID
 70
    25
  0
APPID
  2
ACAD
 70
     0
  0
APPID
  2
ACADANNOTATIVE
 70
     0
  0
APPID
  2
GLOBAL
 70
     0
  0
APPID
  2
DETAIL
 70
     0
  0
APPID
  2
GRPNAME
 70
     0
  0
APPID
  2
GPARA
 70
     0
  0
APPID
  2
DCO15
 70
     0
  0
APPID
  2
ITEMNAME
 70
     0
  0
APPID
  2
GRADE_0
 70
     0
  0
APPID
  2
CONTENTBLOCKICON
 70
     0
  0
APPID
  2
MCAD_NO_VIS
 70
     0
  0
APPID
  2
ACAD_TEMP_GRAPHIC
 70
     0
  0
APPID
  2
ACATTRIBSERVICES
 70
     0
  0
APPID
  2
DESIGNERASSEMBLIES
 70
     0
  0
APPID
  2
ACAD_DSTYLE_DIMJAG
 70
     0
  0
APPID
  2
ACAD_DSTYLE_DIMBREAK
 70
     0
  0
APPID
  2
GENIUS_GENSCREG_15
 70
     0
  0
APPID
  2
GENIUS_GENOBJ-N-SDF_13
 70
     0
  0
APPID
  2
GENIUS_GENODEF_13
 70
     0
  0
APPID
  2
ACAD_NAV_VCDISPLAY
 70
     0
  0
APPID
  2
ACAD_MLEADERVER
 70
     0
  0
APPID
  2
GENIUS_GENOBJ-N-FIL_13
 70
     0
  0
APPID
  2
ACAD_PSEXT
 70
     0
  0
APPID
  2
ACAD_DSTYLE_DIMRADIAL_EXTENSION
 70
     0
  0
APPID
  2
ACAECLAYERSTANDARD
 70
     0
  0
ENDTAB
  0
TABLE
  2
DIMSTYLE
 70
     7
  0
DIMSTYLE
  2
BIGT
 70
     0
  3

  4

  5

  6

  7

 40
1.0
 41
2.2299999999999991
 42
0.5
 43
2.5
 44
1.0
 45
0.0
 46
0.0
 47
0.0
 48
0.0
140
2.799999999999998
141
0.0
142
0.0
143
25.399999999999999
144
1.0
145
0.0
146
1.0
147
1.0
 71
     0
 72
     0
 73
     0
 74
     0
 75
     0
 76
     0
 77
     3
 78
     8
170
     0
171
     2
172
     1
173
     1
174
     1
175
     0
176
   256
177
   256
178
    40
  0
DIMSTYLE
  2
AM_ANSI
 70
     0
  3

  4
mm
  5

  6

  7

 40
1.0
 41
0.12
 42
0.05
 43
0.5
 44
0.1
 45
0.0
 46
0.0
 47
0.1
 48
0.1
140
0.12
141
0.0
142
0.0
143
25.399999999999999
144
1.0
145
0.0
146
0.71
147
0.06
 71
     0
 72
     0
 73
     1
 74
     1
 75
     0
 76
     0
 77
     0
 78
     7
170
     0
171
     2
172
     0
173
     0
174
     0
175
     0
176
   256
177
   256
178
     2
  0
DIMSTYLE
  2
AM_ANSI$3
 70
     0
  3

  4
mm
  5

  6

  7

 40
1.0
 41
0.12
 42
0.05
 43
0.5
 44
0.1
 45
0.0
 46
0.0
 47
0.1
 48
0.1
140
0.12
141
0.0
142
0.0
143
25.399999999999999
144
1.0
145
0.0
146
0.71
147
0.06
 71
     0
 72
     0
 73
     1
 74
     1
 75
     0
 76
     0
 77
     0
 78
     7
170
     0
171
     2
172
     0
173
     0
174
     0
175
     0
176
   256
177
   256
178
     2
  0
DIMSTYLE
  2
AM_ANSI$4
 70
     0
  3

  4
mm
  5

  6

  7

 40
1.0
 41
0.12
 42
0.05
 43
0.5
 44
0.1
 45
0.0
 46
0.0
 47
0.1
 48
0.1
140
0.12
141
0.0
142
0.0
143
25.399999999999999
144
1.0
145
0.0
146
0.71
147
0.06
 71
     0
 72
     0
 73
     1
 74
     1
 75
     0
 76
     0
 77
     0
 78
     7
170
     0
171
     2
172
     0
173
     0
174
     0
175
     0
176
   256
177
   256
178
     2
  0
DIMSTYLE
  2
AM_ANSI$7
 70
     0
  3

  4
mm
  5

  6

  7

 40
1.0
 41
0.12
 42
0.05
 43
0.5
 44
0.1
 45
0.0
 46
0.0
 47
0.1
 48
0.1
140
0.12
141
0.0
142
0.0
143
25.399999999999999
144
1.0
145
0.0
146
0.71
147
0.06
 71
     0
 72
     0
 73
     1
 74
     1
 75
     0
 76
     0
 77
     0
 78
     7
170
     0
171
     2
172
     0
173
     0
174
     0
175
     0
176
   256
177
   256
178
     2
  0
DIMSTYLE
  2
AM_ANSI$SF
 70
     0
  3

  4
mm
  5

  6

  7

 40
1.0
 41
0.12
 42
0.05
 43
0.5
 44
0.1
 45
0.0
 46
0.0
 47
0.1
 48
0.1
140
0.12
141
0.0
142
0.0
143
25.399999999999999
144
1.0
145
0.0
146
0.71
147
0.06
 71
     0
 72
     0
 73
     1
 74
     1
 75
     1
 76
     1
 77
     0
 78
     7
170
     0
171
     2
172
     0
173
     0
174
     0
175
     0
176
   256
177
   256
178
     2
  0
DIMSTYLE
  2
AM_ANSI$SH
 70
     0
  3

  4
mm
  5

  6
GENAXEH
  7

 40
1.0
 41
0.12
 42
0.05
 43
0.5
 44
0.1
 45
0.0
 46
0.0
 47
0.1
 48
0.1
140
0.12
141
0.0
142
0.0
143
25.399999999999999
144
1.0
145
0.0
146
0.71
147
0.06
 71
     0
 72
     0
 73
     1
 74
     1
 75
     1
 76
     1
 77
     0
 78
     7
170
     0
171
     2
172
     0
173
     1
174
     0
175
     0
176
   256
177
   256
178
     2
  0
ENDTAB
  0
ENDSEC
  0
SECTION
  2
BLOCKS
  0
BLOCK
  8
0
  2
$MODEL_SPACE
 70
     0
 10
0.0
 20
0.0
 30
0.0
  3
$MODEL_SPACE
  1

  0
ENDBLK
  5
1685
  8
0
  0
BLOCK
 67
     1
  8
0
  2
$PAPER_SPACE
 70
     0
 10
0.0
 20
0.0
 30
0.0
  3
$PAPER_SPACE
  1

  0
ENDBLK
  5
1681
 67
     1
  8
0
  0
BLOCK
  8
0
  2
_OPEN
 70
     0
 10
0.0
 20
0.0
 30
0.0
  3
_OPEN
  1

  0
LINE
  5
595
  8
0
  6
BYBLOCK
 62
     0
 10
-1.0
 20
0.16666667
 30
0.0
 11
0.0
 21
0.0
 31
0.0
  0
LINE
  5
596
  8
0
  6
BYBLOCK
 62
     0
 10
-1.0
 20
-0.16666667
 30
0.0
 11
0.0
 21
0.0
 31
0.0
  0
LINE
  5
597
  8
0
  6
BYBLOCK
 62
     0
 10
0.0
 20
0.0
 30
0.0
 11
-1.0
 21
0.0
 31
0.0
  0
ENDBLK
  5
599
  8
0
  0
BLOCK
  8
0
  2
矢印なし
 70
     0
 10
0.0
 20
0.0
 30
0.0
  3
矢印なし
  1

  0
ENDBLK
  5
6E5
  8
0
  0
BLOCK
  8
0
  2
GENAXEH
 70
     0
 10
0.0
 20
0.0
 30
0.0
  3
GENAXEH
  1

  0
LINE
  5
18F7
  8
0
 10
-1.0
 20
0.0
 30
0.0
 11
1.0
 21
0.0
 31
0.0
  0
ENDBLK
  5
18F9
  8
0
  0
BLOCK
  8
0
  2
_ACMFILLEDHALF
 70
     0
 10
0.0
 20
0.0
 30
0.0
  3
_ACMFILLEDHALF
  1

  0
TRACE
  5
1909
  8
245
 62
     0
 10
-0.8
 20
0.0
 30
0.0
 11
-1.0
 21
0.166666666
 31
0.0
 12
0.0
 22
0.0
 32
0.0
 13
0.0
 23
0.0
 33
0.0
  0
LINE
  5
190A
  8
245
 62
     0
 10
-1.0
 20
0.0
 30
0.0
 11
-0.8
 21
0.0
 31
0.0
  0
ENDBLK
  5
1908
  8
0
  0
BLOCK
  8
0
  2
*U6
 70
     1
 10
0.0
 20
0.0
 30
0.0
  3
*U6
  1

  0
TEXT
  5
1DD0
  8
250
 10
176.165201087675
 20
4.0025814792648058
 30
0.0
 40
2.799999999999998
  1
（\U+03C680）
 50
19.819052951222179
  0
ENDBLK
  5
1DD2
  8
0
  0
BLOCK
  8
0
  2
*U7
 70
     1
 10
0.0
 20
0.0
 30
0.0
  3
*U7
  1

  0
TEXT
  5
1DD4
  8
250
 10
45.799999999999997
 20
-55.0
 30
0.0
 40
2.799999999999998
  1
100
  0
ENDBLK
  5
1DD6
  8
0
  0
ENDSEC
  0
SECTION
  2
ENTITIES
  0
INSERT
  5
6E6
  8
245
  2
矢印なし
 10
175.62382697000001
 20
90.551235719999994
 30
0.0
  0
TEXT
  5
807
  8
241
  6
CONTINUOUS
 10
-38.0
 20
63.0
 30
0.0
 40
5.0
  1
C6-180-BH20R-32100
  7
YOKO
 11
-38.0
 21
63.0
 31
0.0
 73
     1
  0
LINE
  5
E7B
  8
245
  6
CENTER2
 10
125.99657199000001
 20
-0.0035268
 30
0.0
 11
209.9965717
 21
-0.0035268
 31
0.0
  0
CIRCLE
  5
E7C
  8
242
  6
PHANTOM2
 10
167.99657184
 20
-0.00695496
 30
0.0
 40
40.0
  0
LINE
  5
E7D
  8
241
  6
CONTINUOUS
 10
146.56936970999999
 20
-23.08984495
 30
0.0
 11
200.66429582000001
 21
-23.08984495
 31
0.0
  0
LINE
  5
E7E
  8
241
  6
CONTINUOUS
 10
139.46562674
 20
-13.34667271
 30
0.0
 11
205.70667566
 21
-13.34667271
 31
0.0
  0
ARC
  5
E7F
  8
240
  6
CONTINUOUS
 10
186.32229953000001
 20
15.49647321
 30
0.0
 40
16.0
 50
40.228184759999998
 51
90.0
  0
LINE
  5
E81
  8
240
  6
CONTINUOUS
 10
23.933012707760241
 20
-31.5
 30
0.0
 11
80.476562110000003
 21
-26.553080430000001
 31
0.0
  0
LINE
  5
E82
  8
240
 10
100.0
 20
31.5
 30
0.0
 11
0.0
 21
31.5
 31
0.0
  0
LINE
  5
E83
  8
245
  6
CENTER2
 10
-39.0
 20
0.0
 30
0.0
 11
100.93301271
 21
0.0
 31
0.0
  0
LINE
  5
E84
  8
241
  6
CONTINUOUS
 10
49.49999502
 20
18.61324801
 30
0.0
 11
46.999995019999993
 21
20.056623689999999
 31
0.0
  0
CIRCLE
  5
E85
  8
242
  6
CONTINUOUS
 10
49.49999502
 20
21.49999936
 30
0.0
 40
4.25
  0
CIRCLE
  5
E86
  8
241
  6
CONTINUOUS
 10
49.49999502
 20
21.499994439999998
 30
0.0
 40
5.0
  0
LINE
  5
E87
  8
241
  6
CONTINUOUS
 10
46.999995019999993
 20
22.943375029999999
 30
0.0
 11
49.49999502
 21
24.386750710000001
 31
0.0
  0
LINE
  5
E88
  8
245
  6
CENTER2
 10
43.49999502
 20
21.499999899999999
 30
0.0
 11
95.49999502
 21
21.499995200000001
 31
0.0
  0
LINE
  5
E89
  8
243
  6
HIDDEN2
 10
34.99999502
 20
11.4998
 30
0.0
 11
99.999995020000014
 21
11.4998
 31
0.0
  0
LINE
  5
E92
  8
241
  6
CONTINUOUS
 10
46.999995019999993
 20
20.056623689999999
 30
0.0
 11
46.999995019999993
 21
22.943375029999999
 31
0.0
  0
LINE
  5
E93
  8
243
  6
HIDDEN2
 10
34.99999502
 20
11.4998
 30
0.0
 11
34.99999502
 21
31.5
 31
0.0
  0
LINE
  5
EB2
  8
241
  6
CONTINUOUS
 10
188.0
 20
11.49647321
 30
0.0
 11
188.0
 21
31.408271379999999
 31
0.0
  0
LINE
  5
EB3
  8
241
  6
CONTINUOUS
 10
168.0
 20
11.50044171
 30
0.0
 11
168.0
 21
31.496473210000001
 31
0.0
  0
LINE
  5
EB4
  8
240
  6
CONTINUOUS
 10
100.0
 20
31.5
 30
0.0
 11
100.0
 21
-7.6862914999999967
 31
0.0
  0
LINE
  5
EB6
  8
245
  6
CENTER2
 10
168.0
 20
41.993044899999987
 30
0.0
 11
168.0
 21
-42.006954810000003
 31
0.0
  0
LINE
  5
EB7
  8
241
  6
CONTINUOUS
 10
91.99999502
 20
22.943375670000002
 30
0.0
 11
91.99999502
 21
20.056624329999998
 31
0.0
  0
LINE
  5
EB8
  8
241
  6
CONTINUOUS
 10
86.99999502
 20
20.056624329999998
 30
0.0
 11
86.99999502
 21
22.943375670000002
 31
0.0
  0
CIRCLE
  5
EB9
  8
241
  6
CONTINUOUS
 10
89.49999502
 20
21.499995080000001
 30
0.0
 40
5.0
  0
LINE
  5
EBA
  8
245
  6
CENTER2
 10
89.49999502
 20
15.49999508
 30
0.0
 11
89.49999502
 21
27.499995080000001
 31
0.0
  0
CIRCLE
  5
EBB
  8
242
  6
CONTINUOUS
 10
89.49999502
 20
21.5
 30
0.0
 40
4.25
  0
LINE
  5
EBC
  8
241
  6
CONTINUOUS
 10
71.99999502
 20
22.943373229999999
 30
0.0
 11
71.99999502
 21
20.056621880000002
 31
0.0
  0
LINE
  5
EBD
  8
241
  6
CONTINUOUS
 10
66.99999502
 20
20.056621880000002
 30
0.0
 11
66.99999502
 21
22.943373229999999
 31
0.0
  0
CIRCLE
  5
EBE
  8
241
  6
CONTINUOUS
 10
69.49999502
 20
21.499992630000001
 30
0.0
 40
5.0
  0
LINE
  5
EBF
  8
245
  6
CENTER2
 10
69.49999502
 20
15.499992629999999
 30
0.0
 11
69.49999502
 21
27.499992630000001
 31
0.0
  0
CIRCLE
  5
EC0
  8
242
  6
CONTINUOUS
 10
69.49999502
 20
21.49999755
 30
0.0
 40
4.25
  0
LINE
  5
EC1
  8
241
  6
CONTINUOUS
 10
51.99999502
 20
22.943375029999999
 30
0.0
 11
51.99999502
 21
20.056623689999999
 31
0.0
  0
LINE
  5
EC2
  8
245
  6
CENTER2
 10
49.49999502
 20
15.49999444
 30
0.0
 11
49.49999502
 21
27.499994439999998
 31
0.0
  0
ARC
  5
EC3
  8
240
  6
CONTINUOUS
 10
79.430693199999979
 20
-14.59874406
 30
0.0
 40
12.0
 50
275.0
 51
315.0
  0
LINE
  5
EC4
  8
241
  6
CONTINUOUS
 10
51.99999502
 20
20.056623689999999
 30
0.0
 11
49.49999502
 21
18.61324801
 31
0.0
  0
LINE
  5
EC5
  8
241
  6
CONTINUOUS
 10
69.49999502
 20
18.61324621
 30
0.0
 11
66.99999502
 21
20.056621880000002
 31
0.0
  0
LINE
  5
EC6
  8
241
  6
CONTINUOUS
 10
71.99999502
 20
20.056621880000002
 30
0.0
 11
69.49999502
 21
18.61324621
 31
0.0
  0
LINE
  5
EC7
  8
240
  6
CONTINUOUS
 10
97.656854249999995
 20
-13.34314575
 30
0.0
 11
87.915974569999975
 21
-23.084025430000001
 31
0.0
  0
ARC
  5
EC8
  8
240
  6
CONTINUOUS
 10
92.0
 20
-7.6862914999999967
 30
0.0
 40
8.0
 50
315.0
 51
0.0
  0
LINE
  5
EC9
  8
241
  6
CONTINUOUS
 10
91.99999502
 20
20.056624329999998
 30
0.0
 11
89.49999502
 21
18.613248649999999
 31
0.0
  0
LINE
  5
ECA
  8
241
  6
CONTINUOUS
 10
89.49999502
 20
18.613248649999999
 30
0.0
 11
86.99999502
 21
20.056624329999998
 31
0.0
  0
LINE
  5
ECC
  8
240
  6
CONTINUOUS
 10
168.0
 20
-31.50352681
 30
0.0
 11
186.32229953334959
 21
-31.50352681
 31
0.0
  0
ARC
  5
ECD
  8
241
  6
CONTINUOUS
 10
154.5
 20
4.7435875200000002
 30
0.0
 40
6.9566582738374381
 50
191.16551386
 51
348.83448614000002
  0
POLYLINE
  5
ECE
  8
241
  6
CONTINUOUS
 66
     1
 10
0.0
 20
0.0
 30
0.0
 70
     8
  0
VERTEX
  5
12CB
  8
241
  6
CONTINUOUS
 10
161.32499999999999
 20
3.3964699999999981
 30
0.0
 70
    32
  0
VERTEX
  5
12CC
  8
241
  6
CONTINUOUS
 10
161.352
 20
3.5414300000000001
 30
0.0
 70
    32
  0
VERTEX
  5
12CD
  8
241
  6
CONTINUOUS
 10
161.37700000000001
 20
3.6869399999999999
 30
0.0
 70
    32
  0
VERTEX
  5
12CE
  8
241
  6
CONTINUOUS
 10
161.40000000000001
 20
3.8329599999999981
 30
0.0
 70
    32
  0
VERTEX
  5
12CF
  8
241
  6
CONTINUOUS
 10
161.42099999999999
 20
3.9794299999999998
 30
0.0
 70
    32
  0
VERTEX
  5
12D0
  8
241
  6
CONTINUOUS
 10
161.43899999999999
 20
4.1263199999999971
 30
0.0
 70
    32
  0
VERTEX
  5
12D1
  8
241
  6
CONTINUOUS
 10
161.45500000000001
 20
4.273559999999998
 30
0.0
 70
    32
  0
VERTEX
  5
12D2
  8
241
  6
CONTINUOUS
 10
161.46799999999999
 20
4.4211199999999984
 30
0.0
 70
    32
  0
VERTEX
  5
12D3
  8
241
  6
CONTINUOUS
 10
161.47900000000001
 20
4.568929999999999
 30
0.0
 70
    32
  0
VERTEX
  5
12D4
  8
241
  6
CONTINUOUS
 10
161.488
 20
4.7169600000000003
 30
0.0
 70
    32
  0
VERTEX
  5
12D5
  8
241
  6
CONTINUOUS
 10
161.494
 20
4.8651400000000002
 30
0.0
 70
    32
  0
VERTEX
  5
12D6
  8
241
  6
CONTINUOUS
 10
161.49799999999999
 20
5.0134400000000001
 30
0.0
 70
    32
  0
VERTEX
  5
12D7
  8
241
  6
CONTINUOUS
 10
161.5
 20
5.1617899999999981
 30
0.0
 70
    32
  0
VERTEX
  5
12D8
  8
241
  6
CONTINUOUS
 10
161.499
 20
5.3101599999999971
 30
0.0
 70
    32
  0
VERTEX
  5
12D9
  8
241
  6
CONTINUOUS
 10
161.49600000000001
 20
5.4584799999999998
 30
0.0
 70
    32
  0
VERTEX
  5
12DA
  8
241
  6
CONTINUOUS
 10
161.49100000000001
 20
5.6067200000000001
 30
0.0
 70
    32
  0
VERTEX
  5
12DB
  8
241
  6
CONTINUOUS
 10
161.483
 20
5.7548199999999969
 30
0.0
 70
    32
  0
VERTEX
  5
12DC
  8
241
  6
CONTINUOUS
 10
161.4729999999999
 20
5.9027199999999969
 30
0.0
 70
    32
  0
VERTEX
  5
12DD
  8
241
  6
CONTINUOUS
 10
161.46000000000001
 20
6.0503900000000002
 30
0.0
 70
    32
  0
VERTEX
  5
12DE
  8
241
  6
CONTINUOUS
 10
161.446
 20
6.1977699999999967
 30
0.0
 70
    32
  0
VERTEX
  5
12DF
  8
241
  6
CONTINUOUS
 10
161.429
 20
6.3448099999999972
 30
0.0
 70
    32
  0
VERTEX
  5
12E0
  8
241
  6
CONTINUOUS
 10
161.40899999999999
 20
6.49146
 30
0.0
 70
    32
  0
VERTEX
  5
12E1
  8
241
  6
CONTINUOUS
 10
161.387
 20
6.6376799999999996
 30
0.0
 70
    32
  0
VERTEX
  5
12E2
  8
241
  6
CONTINUOUS
 10
161.363
 20
6.7834099999999999
 30
0.0
 70
    32
  0
VERTEX
  5
12E3
  8
241
  6
CONTINUOUS
 10
161.33699999999999
 20
6.9286000000000003
 30
0.0
 70
    32
  0
VERTEX
  5
12E4
  8
241
  6
CONTINUOUS
 10
161.30799999999999
 20
7.073199999999999
 30
0.0
 70
    32
  0
VERTEX
  5
12E5
  8
241
  6
CONTINUOUS
 10
161.27699999999999
 20
7.217179999999999
 30
0.0
 70
    32
  0
VERTEX
  5
12E6
  8
241
  6
CONTINUOUS
 10
161.244
 20
7.3604699999999967
 30
0.0
 70
    32
  0
VERTEX
  5
12E7
  8
241
  6
CONTINUOUS
 10
161.208
 20
7.5030299999999972
 30
0.0
 70
    32
  0
VERTEX
  5
12E8
  8
241
  6
CONTINUOUS
 10
161.16999999999999
 20
7.6448099999999997
 30
0.0
 70
    32
  0
VERTEX
  5
12E9
  8
241
  6
CONTINUOUS
 10
161.13
 20
7.7857699999999967
 30
0.0
 70
    32
  0
VERTEX
  5
12EA
  8
241
  6
CONTINUOUS
 10
161.08799999999999
 20
7.925849999999997
 30
0.0
 70
    32
  0
VERTEX
  5
12EB
  8
241
  6
CONTINUOUS
 10
161.04300000000001
 20
8.0650099999999991
 30
0.0
 70
    32
  0
VERTEX
  5
12EC
  8
241
  6
CONTINUOUS
 10
160.99600000000001
 20
8.2032100000000003
 30
0.0
 70
    32
  0
VERTEX
  5
12ED
  8
241
  6
CONTINUOUS
 10
160.947
 20
8.3403899999999993
 30
0.0
 70
    32
  0
VERTEX
  5
12EE
  8
241
  6
CONTINUOUS
 10
160.89599999999999
 20
8.4764999999999961
 30
0.0
 70
    32
  0
VERTEX
  5
12EF
  8
241
  6
CONTINUOUS
 10
160.84299999999999
 20
8.6115200000000005
 30
0.0
 70
    32
  0
VERTEX
  5
12F0
  8
241
  6
CONTINUOUS
 10
160.7879999999999
 20
8.7453800000000008
 30
0.0
 70
    32
  0
VERTEX
  5
12F1
  8
241
  6
CONTINUOUS
 10
160.72999999999999
 20
8.8780399999999968
 30
0.0
 70
    32
  0
VERTEX
  5
12F2
  8
241
  6
CONTINUOUS
 10
160.66999999999999
 20
9.0094600000000007
 30
0.0
 70
    32
  0
VERTEX
  5
12F3
  8
241
  6
CONTINUOUS
 10
160.60900000000001
 20
9.1395999999999997
 30
0.0
 70
    32
  0
VERTEX
  5
12F4
  8
241
  6
CONTINUOUS
 10
160.54499999999999
 20
9.2683999999999997
 30
0.0
 70
    32
  0
VERTEX
  5
12F5
  8
241
  6
CONTINUOUS
 10
160.47900000000001
 20
9.3958399999999997
 30
0.0
 70
    32
  0
VERTEX
  5
12F6
  8
241
  6
CONTINUOUS
 10
160.411
 20
9.5218500000000006
 30
0.0
 70
    32
  0
VERTEX
  5
12F7
  8
241
  6
CONTINUOUS
 10
160.34100000000001
 20
9.6464099999999995
 30
0.0
 70
    32
  0
VERTEX
  5
12F8
  8
241
  6
CONTINUOUS
 10
160.27000000000001
 20
9.7694700000000001
 30
0.0
 70
    32
  0
VERTEX
  5
12F9
  8
241
  6
CONTINUOUS
 10
160.196
 20
9.8909800000000008
 30
0.0
 70
    32
  0
VERTEX
  5
12FA
  8
241
  6
CONTINUOUS
 10
160.12
 20
10.010899999999999
 30
0.0
 70
    32
  0
VERTEX
  5
12FB
  8
241
  6
CONTINUOUS
 10
160.04300000000001
 20
10.129200000000001
 30
0.0
 70
    32
  0
VERTEX
  5
12FC
  8
241
  6
CONTINUOUS
 10
159.96299999999999
 20
10.245900000000001
 30
0.0
 70
    32
  0
VERTEX
  5
12FD
  8
241
  6
CONTINUOUS
 10
159.88200000000001
 20
10.360799999999999
 30
0.0
 70
    32
  0
VERTEX
  5
12FE
  8
241
  6
CONTINUOUS
 10
159.79900000000001
 20
10.474
 30
0.0
 70
    32
  0
VERTEX
  5
12FF
  8
241
  6
CONTINUOUS
 10
159.714
 20
10.5854
 30
0.0
 70
    32
  0
VERTEX
  5
1300
  8
241
  6
CONTINUOUS
 10
159.62799999999999
 20
10.695
 30
0.0
 70
    32
  0
VERTEX
  5
1301
  8
241
  6
CONTINUOUS
 10
159.53899999999999
 20
10.8028
 30
0.0
 70
    32
  0
VERTEX
  5
1302
  8
241
  6
CONTINUOUS
 10
159.44900000000001
 20
10.9086
 30
0.0
 70
    32
  0
VERTEX
  5
1303
  8
241
  6
CONTINUOUS
 10
159.358
 20
11.012600000000001
 30
0.0
 70
    32
  0
VERTEX
  5
1304
  8
241
  6
CONTINUOUS
 10
159.26400000000001
 20
11.114599999999999
 30
0.0
 70
    32
  0
VERTEX
  5
1305
  8
241
  6
CONTINUOUS
 10
159.16900000000001
 20
11.214499999999999
 30
0.0
 70
    32
  0
VERTEX
  5
1306
  8
241
  6
CONTINUOUS
 10
159.07299999999989
 20
11.3125
 30
0.0
 70
    32
  0
VERTEX
  5
1307
  8
241
  6
CONTINUOUS
 10
158.97499999999999
 20
11.4084
 30
0.0
 70
    32
  0
VERTEX
  5
1308
  8
241
  6
CONTINUOUS
 10
158.875
 20
11.5022
 30
0.0
 70
    32
  0
VERTEX
  5
1309
  8
241
  6
CONTINUOUS
 10
158.774
 20
11.5938
 30
0.0
 70
    32
  0
VERTEX
  5
130A
  8
241
  6
CONTINUOUS
 10
158.672
 20
11.683299999999999
 30
0.0
 70
    32
  0
VERTEX
  5
130B
  8
241
  6
CONTINUOUS
 10
158.56800000000001
 20
11.7707
 30
0.0
 70
    32
  0
VERTEX
  5
130C
  8
241
  6
CONTINUOUS
 10
158.46299999999999
 20
11.8558
 30
0.0
 70
    32
  0
VERTEX
  5
130D
  8
241
  6
CONTINUOUS
 10
158.35599999999999
 20
11.938599999999999
 30
0.0
 70
    32
  0
VERTEX
  5
130E
  8
241
  6
CONTINUOUS
 10
158.24799999999999
 20
12.0192
 30
0.0
 70
    32
  0
VERTEX
  5
130F
  8
241
  6
CONTINUOUS
 10
158.13900000000001
 20
12.0975
 30
0.0
 70
    32
  0
VERTEX
  5
1310
  8
241
  6
CONTINUOUS
 10
158.029
 20
12.173500000000001
 30
0.0
 70
    32
  0
VERTEX
  5
1311
  8
241
  6
CONTINUOUS
 10
157.917
 20
12.2471
 30
0.0
 70
    32
  0
VERTEX
  5
1312
  8
241
  6
CONTINUOUS
 10
157.804
 20
12.318300000000001
 30
0.0
 70
    32
  0
VERTEX
  5
1313
  8
241
  6
CONTINUOUS
 10
157.69
 20
12.3871
 30
0.0
 70
    32
  0
VERTEX
  5
1314
  8
241
  6
CONTINUOUS
 10
157.57599999999999
 20
12.4536
 30
0.0
 70
    32
  0
VERTEX
  5
1315
  8
241
  6
CONTINUOUS
 10
157.46000000000001
 20
12.5175
 30
0.0
 70
    32
  0
VERTEX
  5
1316
  8
241
  6
CONTINUOUS
 10
157.34299999999999
 20
12.579000000000001
 30
0.0
 70
    32
  0
VERTEX
  5
1317
  8
241
  6
CONTINUOUS
 10
157.22499999999999
 20
12.638
 30
0.0
 70
    32
  0
VERTEX
  5
1318
  8
241
  6
CONTINUOUS
 10
157.10599999999999
 20
12.6945
 30
0.0
 70
    32
  0
VERTEX
  5
1319
  8
241
  6
CONTINUOUS
 10
156.98599999999999
 20
12.7485
 30
0.0
 70
    32
  0
VERTEX
  5
131A
  8
241
  6
CONTINUOUS
 10
156.86600000000001
 20
12.799899999999999
 30
0.0
 70
    32
  0
VERTEX
  5
131B
  8
241
  6
CONTINUOUS
 10
156.744
 20
12.848800000000001
 30
0.0
 70
    32
  0
VERTEX
  5
131C
  8
241
  6
CONTINUOUS
 10
156.62200000000001
 20
12.895
 30
0.0
 70
    32
  0
VERTEX
  5
131D
  8
241
  6
CONTINUOUS
 10
156.5
 20
12.938700000000001
 30
0.0
 70
    32
  0
VERTEX
  5
131E
  8
241
  6
CONTINUOUS
 10
156.376
 20
12.979799999999999
 30
0.0
 70
    32
  0
VERTEX
  5
131F
  8
241
  6
CONTINUOUS
 10
156.25200000000001
 20
13.0183
 30
0.0
 70
    32
  0
VERTEX
  5
1320
  8
241
  6
CONTINUOUS
 10
156.12700000000001
 20
13.0541
 30
0.0
 70
    32
  0
VERTEX
  5
1321
  8
241
  6
CONTINUOUS
 10
156.00200000000001
 20
13.087199999999999
 30
0.0
 70
    32
  0
VERTEX
  5
1322
  8
241
  6
CONTINUOUS
 10
155.876
 20
13.117699999999999
 30
0.0
 70
    32
  0
VERTEX
  5
1323
  8
241
  6
CONTINUOUS
 10
155.75
 20
13.1456
 30
0.0
 70
    32
  0
VERTEX
  5
1324
  8
241
  6
CONTINUOUS
 10
155.624
 20
13.1707
 30
0.0
 70
    32
  0
VERTEX
  5
1325
  8
241
  6
CONTINUOUS
 10
155.49700000000001
 20
13.193199999999999
 30
0.0
 70
    32
  0
VERTEX
  5
1326
  8
241
  6
CONTINUOUS
 10
155.369
 20
13.212999999999999
 30
0.0
 70
    32
  0
VERTEX
  5
1327
  8
241
  6
CONTINUOUS
 10
155.24199999999999
 20
13.2301
 30
0.0
 70
    32
  0
VERTEX
  5
1328
  8
241
  6
CONTINUOUS
 10
155.114
 20
13.244400000000001
 30
0.0
 70
    32
  0
VERTEX
  5
1329
  8
241
  6
CONTINUOUS
 10
154.98599999999999
 20
13.2561
 30
0.0
 70
    32
  0
VERTEX
  5
132A
  8
241
  6
CONTINUOUS
 10
154.857
 20
13.265000000000001
 30
0.0
 70
    32
  0
VERTEX
  5
132B
  8
241
  6
CONTINUOUS
 10
154.72900000000001
 20
13.2712
 30
0.0
 70
    32
  0
VERTEX
  5
132C
  8
241
  6
CONTINUOUS
 10
154.59999999999999
 20
13.274699999999999
 30
0.0
 70
    32
  0
VERTEX
  5
132D
  8
241
  6
CONTINUOUS
 10
154.47200000000001
 20
13.275499999999999
 30
0.0
 70
    32
  0
VERTEX
  5
132E
  8
241
  6
CONTINUOUS
 10
154.34299999999999
 20
13.2735
 30
0.0
 70
    32
  0
VERTEX
  5
132F
  8
241
  6
CONTINUOUS
 10
154.215
 20
13.268800000000001
 30
0.0
 70
    32
  0
VERTEX
  5
1330
  8
241
  6
CONTINUOUS
 10
154.08699999999999
 20
13.2614
 30
0.0
 70
    32
  0
VERTEX
  5
1331
  8
241
  6
CONTINUOUS
 10
153.959
 20
13.251300000000001
 30
0.0
 70
    32
  0
VERTEX
  5
1332
  8
241
  6
CONTINUOUS
 10
153.83099999999999
 20
13.2385
 30
0.0
 70
    32
  0
VERTEX
  5
1333
  8
241
  6
CONTINUOUS
 10
153.703
 20
13.222899999999999
 30
0.0
 70
    32
  0
VERTEX
  5
1334
  8
241
  6
CONTINUOUS
 10
153.57499999999999
 20
13.204700000000001
 30
0.0
 70
    32
  0
VERTEX
  5
1335
  8
241
  6
CONTINUOUS
 10
153.44800000000001
 20
13.1837
 30
0.0
 70
    32
  0
VERTEX
  5
1336
  8
241
  6
CONTINUOUS
 10
153.321
 20
13.1601
 30
0.0
 70
    32
  0
VERTEX
  5
1337
  8
241
  6
CONTINUOUS
 10
153.19499999999999
 20
13.133800000000001
 30
0.0
 70
    32
  0
VERTEX
  5
1338
  8
241
  6
CONTINUOUS
 10
153.06899999999999
 20
13.104799999999999
 30
0.0
 70
    32
  0
VERTEX
  5
1339
  8
241
  6
CONTINUOUS
 10
152.94300000000001
 20
13.0731
 30
0.0
 70
    32
  0
VERTEX
  5
133A
  8
241
  6
CONTINUOUS
 10
152.81800000000001
 20
13.0388
 30
0.0
 70
    32
  0
VERTEX
  5
133B
  8
241
  6
CONTINUOUS
 10
152.69399999999999
 20
13.001799999999999
 30
0.0
 70
    32
  0
VERTEX
  5
133C
  8
241
  6
CONTINUOUS
 10
152.56999999999999
 20
12.962199999999999
 30
0.0
 70
    32
  0
VERTEX
  5
133D
  8
241
  6
CONTINUOUS
 10
152.447
 20
12.92
 30
0.0
 70
    32
  0
VERTEX
  5
133E
  8
241
  6
CONTINUOUS
 10
152.32400000000001
 20
12.8752
 30
0.0
 70
    32
  0
VERTEX
  5
133F
  8
241
  6
CONTINUOUS
 10
152.202
 20
12.8278
 30
0.0
 70
    32
  0
VERTEX
  5
1340
  8
241
  6
CONTINUOUS
 10
152.08199999999999
 20
12.777799999999999
 30
0.0
 70
    32
  0
VERTEX
  5
1341
  8
241
  6
CONTINUOUS
 10
151.96100000000001
 20
12.725199999999999
 30
0.0
 70
    32
  0
VERTEX
  5
1342
  8
241
  6
CONTINUOUS
 10
151.84200000000001
 20
12.670199999999999
 30
0.0
 70
    32
  0
VERTEX
  5
1343
  8
241
  6
CONTINUOUS
 10
151.72399999999999
 20
12.6126
 30
0.0
 70
    32
  0
VERTEX
  5
1344
  8
241
  6
CONTINUOUS
 10
151.60599999999999
 20
12.5525
 30
0.0
 70
    32
  0
VERTEX
  5
1345
  8
241
  6
CONTINUOUS
 10
151.49000000000001
 20
12.4899
 30
0.0
 70
    32
  0
VERTEX
  5
1346
  8
241
  6
CONTINUOUS
 10
151.374
 20
12.424899999999999
 30
0.0
 70
    32
  0
VERTEX
  5
1347
  8
241
  6
CONTINUOUS
 10
151.25999999999999
 20
12.3574
 30
0.0
 70
    32
  0
VERTEX
  5
1348
  8
241
  6
CONTINUOUS
 10
151.14599999999999
 20
12.2875
 30
0.0
 70
    32
  0
VERTEX
  5
1349
  8
241
  6
CONTINUOUS
 10
151.03399999999999
 20
12.215199999999999
 30
0.0
 70
    32
  0
VERTEX
  5
134A
  8
241
  6
CONTINUOUS
 10
150.923
 20
12.140599999999999
 30
0.0
 70
    32
  0
VERTEX
  5
134B
  8
241
  6
CONTINUOUS
 10
150.81299999999999
 20
12.063599999999999
 30
0.0
 70
    32
  0
SEQEND
  5
134C
  8
241
  6
CONTINUOUS
  0
POLYLINE
  5
ECF
  8
241
  6
CONTINUOUS
 66
     1
 10
0.0
 20
0.0
 30
0.0
 70
     8
  0
VERTEX
  5
134D
  8
241
  6
CONTINUOUS
 10
159.38
 20
-0.214058
 30
0.0
 70
    32
  0
VERTEX
  5
134E
  8
241
  6
CONTINUOUS
 10
159.44800000000001
 20
-0.139395
 30
0.0
 70
    32
  0
VERTEX
  5
134F
  8
241
  6
CONTINUOUS
 10
159.51400000000001
 20
-0.063714
 30
0.0
 70
    32
  0
VERTEX
  5
1350
  8
241
  6
CONTINUOUS
 10
159.57900000000001
 20
0.0129615
 30
0.0
 70
    32
  0
VERTEX
  5
1351
  8
241
  6
CONTINUOUS
 10
159.642
 20
0.0906077
 30
0.0
 70
    32
  0
VERTEX
  5
1352
  8
241
  6
CONTINUOUS
 10
159.70400000000001
 20
0.169201
 30
0.0
 70
    32
  0
VERTEX
  5
1353
  8
241
  6
CONTINUOUS
 10
159.76300000000001
 20
0.248717
 30
0.0
 70
    32
  0
VERTEX
  5
1354
  8
241
  6
CONTINUOUS
 10
159.822
 20
0.329131
 30
0.0
 70
    32
  0
VERTEX
  5
1355
  8
241
  6
CONTINUOUS
 10
159.87799999999999
 20
0.410419
 30
0.0
 70
    32
  0
VERTEX
  5
1356
  8
241
  6
CONTINUOUS
 10
159.93299999999999
 20
0.4925550000000002
 30
0.0
 70
    32
  0
VERTEX
  5
1357
  8
241
  6
CONTINUOUS
 10
159.98699999999999
 20
0.5755150000000003
 30
0.0
 70
    32
  0
VERTEX
  5
1358
  8
241
  6
CONTINUOUS
 10
160.03800000000001
 20
0.6592720000000001
 30
0.0
 70
    32
  0
VERTEX
  5
1359
  8
241
  6
CONTINUOUS
 10
160.08799999999999
 20
0.7438010000000001
 30
0.0
 70
    32
  0
VERTEX
  5
135A
  8
241
  6
CONTINUOUS
 10
160.137
 20
0.829077
 30
0.0
 70
    32
  0
VERTEX
  5
135B
  8
241
  6
CONTINUOUS
 10
160.18299999999999
 20
0.915071
 30
0.0
 70
    32
  0
VERTEX
  5
135C
  8
241
  6
CONTINUOUS
 10
160.22800000000001
 20
1.0017599999999971
 30
0.0
 70
    32
  0
VERTEX
  5
135D
  8
241
  6
CONTINUOUS
 10
160.27099999999999
 20
1.08911
 30
0.0
 70
    32
  0
VERTEX
  5
135E
  8
241
  6
CONTINUOUS
 10
160.31200000000001
 20
1.1771100000000001
 30
0.0
 70
    32
  0
VERTEX
  5
135F
  8
241
  6
CONTINUOUS
 10
160.352
 20
1.2657099999999999
 30
0.0
 70
    32
  0
VERTEX
  5
1360
  8
241
  6
CONTINUOUS
 10
160.38900000000001
 20
1.3549100000000001
 30
0.0
 70
    32
  0
VERTEX
  5
1361
  8
241
  6
CONTINUOUS
 10
160.42500000000001
 20
1.4446600000000001
 30
0.0
 70
    32
  0
VERTEX
  5
1362
  8
241
  6
CONTINUOUS
 10
160.459
 20
1.5349399999999991
 30
0.0
 70
    32
  0
VERTEX
  5
1363
  8
241
  6
CONTINUOUS
 10
160.49100000000001
 20
1.6257200000000001
 30
0.0
 70
    32
  0
VERTEX
  5
1364
  8
241
  6
CONTINUOUS
 10
160.52099999999999
 20
1.7169799999999991
 30
0.0
 70
    32
  0
VERTEX
  5
1365
  8
241
  6
CONTINUOUS
 10
160.55000000000001
 20
1.808679999999999
 30
0.0
 70
    32
  0
VERTEX
  5
1366
  8
241
  6
CONTINUOUS
 10
160.57599999999999
 20
1.9008
 30
0.0
 70
    32
  0
VERTEX
  5
1367
  8
241
  6
CONTINUOUS
 10
160.601
 20
1.993309999999999
 30
0.0
 70
    32
  0
VERTEX
  5
1368
  8
241
  6
CONTINUOUS
 10
160.624
 20
2.0861800000000001
 30
0.0
 70
    32
  0
VERTEX
  5
1369
  8
241
  6
CONTINUOUS
 10
160.64500000000001
 20
2.1793900000000002
 30
0.0
 70
    32
  0
VERTEX
  5
136A
  8
241
  6
CONTINUOUS
 10
160.66399999999999
 20
2.272899999999999
 30
0.0
 70
    32
  0
VERTEX
  5
136B
  8
241
  6
CONTINUOUS
 10
160.68100000000001
 20
2.3666800000000001
 30
0.0
 70
    32
  0
VERTEX
  5
136C
  8
241
  6
CONTINUOUS
 10
160.697
 20
2.4607199999999998
 30
0.0
 70
    32
  0
VERTEX
  5
136D
  8
241
  6
CONTINUOUS
 10
160.71000000000001
 20
2.554959999999999
 30
0.0
 70
    32
  0
VERTEX
  5
136E
  8
241
  6
CONTINUOUS
 10
160.721
 20
2.6493999999999991
 30
0.0
 70
    32
  0
VERTEX
  5
136F
  8
241
  6
CONTINUOUS
 10
160.73099999999999
 20
2.743999999999998
 30
0.0
 70
    32
  0
VERTEX
  5
1370
  8
241
  6
CONTINUOUS
 10
160.738
 20
2.8387299999999982
 30
0.0
 70
    32
  0
VERTEX
  5
1371
  8
241
  6
CONTINUOUS
 10
160.744
 20
2.9335499999999981
 30
0.0
 70
    32
  0
VERTEX
  5
1372
  8
241
  6
CONTINUOUS
 10
160.74799999999999
 20
3.0284499999999981
 30
0.0
 70
    32
  0
VERTEX
  5
1373
  8
241
  6
CONTINUOUS
 10
160.75
 20
3.1234000000000002
 30
0.0
 70
    32
  0
VERTEX
  5
1374
  8
241
  6
CONTINUOUS
 10
160.75
 20
3.21835
 30
0.0
 70
    32
  0
VERTEX
  5
1375
  8
241
  6
CONTINUOUS
 10
160.74799999999999
 20
3.3132899999999998
 30
0.0
 70
    32
  0
VERTEX
  5
1376
  8
241
  6
CONTINUOUS
 10
160.744
 20
3.4081899999999998
 30
0.0
 70
    32
  0
VERTEX
  5
1377
  8
241
  6
CONTINUOUS
 10
160.738
 20
3.503009999999998
 30
0.0
 70
    32
  0
VERTEX
  5
1378
  8
241
  6
CONTINUOUS
 10
160.72999999999999
 20
3.5977299999999999
 30
0.0
 70
    32
  0
VERTEX
  5
1379
  8
241
  6
CONTINUOUS
 10
160.721
 20
3.6923199999999978
 30
0.0
 70
    32
  0
VERTEX
  5
137A
  8
241
  6
CONTINUOUS
 10
160.709
 20
3.7867399999999982
 30
0.0
 70
    32
  0
VERTEX
  5
137B
  8
241
  6
CONTINUOUS
 10
160.69499999999999
 20
3.8809699999999978
 30
0.0
 70
    32
  0
VERTEX
  5
137C
  8
241
  6
CONTINUOUS
 10
160.68000000000001
 20
3.97499
 30
0.0
 70
    32
  0
VERTEX
  5
137D
  8
241
  6
CONTINUOUS
 10
160.66300000000001
 20
4.068749999999997
 30
0.0
 70
    32
  0
VERTEX
  5
137E
  8
241
  6
CONTINUOUS
 10
160.64400000000001
 20
4.1622399999999971
 30
0.0
 70
    32
  0
VERTEX
  5
137F
  8
241
  6
CONTINUOUS
 10
160.62200000000001
 20
4.2554199999999991
 30
0.0
 70
    32
  0
VERTEX
  5
1380
  8
241
  6
CONTINUOUS
 10
160.59899999999999
 20
4.3482699999999976
 30
0.0
 70
    32
  0
VERTEX
  5
1381
  8
241
  6
CONTINUOUS
 10
160.57499999999999
 20
4.4407500000000004
 30
0.0
 70
    32
  0
VERTEX
  5
1382
  8
241
  6
CONTINUOUS
 10
160.548
 20
4.532849999999998
 30
0.0
 70
    32
  0
VERTEX
  5
1383
  8
241
  6
CONTINUOUS
 10
160.51900000000001
 20
4.6245199999999977
 30
0.0
 70
    32
  0
VERTEX
  5
1384
  8
241
  6
CONTINUOUS
 10
160.489
 20
4.7157400000000003
 30
0.0
 70
    32
  0
VERTEX
  5
1385
  8
241
  6
CONTINUOUS
 10
160.45699999999999
 20
4.8064900000000002
 30
0.0
 70
    32
  0
VERTEX
  5
1386
  8
241
  6
CONTINUOUS
 10
160.422
 20
4.8967299999999998
 30
0.0
 70
    32
  0
VERTEX
  5
1387
  8
241
  6
CONTINUOUS
 10
160.386
 20
4.9864399999999991
 30
0.0
 70
    32
  0
VERTEX
  5
1388
  8
241
  6
CONTINUOUS
 10
160.34899999999999
 20
5.07559
 30
0.0
 70
    32
  0
VERTEX
  5
1389
  8
241
  6
CONTINUOUS
 10
160.309
 20
5.1641500000000002
 30
0.0
 70
    32
  0
VERTEX
  5
138A
  8
241
  6
CONTINUOUS
 10
160.268
 20
5.2521000000000004
 30
0.0
 70
    32
  0
VERTEX
  5
138B
  8
241
  6
CONTINUOUS
 10
160.22499999999999
 20
5.3394099999999991
 30
0.0
 70
    32
  0
VERTEX
  5
138C
  8
241
  6
CONTINUOUS
 10
160.18000000000001
 20
5.4260400000000004
 30
0.0
 70
    32
  0
VERTEX
  5
138D
  8
241
  6
CONTINUOUS
 10
160.13300000000001
 20
5.5119899999999991
 30
0.0
 70
    32
  0
VERTEX
  5
138E
  8
241
  6
CONTINUOUS
 10
160.08500000000001
 20
5.5972099999999969
 30
0.0
 70
    32
  0
VERTEX
  5
138F
  8
241
  6
CONTINUOUS
 10
160.035
 20
5.6816800000000001
 30
0.0
 70
    32
  0
VERTEX
  5
1390
  8
241
  6
CONTINUOUS
 10
159.983
 20
5.7653800000000004
 30
0.0
 70
    32
  0
VERTEX
  5
1391
  8
241
  6
CONTINUOUS
 10
159.93000000000001
 20
5.848279999999999
 30
0.0
 70
    32
  0
VERTEX
  5
1392
  8
241
  6
CONTINUOUS
 10
159.874
 20
5.9303600000000003
 30
0.0
 70
    32
  0
VERTEX
  5
1393
  8
241
  6
CONTINUOUS
 10
159.81800000000001
 20
6.0115800000000004
 30
0.0
 70
    32
  0
VERTEX
  5
1394
  8
241
  6
CONTINUOUS
 10
159.75899999999999
 20
6.0919299999999996
 30
0.0
 70
    32
  0
VERTEX
  5
1395
  8
241
  6
CONTINUOUS
 10
159.69900000000001
 20
6.1713800000000001
 30
0.0
 70
    32
  0
VERTEX
  5
1396
  8
241
  6
CONTINUOUS
 10
159.637
 20
6.2499099999999972
 30
0.0
 70
    32
  0
VERTEX
  5
1397
  8
241
  6
CONTINUOUS
 10
159.57400000000001
 20
6.3274800000000004
 30
0.0
 70
    32
  0
VERTEX
  5
1398
  8
241
  6
CONTINUOUS
 10
159.50899999999999
 20
6.4040900000000001
 30
0.0
 70
    32
  0
VERTEX
  5
1399
  8
241
  6
CONTINUOUS
 10
159.44300000000001
 20
6.4796899999999971
 30
0.0
 70
    32
  0
VERTEX
  5
139A
  8
241
  6
CONTINUOUS
 10
159.375
 20
6.5542800000000003
 30
0.0
 70
    32
  0
VERTEX
  5
139B
  8
241
  6
CONTINUOUS
 10
159.30600000000001
 20
6.6278300000000003
 30
0.0
 70
    32
  0
VERTEX
  5
139C
  8
241
  6
CONTINUOUS
 10
159.23500000000001
 20
6.70031
 30
0.0
 70
    32
  0
VERTEX
  5
139D
  8
241
  6
CONTINUOUS
 10
159.16300000000001
 20
6.7717000000000001
 30
0.0
 70
    32
  0
VERTEX
  5
139E
  8
241
  6
CONTINUOUS
 10
159.089
 20
6.8419800000000004
 30
0.0
 70
    32
  0
VERTEX
  5
139F
  8
241
  6
CONTINUOUS
 10
159.01400000000001
 20
6.911139999999997
 30
0.0
 70
    32
  0
VERTEX
  5
13A0
  8
241
  6
CONTINUOUS
 10
158.93700000000001
 20
6.9791399999999992
 30
0.0
 70
    32
  0
VERTEX
  5
13A1
  8
241
  6
CONTINUOUS
 10
158.85900000000001
 20
7.04596
 30
0.0
 70
    32
  0
VERTEX
  5
13A2
  8
241
  6
CONTINUOUS
 10
158.78
 20
7.1116000000000001
 30
0.0
 70
    32
  0
VERTEX
  5
13A3
  8
241
  6
CONTINUOUS
 10
158.69999999999999
 20
7.1760199999999967
 30
0.0
 70
    32
  0
VERTEX
  5
13A4
  8
241
  6
CONTINUOUS
 10
158.61799999999999
 20
7.2392000000000003
 30
0.0
 70
    32
  0
VERTEX
  5
13A5
  8
241
  6
CONTINUOUS
 10
158.535
 20
7.3011399999999966
 30
0.0
 70
    32
  0
VERTEX
  5
13A6
  8
241
  6
CONTINUOUS
 10
158.44999999999999
 20
7.361799999999997
 30
0.0
 70
    32
  0
VERTEX
  5
13A7
  8
241
  6
CONTINUOUS
 10
158.36500000000001
 20
7.42117
 30
0.0
 70
    32
  0
VERTEX
  5
13A8
  8
241
  6
CONTINUOUS
 10
158.27799999999999
 20
7.4792300000000003
 30
0.0
 70
    32
  0
VERTEX
  5
13A9
  8
241
  6
CONTINUOUS
 10
158.19
 20
7.5359600000000002
 30
0.0
 70
    32
  0
VERTEX
  5
13AA
  8
241
  6
CONTINUOUS
 10
158.101
 20
7.5913500000000003
 30
0.0
 70
    32
  0
VERTEX
  5
13AB
  8
241
  6
CONTINUOUS
 10
158.011
 20
7.6453800000000003
 30
0.0
 70
    32
  0
VERTEX
  5
13AC
  8
241
  6
CONTINUOUS
 10
157.91999999999999
 20
7.6980300000000002
 30
0.0
 70
    32
  0
VERTEX
  5
13AD
  8
241
  6
CONTINUOUS
 10
157.827
 20
7.7492799999999997
 30
0.0
 70
    32
  0
VERTEX
  5
13AE
  8
241
  6
CONTINUOUS
 10
157.73400000000001
 20
7.799129999999999
 30
0.0
 70
    32
  0
VERTEX
  5
13AF
  8
241
  6
CONTINUOUS
 10
157.63999999999999
 20
7.84755
 30
0.0
 70
    32
  0
VERTEX
  5
13B0
  8
241
  6
CONTINUOUS
 10
157.54400000000001
 20
7.8945299999999996
 30
0.0
 70
    32
  0
VERTEX
  5
13B1
  8
241
  6
CONTINUOUS
 10
157.44800000000001
 20
7.9400500000000003
 30
0.0
 70
    32
  0
VERTEX
  5
13B2
  8
241
  6
CONTINUOUS
 10
157.351
 20
7.9840999999999971
 30
0.0
 70
    32
  0
VERTEX
  5
13B3
  8
241
  6
CONTINUOUS
 10
157.25299999999999
 20
8.0266800000000007
 30
0.0
 70
    32
  0
VERTEX
  5
13B4
  8
241
  6
CONTINUOUS
 10
157.154
 20
8.0677500000000002
 30
0.0
 70
    32
  0
VERTEX
  5
13B5
  8
241
  6
CONTINUOUS
 10
157.054
 20
8.1073199999999996
 30
0.0
 70
    32
  0
VERTEX
  5
13B6
  8
241
  6
CONTINUOUS
 10
156.95400000000001
 20
8.145369999999998
 30
0.0
 70
    32
  0
VERTEX
  5
13B7
  8
241
  6
CONTINUOUS
 10
156.85299999999989
 20
8.1818899999999992
 30
0.0
 70
    32
  0
VERTEX
  5
13B8
  8
241
  6
CONTINUOUS
 10
156.751
 20
8.2168600000000005
 30
0.0
 70
    32
  0
VERTEX
  5
13B9
  8
241
  6
CONTINUOUS
 10
156.648
 20
8.2502800000000001
 30
0.0
 70
    32
  0
VERTEX
  5
13BA
  8
241
  6
CONTINUOUS
 10
156.54499999999999
 20
8.2821400000000001
 30
0.0
 70
    32
  0
VERTEX
  5
13BB
  8
241
  6
CONTINUOUS
 10
156.441
 20
8.3124199999999995
 30
0.0
 70
    32
  0
VERTEX
  5
13BC
  8
241
  6
CONTINUOUS
 10
156.33600000000001
 20
8.3411100000000005
 30
0.0
 70
    32
  0
VERTEX
  5
13BD
  8
241
  6
CONTINUOUS
 10
156.23099999999999
 20
8.3682199999999991
 30
0.0
 70
    32
  0
VERTEX
  5
13BE
  8
241
  6
CONTINUOUS
 10
156.126
 20
8.3937200000000001
 30
0.0
 70
    32
  0
VERTEX
  5
13BF
  8
241
  6
CONTINUOUS
 10
156.02000000000001
 20
8.4176199999999994
 30
0.0
 70
    32
  0
VERTEX
  5
13C0
  8
241
  6
CONTINUOUS
 10
155.91300000000001
 20
8.4398999999999962
 30
0.0
 70
    32
  0
VERTEX
  5
13C1
  8
241
  6
CONTINUOUS
 10
155.80600000000001
 20
8.4605499999999996
 30
0.0
 70
    32
  0
VERTEX
  5
13C2
  8
241
  6
CONTINUOUS
 10
155.69900000000001
 20
8.4795800000000003
 30
0.0
 70
    32
  0
VERTEX
  5
13C3
  8
241
  6
CONTINUOUS
 10
155.59100000000001
 20
8.4969699999999992
 30
0.0
 70
    32
  0
VERTEX
  5
13C4
  8
241
  6
CONTINUOUS
 10
155.483
 20
8.5127299999999995
 30
0.0
 70
    32
  0
VERTEX
  5
13C5
  8
241
  6
CONTINUOUS
 10
155.374
 20
8.5268300000000004
 30
0.0
 70
    32
  0
VERTEX
  5
13C6
  8
241
  6
CONTINUOUS
 10
155.26599999999999
 20
8.5392899999999994
 30
0.0
 70
    32
  0
VERTEX
  5
13C7
  8
241
  6
CONTINUOUS
 10
155.15700000000001
 20
8.5501000000000005
 30
0.0
 70
    32
  0
VERTEX
  5
13C8
  8
241
  6
CONTINUOUS
 10
155.048
 20
8.5592500000000005
 30
0.0
 70
    32
  0
VERTEX
  5
13C9
  8
241
  6
CONTINUOUS
 10
154.93799999999999
 20
8.5667299999999962
 30
0.0
 70
    32
  0
VERTEX
  5
13CA
  8
241
  6
CONTINUOUS
 10
154.82900000000001
 20
8.5725600000000011
 30
0.0
 70
    32
  0
VERTEX
  5
13CB
  8
241
  6
CONTINUOUS
 10
154.71899999999999
 20
8.5767199999999981
 30
0.0
 70
    32
  0
VERTEX
  5
13CC
  8
241
  6
CONTINUOUS
 10
154.61000000000001
 20
8.5792199999999994
 30
0.0
 70
    32
  0
VERTEX
  5
13CD
  8
241
  6
CONTINUOUS
 10
154.5
 20
8.5800600000000014
 30
0.0
 70
    32
  0
SEQEND
  5
13CE
  8
241
  6
CONTINUOUS
  0
POLYLINE
  5
ED0
  8
241
  6
CONTINUOUS
 66
     1
 10
0.0
 20
0.0
 30
0.0
 70
     8
  0
VERTEX
  5
13CF
  8
241
  6
CONTINUOUS
 10
154.5
 20
8.5800600000000014
 30
0.0
 70
    32
  0
VERTEX
  5
13D0
  8
241
  6
CONTINUOUS
 10
154.38999999999999
 20
8.5792199999999994
 30
0.0
 70
    32
  0
VERTEX
  5
13D1
  8
241
  6
CONTINUOUS
 10
154.28100000000001
 20
8.5767199999999981
 30
0.0
 70
    32
  0
VERTEX
  5
13D2
  8
241
  6
CONTINUOUS
 10
154.17099999999999
 20
8.5725600000000011
 30
0.0
 70
    32
  0
VERTEX
  5
13D3
  8
241
  6
CONTINUOUS
 10
154.06200000000001
 20
8.5667299999999962
 30
0.0
 70
    32
  0
VERTEX
  5
13D4
  8
241
  6
CONTINUOUS
 10
153.952
 20
8.5592500000000005
 30
0.0
 70
    32
  0
VERTEX
  5
13D5
  8
241
  6
CONTINUOUS
 10
153.84299999999999
 20
8.5501000000000005
 30
0.0
 70
    32
  0
VERTEX
  5
13D6
  8
241
  6
CONTINUOUS
 10
153.73400000000001
 20
8.5392899999999994
 30
0.0
 70
    32
  0
VERTEX
  5
13D7
  8
241
  6
CONTINUOUS
 10
153.626
 20
8.5268300000000004
 30
0.0
 70
    32
  0
VERTEX
  5
13D8
  8
241
  6
CONTINUOUS
 10
153.517
 20
8.5127299999999995
 30
0.0
 70
    32
  0
VERTEX
  5
13D9
  8
241
  6
CONTINUOUS
 10
153.40899999999999
 20
8.4969699999999992
 30
0.0
 70
    32
  0
VERTEX
  5
13DA
  8
241
  6
CONTINUOUS
 10
153.30099999999999
 20
8.4795800000000003
 30
0.0
 70
    32
  0
VERTEX
  5
13DB
  8
241
  6
CONTINUOUS
 10
153.19399999999999
 20
8.4605499999999996
 30
0.0
 70
    32
  0
VERTEX
  5
13DC
  8
241
  6
CONTINUOUS
 10
153.08699999999999
 20
8.4398999999999962
 30
0.0
 70
    32
  0
VERTEX
  5
13DD
  8
241
  6
CONTINUOUS
 10
152.97999999999999
 20
8.4176199999999994
 30
0.0
 70
    32
  0
VERTEX
  5
13DE
  8
241
  6
CONTINUOUS
 10
152.874
 20
8.3937200000000001
 30
0.0
 70
    32
  0
VERTEX
  5
13DF
  8
241
  6
CONTINUOUS
 10
152.76900000000001
 20
8.3682199999999991
 30
0.0
 70
    32
  0
VERTEX
  5
13E0
  8
241
  6
CONTINUOUS
 10
152.66399999999999
 20
8.3411100000000005
 30
0.0
 70
    32
  0
VERTEX
  5
13E1
  8
241
  6
CONTINUOUS
 10
152.559
 20
8.3124199999999995
 30
0.0
 70
    32
  0
VERTEX
  5
13E2
  8
241
  6
CONTINUOUS
 10
152.45500000000001
 20
8.2821400000000001
 30
0.0
 70
    32
  0
VERTEX
  5
13E3
  8
241
  6
CONTINUOUS
 10
152.352
 20
8.2502800000000001
 30
0.0
 70
    32
  0
VERTEX
  5
13E4
  8
241
  6
CONTINUOUS
 10
152.249
 20
8.2168600000000005
 30
0.0
 70
    32
  0
VERTEX
  5
13E5
  8
241
  6
CONTINUOUS
 10
152.14699999999999
 20
8.1818899999999992
 30
0.0
 70
    32
  0
VERTEX
  5
13E6
  8
241
  6
CONTINUOUS
 10
152.04599999999999
 20
8.145369999999998
 30
0.0
 70
    32
  0
VERTEX
  5
13E7
  8
241
  6
CONTINUOUS
 10
151.946
 20
8.1073199999999996
 30
0.0
 70
    32
  0
VERTEX
  5
13E8
  8
241
  6
CONTINUOUS
 10
151.846
 20
8.0677500000000002
 30
0.0
 70
    32
  0
VERTEX
  5
13E9
  8
241
  6
CONTINUOUS
 10
151.74700000000001
 20
8.0266800000000007
 30
0.0
 70
    32
  0
VERTEX
  5
13EA
  8
241
  6
CONTINUOUS
 10
151.649
 20
7.9840999999999971
 30
0.0
 70
    32
  0
VERTEX
  5
13EB
  8
241
  6
CONTINUOUS
 10
151.55199999999999
 20
7.9400500000000003
 30
0.0
 70
    32
  0
VERTEX
  5
13EC
  8
241
  6
CONTINUOUS
 10
151.45599999999999
 20
7.8945299999999996
 30
0.0
 70
    32
  0
VERTEX
  5
13ED
  8
241
  6
CONTINUOUS
 10
151.36000000000001
 20
7.84755
 30
0.0
 70
    32
  0
VERTEX
  5
13EE
  8
241
  6
CONTINUOUS
 10
151.26599999999999
 20
7.799129999999999
 30
0.0
 70
    32
  0
VERTEX
  5
13EF
  8
241
  6
CONTINUOUS
 10
151.173
 20
7.7492799999999997
 30
0.0
 70
    32
  0
VERTEX
  5
13F0
  8
241
  6
CONTINUOUS
 10
151.08000000000001
 20
7.6980300000000002
 30
0.0
 70
    32
  0
VERTEX
  5
13F1
  8
241
  6
CONTINUOUS
 10
150.989
 20
7.6453800000000003
 30
0.0
 70
    32
  0
VERTEX
  5
13F2
  8
241
  6
CONTINUOUS
 10
150.899
 20
7.5913500000000003
 30
0.0
 70
    32
  0
VERTEX
  5
13F3
  8
241
  6
CONTINUOUS
 10
150.81
 20
7.5359600000000002
 30
0.0
 70
    32
  0
VERTEX
  5
13F4
  8
241
  6
CONTINUOUS
 10
150.72200000000001
 20
7.4792300000000003
 30
0.0
 70
    32
  0
VERTEX
  5
13F5
  8
241
  6
CONTINUOUS
 10
150.63499999999999
 20
7.42117
 30
0.0
 70
    32
  0
VERTEX
  5
13F6
  8
241
  6
CONTINUOUS
 10
150.55000000000001
 20
7.361799999999997
 30
0.0
 70
    32
  0
VERTEX
  5
13F7
  8
241
  6
CONTINUOUS
 10
150.465
 20
7.3011399999999966
 30
0.0
 70
    32
  0
VERTEX
  5
13F8
  8
241
  6
CONTINUOUS
 10
150.38200000000001
 20
7.2392000000000003
 30
0.0
 70
    32
  0
VERTEX
  5
13F9
  8
241
  6
CONTINUOUS
 10
150.30000000000001
 20
7.1760199999999967
 30
0.0
 70
    32
  0
VERTEX
  5
13FA
  8
241
  6
CONTINUOUS
 10
150.22
 20
7.1116000000000001
 30
0.0
 70
    32
  0
VERTEX
  5
13FB
  8
241
  6
CONTINUOUS
 10
150.14099999999999
 20
7.04596
 30
0.0
 70
    32
  0
VERTEX
  5
13FC
  8
241
  6
CONTINUOUS
 10
150.06299999999999
 20
6.9791399999999992
 30
0.0
 70
    32
  0
VERTEX
  5
13FD
  8
241
  6
CONTINUOUS
 10
149.98599999999999
 20
6.911139999999997
 30
0.0
 70
    32
  0
VERTEX
  5
13FE
  8
241
  6
CONTINUOUS
 10
149.911
 20
6.8419800000000004
 30
0.0
 70
    32
  0
VERTEX
  5
13FF
  8
241
  6
CONTINUOUS
 10
149.83699999999999
 20
6.7717000000000001
 30
0.0
 70
    32
  0
VERTEX
  5
1400
  8
241
  6
CONTINUOUS
 10
149.76499999999999
 20
6.70031
 30
0.0
 70
    32
  0
VERTEX
  5
1401
  8
241
  6
CONTINUOUS
 10
149.69399999999999
 20
6.6278300000000003
 30
0.0
 70
    32
  0
VERTEX
  5
1402
  8
241
  6
CONTINUOUS
 10
149.625
 20
6.5542800000000003
 30
0.0
 70
    32
  0
VERTEX
  5
1403
  8
241
  6
CONTINUOUS
 10
149.55699999999999
 20
6.4796899999999971
 30
0.0
 70
    32
  0
VERTEX
  5
1404
  8
241
  6
CONTINUOUS
 10
149.49100000000001
 20
6.4040900000000001
 30
0.0
 70
    32
  0
VERTEX
  5
1405
  8
241
  6
CONTINUOUS
 10
149.42599999999999
 20
6.3274800000000004
 30
0.0
 70
    32
  0
VERTEX
  5
1406
  8
241
  6
CONTINUOUS
 10
149.363
 20
6.2499099999999972
 30
0.0
 70
    32
  0
VERTEX
  5
1407
  8
241
  6
CONTINUOUS
 10
149.30099999999999
 20
6.1713800000000001
 30
0.0
 70
    32
  0
VERTEX
  5
1408
  8
241
  6
CONTINUOUS
 10
149.24100000000001
 20
6.0919299999999996
 30
0.0
 70
    32
  0
VERTEX
  5
1409
  8
241
  6
CONTINUOUS
 10
149.18199999999999
 20
6.0115800000000004
 30
0.0
 70
    32
  0
VERTEX
  5
140A
  8
241
  6
CONTINUOUS
 10
149.126
 20
5.9303600000000003
 30
0.0
 70
    32
  0
VERTEX
  5
140B
  8
241
  6
CONTINUOUS
 10
149.06999999999999
 20
5.848279999999999
 30
0.0
 70
    32
  0
VERTEX
  5
140C
  8
241
  6
CONTINUOUS
 10
149.017
 20
5.7653800000000004
 30
0.0
 70
    32
  0
VERTEX
  5
140D
  8
241
  6
CONTINUOUS
 10
148.965
 20
5.6816800000000001
 30
0.0
 70
    32
  0
VERTEX
  5
140E
  8
241
  6
CONTINUOUS
 10
148.91499999999999
 20
5.5972099999999969
 30
0.0
 70
    32
  0
VERTEX
  5
140F
  8
241
  6
CONTINUOUS
 10
148.86699999999999
 20
5.5119899999999991
 30
0.0
 70
    32
  0
VERTEX
  5
1410
  8
241
  6
CONTINUOUS
 10
148.81999999999999
 20
5.4260400000000004
 30
0.0
 70
    32
  0
VERTEX
  5
1411
  8
241
  6
CONTINUOUS
 10
148.77500000000001
 20
5.3394099999999991
 30
0.0
 70
    32
  0
VERTEX
  5
1412
  8
241
  6
CONTINUOUS
 10
148.732
 20
5.2521000000000004
 30
0.0
 70
    32
  0
VERTEX
  5
1413
  8
241
  6
CONTINUOUS
 10
148.691
 20
5.1641500000000002
 30
0.0
 70
    32
  0
VERTEX
  5
1414
  8
241
  6
CONTINUOUS
 10
148.65100000000001
 20
5.07559
 30
0.0
 70
    32
  0
VERTEX
  5
1415
  8
241
  6
CONTINUOUS
 10
148.614
 20
4.9864399999999991
 30
0.0
 70
    32
  0
VERTEX
  5
1416
  8
241
  6
CONTINUOUS
 10
148.578
 20
4.8967299999999998
 30
0.0
 70
    32
  0
VERTEX
  5
1417
  8
241
  6
CONTINUOUS
 10
148.54300000000001
 20
4.8064900000000002
 30
0.0
 70
    32
  0
VERTEX
  5
1418
  8
241
  6
CONTINUOUS
 10
148.511
 20
4.7157400000000003
 30
0.0
 70
    32
  0
VERTEX
  5
1419
  8
241
  6
CONTINUOUS
 10
148.48099999999999
 20
4.6245199999999977
 30
0.0
 70
    32
  0
VERTEX
  5
141A
  8
241
  6
CONTINUOUS
 10
148.452
 20
4.532849999999998
 30
0.0
 70
    32
  0
VERTEX
  5
141B
  8
241
  6
CONTINUOUS
 10
148.42500000000001
 20
4.4407500000000004
 30
0.0
 70
    32
  0
VERTEX
  5
141C
  8
241
  6
CONTINUOUS
 10
148.40100000000001
 20
4.3482699999999976
 30
0.0
 70
    32
  0
VERTEX
  5
141D
  8
241
  6
CONTINUOUS
 10
148.37799999999999
 20
4.2554199999999991
 30
0.0
 70
    32
  0
VERTEX
  5
141E
  8
241
  6
CONTINUOUS
 10
148.35599999999999
 20
4.1622399999999971
 30
0.0
 70
    32
  0
VERTEX
  5
141F
  8
241
  6
CONTINUOUS
 10
148.33699999999999
 20
4.068749999999997
 30
0.0
 70
    32
  0
VERTEX
  5
1420
  8
241
  6
CONTINUOUS
 10
148.31999999999999
 20
3.97499
 30
0.0
 70
    32
  0
VERTEX
  5
1421
  8
241
  6
CONTINUOUS
 10
148.30500000000001
 20
3.8809699999999978
 30
0.0
 70
    32
  0
VERTEX
  5
1422
  8
241
  6
CONTINUOUS
 10
148.291
 20
3.7867399999999982
 30
0.0
 70
    32
  0
VERTEX
  5
1423
  8
241
  6
CONTINUOUS
 10
148.279
 20
3.6923199999999978
 30
0.0
 70
    32
  0
VERTEX
  5
1424
  8
241
  6
CONTINUOUS
 10
148.27000000000001
 20
3.5977299999999999
 30
0.0
 70
    32
  0
VERTEX
  5
1425
  8
241
  6
CONTINUOUS
 10
148.262
 20
3.503009999999998
 30
0.0
 70
    32
  0
VERTEX
  5
1426
  8
241
  6
CONTINUOUS
 10
148.256
 20
3.4081899999999998
 30
0.0
 70
    32
  0
VERTEX
  5
1427
  8
241
  6
CONTINUOUS
 10
148.25200000000001
 20
3.3132899999999998
 30
0.0
 70
    32
  0
VERTEX
  5
1428
  8
241
  6
CONTINUOUS
 10
148.25
 20
3.21835
 30
0.0
 70
    32
  0
VERTEX
  5
1429
  8
241
  6
CONTINUOUS
 10
148.25
 20
3.1234000000000002
 30
0.0
 70
    32
  0
VERTEX
  5
142A
  8
241
  6
CONTINUOUS
 10
148.25200000000001
 20
3.0284499999999981
 30
0.0
 70
    32
  0
VERTEX
  5
142B
  8
241
  6
CONTINUOUS
 10
148.256
 20
2.9335499999999981
 30
0.0
 70
    32
  0
VERTEX
  5
142C
  8
241
  6
CONTINUOUS
 10
148.262
 20
2.8387299999999982
 30
0.0
 70
    32
  0
VERTEX
  5
142D
  8
241
  6
CONTINUOUS
 10
148.26900000000001
 20
2.743999999999998
 30
0.0
 70
    32
  0
VERTEX
  5
142E
  8
241
  6
CONTINUOUS
 10
148.279
 20
2.6493999999999991
 30
0.0
 70
    32
  0
VERTEX
  5
142F
  8
241
  6
CONTINUOUS
 10
148.28999999999999
 20
2.554959999999999
 30
0.0
 70
    32
  0
VERTEX
  5
1430
  8
241
  6
CONTINUOUS
 10
148.303
 20
2.4607199999999998
 30
0.0
 70
    32
  0
VERTEX
  5
1431
  8
241
  6
CONTINUOUS
 10
148.31899999999999
 20
2.3666800000000001
 30
0.0
 70
    32
  0
VERTEX
  5
1432
  8
241
  6
CONTINUOUS
 10
148.33600000000001
 20
2.272899999999999
 30
0.0
 70
    32
  0
VERTEX
  5
1433
  8
241
  6
CONTINUOUS
 10
148.35499999999999
 20
2.1793900000000002
 30
0.0
 70
    32
  0
VERTEX
  5
1434
  8
241
  6
CONTINUOUS
 10
148.376
 20
2.0861800000000001
 30
0.0
 70
    32
  0
VERTEX
  5
1435
  8
241
  6
CONTINUOUS
 10
148.399
 20
1.993309999999999
 30
0.0
 70
    32
  0
VERTEX
  5
1436
  8
241
  6
CONTINUOUS
 10
148.42400000000001
 20
1.9008
 30
0.0
 70
    32
  0
VERTEX
  5
1437
  8
241
  6
CONTINUOUS
 10
148.44999999999999
 20
1.808679999999999
 30
0.0
 70
    32
  0
VERTEX
  5
1438
  8
241
  6
CONTINUOUS
 10
148.47900000000001
 20
1.7169799999999991
 30
0.0
 70
    32
  0
VERTEX
  5
1439
  8
241
  6
CONTINUOUS
 10
148.50899999999999
 20
1.6257200000000001
 30
0.0
 70
    32
  0
VERTEX
  5
143A
  8
241
  6
CONTINUOUS
 10
148.541
 20
1.5349399999999991
 30
0.0
 70
    32
  0
VERTEX
  5
143B
  8
241
  6
CONTINUOUS
 10
148.57499999999999
 20
1.4446600000000001
 30
0.0
 70
    32
  0
VERTEX
  5
143C
  8
241
  6
CONTINUOUS
 10
148.61099999999999
 20
1.3549100000000001
 30
0.0
 70
    32
  0
VERTEX
  5
143D
  8
241
  6
CONTINUOUS
 10
148.648
 20
1.2657099999999999
 30
0.0
 70
    32
  0
VERTEX
  5
143E
  8
241
  6
CONTINUOUS
 10
148.68799999999999
 20
1.1771100000000001
 30
0.0
 70
    32
  0
VERTEX
  5
143F
  8
241
  6
CONTINUOUS
 10
148.7289999999999
 20
1.08911
 30
0.0
 70
    32
  0
VERTEX
  5
1440
  8
241
  6
CONTINUOUS
 10
148.77199999999999
 20
1.0017599999999971
 30
0.0
 70
    32
  0
VERTEX
  5
1441
  8
241
  6
CONTINUOUS
 10
148.81700000000001
 20
0.915071
 30
0.0
 70
    32
  0
VERTEX
  5
1442
  8
241
  6
CONTINUOUS
 10
148.863
 20
0.829077
 30
0.0
 70
    32
  0
VERTEX
  5
1443
  8
241
  6
CONTINUOUS
 10
148.91200000000001
 20
0.7438010000000001
 30
0.0
 70
    32
  0
VERTEX
  5
1444
  8
241
  6
CONTINUOUS
 10
148.96199999999999
 20
0.6592720000000001
 30
0.0
 70
    32
  0
VERTEX
  5
1445
  8
241
  6
CONTINUOUS
 10
149.01300000000001
 20
0.5755150000000003
 30
0.0
 70
    32
  0
VERTEX
  5
1446
  8
241
  6
CONTINUOUS
 10
149.06700000000001
 20
0.4925550000000002
 30
0.0
 70
    32
  0
VERTEX
  5
1447
  8
241
  6
CONTINUOUS
 10
149.12200000000001
 20
0.410419
 30
0.0
 70
    32
  0
VERTEX
  5
1448
  8
241
  6
CONTINUOUS
 10
149.178
 20
0.329131
 30
0.0
 70
    32
  0
VERTEX
  5
1449
  8
241
  6
CONTINUOUS
 10
149.23699999999999
 20
0.248717
 30
0.0
 70
    32
  0
VERTEX
  5
144A
  8
241
  6
CONTINUOUS
 10
149.29599999999999
 20
0.169201
 30
0.0
 70
    32
  0
VERTEX
  5
144B
  8
241
  6
CONTINUOUS
 10
149.358
 20
0.0906077
 30
0.0
 70
    32
  0
VERTEX
  5
144C
  8
241
  6
CONTINUOUS
 10
149.42099999999999
 20
0.0129615
 30
0.0
 70
    32
  0
VERTEX
  5
144D
  8
241
  6
CONTINUOUS
 10
149.48599999999999
 20
-0.063714
 30
0.0
 70
    32
  0
VERTEX
  5
144E
  8
241
  6
CONTINUOUS
 10
149.55199999999999
 20
-0.139395
 30
0.0
 70
    32
  0
VERTEX
  5
144F
  8
241
  6
CONTINUOUS
 10
149.62
 20
-0.214058
 30
0.0
 70
    32
  0
SEQEND
  5
1450
  8
241
  6
CONTINUOUS
  0
POLYLINE
  5
1451
  8
241
  6
CONTINUOUS
 66
     1
 10
0.0
 20
0.0
 30
0.0
 70
     8
  0
VERTEX
  5
1452
  8
241
  6
CONTINUOUS
 10
150.81299999999999
 20
12.063599999999999
 30
0.0
 70
    32
  0
VERTEX
  5
1453
  8
241
  6
CONTINUOUS
 10
150.79499999999999
 20
12.050599999999999
 30
0.0
 70
    32
  0
VERTEX
  5
1454
  8
241
  6
CONTINUOUS
 10
150.77699999999999
 20
12.0374
 30
0.0
 70
    32
  0
VERTEX
  5
1455
  8
241
  6
CONTINUOUS
 10
150.75899999999999
 20
12.0242
 30
0.0
 70
    32
  0
VERTEX
  5
1456
  8
241
  6
CONTINUOUS
 10
150.74100000000001
 20
12.010899999999999
 30
0.0
 70
    32
  0
VERTEX
  5
1457
  8
241
  6
CONTINUOUS
 10
150.72200000000001
 20
11.9975
 30
0.0
 70
    32
  0
VERTEX
  5
1458
  8
241
  6
CONTINUOUS
 10
150.70400000000001
 20
11.984
 30
0.0
 70
    32
  0
VERTEX
  5
1459
  8
241
  6
CONTINUOUS
 10
150.68600000000001
 20
11.9704
 30
0.0
 70
    32
  0
VERTEX
  5
145A
  8
241
  6
CONTINUOUS
 10
150.66800000000001
 20
11.9567
 30
0.0
 70
    32
  0
VERTEX
  5
145B
  8
241
  6
CONTINUOUS
 10
150.65000000000001
 20
11.943
 30
0.0
 70
    32
  0
VERTEX
  5
145C
  8
241
  6
CONTINUOUS
 10
150.63200000000001
 20
11.9291
 30
0.0
 70
    32
  0
VERTEX
  5
145D
  8
241
  6
CONTINUOUS
 10
150.614
 20
11.9152
 30
0.0
 70
    32
  0
VERTEX
  5
145E
  8
241
  6
CONTINUOUS
 10
150.596
 20
11.901199999999999
 30
0.0
 70
    32
  0
VERTEX
  5
145F
  8
241
  6
CONTINUOUS
 10
150.578
 20
11.8871
 30
0.0
 70
    32
  0
VERTEX
  5
1460
  8
241
  6
CONTINUOUS
 10
150.56
 20
11.8729
 30
0.0
 70
    32
  0
VERTEX
  5
1461
  8
241
  6
CONTINUOUS
 10
150.542
 20
11.858599999999999
 30
0.0
 70
    32
  0
VERTEX
  5
1462
  8
241
  6
CONTINUOUS
 10
150.524
 20
11.844200000000001
 30
0.0
 70
    32
  0
VERTEX
  5
1463
  8
241
  6
CONTINUOUS
 10
150.506
 20
11.829800000000001
 30
0.0
 70
    32
  0
VERTEX
  5
1464
  8
241
  6
CONTINUOUS
 10
150.488
 20
11.815200000000001
 30
0.0
 70
    32
  0
VERTEX
  5
1465
  8
241
  6
CONTINUOUS
 10
150.47
 20
11.800599999999999
 30
0.0
 70
    32
  0
VERTEX
  5
1466
  8
241
  6
CONTINUOUS
 10
150.452
 20
11.7859
 30
0.0
 70
    32
  0
VERTEX
  5
1467
  8
241
  6
CONTINUOUS
 10
150.435
 20
11.771100000000001
 30
0.0
 70
    32
  0
VERTEX
  5
1468
  8
241
  6
CONTINUOUS
 10
150.417
 20
11.7562
 30
0.0
 70
    32
  0
VERTEX
  5
1469
  8
241
  6
CONTINUOUS
 10
150.399
 20
11.741199999999999
 30
0.0
 70
    32
  0
VERTEX
  5
146A
  8
241
  6
CONTINUOUS
 10
150.381
 20
11.726100000000001
 30
0.0
 70
    32
  0
VERTEX
  5
146B
  8
241
  6
CONTINUOUS
 10
150.363
 20
11.711
 30
0.0
 70
    32
  0
VERTEX
  5
146C
  8
241
  6
CONTINUOUS
 10
150.346
 20
11.6957
 30
0.0
 70
    32
  0
VERTEX
  5
146D
  8
241
  6
CONTINUOUS
 10
150.328
 20
11.680400000000001
 30
0.0
 70
    32
  0
VERTEX
  5
146E
  8
241
  6
CONTINUOUS
 10
150.31
 20
11.664999999999999
 30
0.0
 70
    32
  0
VERTEX
  5
146F
  8
241
  6
CONTINUOUS
 10
150.292
 20
11.6495
 30
0.0
 70
    32
  0
VERTEX
  5
1470
  8
241
  6
CONTINUOUS
 10
150.27500000000001
 20
11.633900000000001
 30
0.0
 70
    32
  0
VERTEX
  5
1471
  8
241
  6
CONTINUOUS
 10
150.25700000000001
 20
11.6182
 30
0.0
 70
    32
  0
VERTEX
  5
1472
  8
241
  6
CONTINUOUS
 10
150.239
 20
11.602399999999999
 30
0.0
 70
    32
  0
VERTEX
  5
1473
  8
241
  6
CONTINUOUS
 10
150.22200000000001
 20
11.586600000000001
 30
0.0
 70
    32
  0
VERTEX
  5
1474
  8
241
  6
CONTINUOUS
 10
150.20400000000001
 20
11.570600000000001
 30
0.0
 70
    32
  0
VERTEX
  5
1475
  8
241
  6
CONTINUOUS
 10
150.18700000000001
 20
11.554600000000001
 30
0.0
 70
    32
  0
VERTEX
  5
1476
  8
241
  6
CONTINUOUS
 10
150.16900000000001
 20
11.538500000000001
 30
0.0
 70
    32
  0
VERTEX
  5
1477
  8
241
  6
CONTINUOUS
 10
150.15100000000001
 20
11.5223
 30
0.0
 70
    32
  0
VERTEX
  5
1478
  8
241
  6
CONTINUOUS
 10
150.13399999999999
 20
11.506
 30
0.0
 70
    32
  0
VERTEX
  5
1479
  8
241
  6
CONTINUOUS
 10
150.11600000000001
 20
11.489599999999999
 30
0.0
 70
    32
  0
VERTEX
  5
147A
  8
241
  6
CONTINUOUS
 10
150.09899999999999
 20
11.4732
 30
0.0
 70
    32
  0
VERTEX
  5
147B
  8
241
  6
CONTINUOUS
 10
150.08199999999999
 20
11.4566
 30
0.0
 70
    32
  0
VERTEX
  5
147C
  8
241
  6
CONTINUOUS
 10
150.06399999999999
 20
11.44
 30
0.0
 70
    32
  0
VERTEX
  5
147D
  8
241
  6
CONTINUOUS
 10
150.047
 20
11.423299999999999
 30
0.0
 70
    32
  0
VERTEX
  5
147E
  8
241
  6
CONTINUOUS
 10
150.029
 20
11.4064
 30
0.0
 70
    32
  0
VERTEX
  5
147F
  8
241
  6
CONTINUOUS
 10
150.012
 20
11.3895
 30
0.0
 70
    32
  0
VERTEX
  5
1480
  8
241
  6
CONTINUOUS
 10
149.995
 20
11.3726
 30
0.0
 70
    32
  0
VERTEX
  5
1481
  8
241
  6
CONTINUOUS
 10
149.97800000000001
 20
11.355499999999999
 30
0.0
 70
    32
  0
VERTEX
  5
1482
  8
241
  6
CONTINUOUS
 10
149.96000000000001
 20
11.3383
 30
0.0
 70
    32
  0
VERTEX
  5
1483
  8
241
  6
CONTINUOUS
 10
149.94300000000001
 20
11.321099999999999
 30
0.0
 70
    32
  0
VERTEX
  5
1484
  8
241
  6
CONTINUOUS
 10
149.92599999999999
 20
11.303800000000001
 30
0.0
 70
    32
  0
VERTEX
  5
1485
  8
241
  6
CONTINUOUS
 10
149.90899999999999
 20
11.2864
 30
0.0
 70
    32
  0
VERTEX
  5
1486
  8
241
  6
CONTINUOUS
 10
149.892
 20
11.2689
 30
0.0
 70
    32
  0
VERTEX
  5
1487
  8
241
  6
CONTINUOUS
 10
149.874
 20
11.251300000000001
 30
0.0
 70
    32
  0
VERTEX
  5
1488
  8
241
  6
CONTINUOUS
 10
149.857
 20
11.233599999999999
 30
0.0
 70
    32
  0
VERTEX
  5
1489
  8
241
  6
CONTINUOUS
 10
149.84
 20
11.2159
 30
0.0
 70
    32
  0
VERTEX
  5
148A
  8
241
  6
CONTINUOUS
 10
149.82299999999989
 20
11.1981
 30
0.0
 70
    32
  0
VERTEX
  5
148B
  8
241
  6
CONTINUOUS
 10
149.80600000000001
 20
11.180199999999999
 30
0.0
 70
    32
  0
VERTEX
  5
148C
  8
241
  6
CONTINUOUS
 10
149.78999999999999
 20
11.1622
 30
0.0
 70
    32
  0
VERTEX
  5
148D
  8
241
  6
CONTINUOUS
 10
149.773
 20
11.1442
 30
0.0
 70
    32
  0
VERTEX
  5
148E
  8
241
  6
CONTINUOUS
 10
149.756
 20
11.125999999999999
 30
0.0
 70
    32
  0
VERTEX
  5
148F
  8
241
  6
CONTINUOUS
 10
149.739
 20
11.107799999999999
 30
0.0
 70
    32
  0
VERTEX
  5
1490
  8
241
  6
CONTINUOUS
 10
149.72200000000001
 20
11.089600000000001
 30
0.0
 70
    32
  0
VERTEX
  5
1491
  8
241
  6
CONTINUOUS
 10
149.70599999999999
 20
11.071199999999999
 30
0.0
 70
    32
  0
VERTEX
  5
1492
  8
241
  6
CONTINUOUS
 10
149.68899999999999
 20
11.0528
 30
0.0
 70
    32
  0
VERTEX
  5
1493
  8
241
  6
CONTINUOUS
 10
149.672
 20
11.0343
 30
0.0
 70
    32
  0
VERTEX
  5
1494
  8
241
  6
CONTINUOUS
 10
149.65600000000001
 20
11.015700000000001
 30
0.0
 70
    32
  0
VERTEX
  5
1495
  8
241
  6
CONTINUOUS
 10
149.63900000000001
 20
10.997
 30
0.0
 70
    32
  0
VERTEX
  5
1496
  8
241
  6
CONTINUOUS
 10
149.62200000000001
 20
10.978300000000001
 30
0.0
 70
    32
  0
VERTEX
  5
1497
  8
241
  6
CONTINUOUS
 10
149.60599999999999
 20
10.9595
 30
0.0
 70
    32
  0
VERTEX
  5
1498
  8
241
  6
CONTINUOUS
 10
149.59
 20
10.9406
 30
0.0
 70
    32
  0
VERTEX
  5
1499
  8
241
  6
CONTINUOUS
 10
149.57300000000001
 20
10.9216
 30
0.0
 70
    32
  0
VERTEX
  5
149A
  8
241
  6
CONTINUOUS
 10
149.55699999999999
 20
10.9026
 30
0.0
 70
    32
  0
VERTEX
  5
149B
  8
241
  6
CONTINUOUS
 10
149.53999999999999
 20
10.8835
 30
0.0
 70
    32
  0
VERTEX
  5
149C
  8
241
  6
CONTINUOUS
 10
149.524
 20
10.8643
 30
0.0
 70
    32
  0
VERTEX
  5
149D
  8
241
  6
CONTINUOUS
 10
149.5079999999999
 20
10.845000000000001
 30
0.0
 70
    32
  0
VERTEX
  5
149E
  8
241
  6
CONTINUOUS
 10
149.49199999999999
 20
10.8256
 30
0.0
 70
    32
  0
VERTEX
  5
149F
  8
241
  6
CONTINUOUS
 10
149.476
 20
10.8062
 30
0.0
 70
    32
  0
VERTEX
  5
14A0
  8
241
  6
CONTINUOUS
 10
149.46000000000001
 20
10.7867
 30
0.0
 70
    32
  0
VERTEX
  5
14A1
  8
241
  6
CONTINUOUS
 10
149.44300000000001
 20
10.767200000000001
 30
0.0
 70
    32
  0
VERTEX
  5
14A2
  8
241
  6
CONTINUOUS
 10
149.42699999999999
 20
10.7475
 30
0.0
 70
    32
  0
VERTEX
  5
14A3
  8
241
  6
CONTINUOUS
 10
149.411
 20
10.7278
 30
0.0
 70
    32
  0
VERTEX
  5
14A4
  8
241
  6
CONTINUOUS
 10
149.39599999999999
 20
10.708
 30
0.0
 70
    32
  0
VERTEX
  5
14A5
  8
241
  6
CONTINUOUS
 10
149.38
 20
10.6881
 30
0.0
 70
    32
  0
VERTEX
  5
14A6
  8
241
  6
CONTINUOUS
 10
149.364
 20
10.668200000000001
 30
0.0
 70
    32
  0
VERTEX
  5
14A7
  8
241
  6
CONTINUOUS
 10
149.34800000000001
 20
10.648199999999999
 30
0.0
 70
    32
  0
VERTEX
  5
14A8
  8
241
  6
CONTINUOUS
 10
149.33199999999999
 20
10.6281
 30
0.0
 70
    32
  0
VERTEX
  5
14A9
  8
241
  6
CONTINUOUS
 10
149.31700000000001
 20
10.607900000000001
 30
0.0
 70
    32
  0
VERTEX
  5
14AA
  8
241
  6
CONTINUOUS
 10
149.30099999999999
 20
10.5877
 30
0.0
 70
    32
  0
VERTEX
  5
14AB
  8
241
  6
CONTINUOUS
 10
149.285
 20
10.567399999999999
 30
0.0
 70
    32
  0
VERTEX
  5
14AC
  8
241
  6
CONTINUOUS
 10
149.27000000000001
 20
10.547000000000001
 30
0.0
 70
    32
  0
VERTEX
  5
14AD
  8
241
  6
CONTINUOUS
 10
149.25399999999999
 20
10.5265
 30
0.0
 70
    32
  0
VERTEX
  5
14AE
  8
241
  6
CONTINUOUS
 10
149.239
 20
10.506
 30
0.0
 70
    32
  0
VERTEX
  5
14AF
  8
241
  6
CONTINUOUS
 10
149.22300000000001
 20
10.4854
 30
0.0
 70
    32
  0
VERTEX
  5
14B0
  8
241
  6
CONTINUOUS
 10
149.208
 20
10.464700000000001
 30
0.0
 70
    32
  0
VERTEX
  5
14B1
  8
241
  6
CONTINUOUS
 10
149.1929999999999
 20
10.443899999999999
 30
0.0
 70
    32
  0
VERTEX
  5
14B2
  8
241
  6
CONTINUOUS
 10
149.17699999999999
 20
10.4231
 30
0.0
 70
    32
  0
VERTEX
  5
14B3
  8
241
  6
CONTINUOUS
 10
149.16200000000001
 20
10.402200000000001
 30
0.0
 70
    32
  0
VERTEX
  5
14B4
  8
241
  6
CONTINUOUS
 10
149.14699999999999
 20
10.3812
 30
0.0
 70
    32
  0
VERTEX
  5
14B5
  8
241
  6
CONTINUOUS
 10
149.13200000000001
 20
10.360200000000001
 30
0.0
 70
    32
  0
VERTEX
  5
14B6
  8
241
  6
CONTINUOUS
 10
149.11699999999999
 20
10.3391
 30
0.0
 70
    32
  0
VERTEX
  5
14B7
  8
241
  6
CONTINUOUS
 10
149.102
 20
10.3179
 30
0.0
 70
    32
  0
VERTEX
  5
14B8
  8
241
  6
CONTINUOUS
 10
149.08699999999999
 20
10.2966
 30
0.0
 70
    32
  0
VERTEX
  5
14B9
  8
241
  6
CONTINUOUS
 10
149.072
 20
10.2753
 30
0.0
 70
    32
  0
VERTEX
  5
14BA
  8
241
  6
CONTINUOUS
 10
149.05699999999999
 20
10.2539
 30
0.0
 70
    32
  0
VERTEX
  5
14BB
  8
241
  6
CONTINUOUS
 10
149.042
 20
10.2324
 30
0.0
 70
    32
  0
VERTEX
  5
14BC
  8
241
  6
CONTINUOUS
 10
149.02699999999999
 20
10.210900000000001
 30
0.0
 70
    32
  0
VERTEX
  5
14BD
  8
241
  6
CONTINUOUS
 10
149.01300000000001
 20
10.1892
 30
0.0
 70
    32
  0
VERTEX
  5
14BE
  8
241
  6
CONTINUOUS
 10
148.99799999999999
 20
10.1676
 30
0.0
 70
    32
  0
VERTEX
  5
14BF
  8
241
  6
CONTINUOUS
 10
148.983
 20
10.145799999999999
 30
0.0
 70
    32
  0
VERTEX
  5
14C0
  8
241
  6
CONTINUOUS
 10
148.96899999999999
 20
10.124000000000001
 30
0.0
 70
    32
  0
VERTEX
  5
14C1
  8
241
  6
CONTINUOUS
 10
148.95400000000001
 20
10.1021
 30
0.0
 70
    32
  0
VERTEX
  5
14C2
  8
241
  6
CONTINUOUS
 10
148.94
 20
10.0801
 30
0.0
 70
    32
  0
VERTEX
  5
14C3
  8
241
  6
CONTINUOUS
 10
148.92500000000001
 20
10.058
 30
0.0
 70
    32
  0
VERTEX
  5
14C4
  8
241
  6
CONTINUOUS
 10
148.911
 20
10.0359
 30
0.0
 70
    32
  0
VERTEX
  5
14C5
  8
241
  6
CONTINUOUS
 10
148.89699999999999
 20
10.0137
 30
0.0
 70
    32
  0
VERTEX
  5
14C6
  8
241
  6
CONTINUOUS
 10
148.88200000000001
 20
9.9914899999999971
 30
0.0
 70
    32
  0
VERTEX
  5
14C7
  8
241
  6
CONTINUOUS
 10
148.86799999999999
 20
9.9691600000000005
 30
0.0
 70
    32
  0
VERTEX
  5
14C8
  8
241
  6
CONTINUOUS
 10
148.85400000000001
 20
9.946769999999999
 30
0.0
 70
    32
  0
VERTEX
  5
14C9
  8
241
  6
CONTINUOUS
 10
148.84
 20
9.9243100000000002
 30
0.0
 70
    32
  0
VERTEX
  5
14CA
  8
241
  6
CONTINUOUS
 10
148.82599999999999
 20
9.9017699999999991
 30
0.0
 70
    32
  0
VERTEX
  5
14CB
  8
241
  6
CONTINUOUS
 10
148.81200000000001
 20
9.8791700000000002
 30
0.0
 70
    32
  0
VERTEX
  5
14CC
  8
241
  6
CONTINUOUS
 10
148.798
 20
9.8564899999999991
 30
0.0
 70
    32
  0
VERTEX
  5
14CD
  8
241
  6
CONTINUOUS
 10
148.78399999999999
 20
9.8337500000000002
 30
0.0
 70
    32
  0
VERTEX
  5
14CE
  8
241
  6
CONTINUOUS
 10
148.77000000000001
 20
9.8109399999999969
 30
0.0
 70
    32
  0
VERTEX
  5
14CF
  8
241
  6
CONTINUOUS
 10
148.756
 20
9.7880599999999998
 30
0.0
 70
    32
  0
VERTEX
  5
14D0
  8
241
  6
CONTINUOUS
 10
148.74299999999999
 20
9.7651099999999982
 30
0.0
 70
    32
  0
VERTEX
  5
14D1
  8
241
  6
CONTINUOUS
 10
148.7289999999999
 20
9.7420899999999993
 30
0.0
 70
    32
  0
VERTEX
  5
14D2
  8
241
  6
CONTINUOUS
 10
148.71600000000001
 20
9.7190100000000008
 30
0.0
 70
    32
  0
VERTEX
  5
14D3
  8
241
  6
CONTINUOUS
 10
148.702
 20
9.6958500000000001
 30
0.0
 70
    32
  0
VERTEX
  5
14D4
  8
241
  6
CONTINUOUS
 10
148.68899999999999
 20
9.6726299999999998
 30
0.0
 70
    32
  0
VERTEX
  5
14D5
  8
241
  6
CONTINUOUS
 10
148.67500000000001
 20
9.6493300000000009
 30
0.0
 70
    32
  0
VERTEX
  5
14D6
  8
241
  6
CONTINUOUS
 10
148.66200000000001
 20
9.6259700000000006
 30
0.0
 70
    32
  0
VERTEX
  5
14D7
  8
241
  6
CONTINUOUS
 10
148.649
 20
9.6025500000000008
 30
0.0
 70
    32
  0
VERTEX
  5
14D8
  8
241
  6
CONTINUOUS
 10
148.63499999999999
 20
9.5790500000000005
 30
0.0
 70
    32
  0
VERTEX
  5
14D9
  8
241
  6
CONTINUOUS
 10
148.62200000000001
 20
9.5554899999999972
 30
0.0
 70
    32
  0
VERTEX
  5
14DA
  8
241
  6
CONTINUOUS
 10
148.60900000000001
 20
9.5318599999999982
 30
0.0
 70
    32
  0
VERTEX
  5
14DB
  8
241
  6
CONTINUOUS
 10
148.596
 20
9.5081600000000002
 30
0.0
 70
    32
  0
VERTEX
  5
14DC
  8
241
  6
CONTINUOUS
 10
148.583
 20
9.4843899999999994
 30
0.0
 70
    32
  0
VERTEX
  5
14DD
  8
241
  6
CONTINUOUS
 10
148.56999999999999
 20
9.4605599999999992
 30
0.0
 70
    32
  0
VERTEX
  5
14DE
  8
241
  6
CONTINUOUS
 10
148.55699999999999
 20
9.4366599999999998
 30
0.0
 70
    32
  0
VERTEX
  5
14DF
  8
241
  6
CONTINUOUS
 10
148.54400000000001
 20
9.4126899999999996
 30
0.0
 70
    32
  0
VERTEX
  5
14E0
  8
241
  6
CONTINUOUS
 10
148.53200000000001
 20
9.3886599999999998
 30
0.0
 70
    32
  0
VERTEX
  5
14E1
  8
241
  6
CONTINUOUS
 10
148.51900000000001
 20
9.3645600000000009
 30
0.0
 70
    32
  0
VERTEX
  5
14E2
  8
241
  6
CONTINUOUS
 10
148.506
 20
9.3403899999999993
 30
0.0
 70
    32
  0
VERTEX
  5
14E3
  8
241
  6
CONTINUOUS
 10
148.494
 20
9.3161599999999982
 30
0.0
 70
    32
  0
VERTEX
  5
14E4
  8
241
  6
CONTINUOUS
 10
148.48099999999999
 20
9.2918599999999998
 30
0.0
 70
    32
  0
VERTEX
  5
14E5
  8
241
  6
CONTINUOUS
 10
148.46899999999999
 20
9.2674899999999951
 30
0.0
 70
    32
  0
VERTEX
  5
14E6
  8
241
  6
CONTINUOUS
 10
148.45599999999999
 20
9.2430599999999998
 30
0.0
 70
    32
  0
VERTEX
  5
14E7
  8
241
  6
CONTINUOUS
 10
148.44399999999999
 20
9.2185699999999997
 30
0.0
 70
    32
  0
VERTEX
  5
14E8
  8
241
  6
CONTINUOUS
 10
148.43199999999999
 20
9.1940000000000008
 30
0.0
 70
    32
  0
VERTEX
  5
14E9
  8
241
  6
CONTINUOUS
 10
148.41999999999999
 20
9.1693699999999971
 30
0.0
 70
    32
  0
VERTEX
  5
14EA
  8
241
  6
CONTINUOUS
 10
148.40700000000001
 20
9.1446799999999993
 30
0.0
 70
    32
  0
VERTEX
  5
14EB
  8
241
  6
CONTINUOUS
 10
148.39500000000001
 20
9.1199200000000005
 30
0.0
 70
    32
  0
VERTEX
  5
14EC
  8
241
  6
CONTINUOUS
 10
148.38300000000001
 20
9.095089999999999
 30
0.0
 70
    32
  0
VERTEX
  5
14ED
  8
241
  6
CONTINUOUS
 10
148.37200000000001
 20
9.0702099999999994
 30
0.0
 70
    32
  0
VERTEX
  5
14EE
  8
241
  6
CONTINUOUS
 10
148.36000000000001
 20
9.0452499999999993
 30
0.0
 70
    32
  0
VERTEX
  5
14EF
  8
241
  6
CONTINUOUS
 10
148.34800000000001
 20
9.0202299999999997
 30
0.0
 70
    32
  0
VERTEX
  5
14F0
  8
241
  6
CONTINUOUS
 10
148.33600000000001
 20
8.9951500000000006
 30
0.0
 70
    32
  0
VERTEX
  5
14F1
  8
241
  6
CONTINUOUS
 10
148.32400000000001
 20
8.9700000000000006
 30
0.0
 70
    32
  0
VERTEX
  5
14F2
  8
241
  6
CONTINUOUS
 10
148.31299999999999
 20
8.9447799999999962
 30
0.0
 70
    32
  0
VERTEX
  5
14F3
  8
241
  6
CONTINUOUS
 10
148.30099999999999
 20
8.9195100000000007
 30
0.0
 70
    32
  0
VERTEX
  5
14F4
  8
241
  6
CONTINUOUS
 10
148.28999999999999
 20
8.8941600000000012
 30
0.0
 70
    32
  0
VERTEX
  5
14F5
  8
241
  6
CONTINUOUS
 10
148.27799999999999
 20
8.8687599999999982
 30
0.0
 70
    32
  0
VERTEX
  5
14F6
  8
241
  6
CONTINUOUS
 10
148.267
 20
8.8432899999999979
 30
0.0
 70
    32
  0
VERTEX
  5
14F7
  8
241
  6
CONTINUOUS
 10
148.256
 20
8.817759999999998
 30
0.0
 70
    32
  0
VERTEX
  5
14F8
  8
241
  6
CONTINUOUS
 10
148.245
 20
8.7921600000000009
 30
0.0
 70
    32
  0
VERTEX
  5
14F9
  8
241
  6
CONTINUOUS
 10
148.23400000000001
 20
8.7665199999999981
 30
0.0
 70
    32
  0
VERTEX
  5
14FA
  8
241
  6
CONTINUOUS
 10
148.22300000000001
 20
8.74085
 30
0.0
 70
    32
  0
VERTEX
  5
14FB
  8
241
  6
CONTINUOUS
 10
148.21199999999999
 20
8.7151499999999995
 30
0.0
 70
    32
  0
VERTEX
  5
14FC
  8
241
  6
CONTINUOUS
 10
148.20099999999999
 20
8.6894200000000001
 30
0.0
 70
    32
  0
VERTEX
  5
14FD
  8
241
  6
CONTINUOUS
 10
148.19
 20
8.6636500000000005
 30
0.0
 70
    32
  0
VERTEX
  5
14FE
  8
241
  6
CONTINUOUS
 10
148.179
 20
8.6378500000000003
 30
0.0
 70
    32
  0
VERTEX
  5
14FF
  8
241
  6
CONTINUOUS
 10
148.16900000000001
 20
8.6120199999999993
 30
0.0
 70
    32
  0
VERTEX
  5
1500
  8
241
  6
CONTINUOUS
 10
148.15799999999999
 20
8.5861600000000013
 30
0.0
 70
    32
  0
VERTEX
  5
1501
  8
241
  6
CONTINUOUS
 10
148.148
 20
8.5602699999999992
 30
0.0
 70
    32
  0
VERTEX
  5
1502
  8
241
  6
CONTINUOUS
 10
148.137
 20
8.5343400000000003
 30
0.0
 70
    32
  0
VERTEX
  5
1503
  8
241
  6
CONTINUOUS
 10
148.12700000000001
 20
8.5083899999999968
 30
0.0
 70
    32
  0
VERTEX
  5
1504
  8
241
  6
CONTINUOUS
 10
148.11699999999999
 20
8.4824000000000002
 30
0.0
 70
    32
  0
VERTEX
  5
1505
  8
241
  6
CONTINUOUS
 10
148.107
 20
8.4563899999999972
 30
0.0
 70
    32
  0
VERTEX
  5
1506
  8
241
  6
CONTINUOUS
 10
148.09700000000001
 20
8.4303399999999993
 30
0.0
 70
    32
  0
VERTEX
  5
1507
  8
241
  6
CONTINUOUS
 10
148.08699999999999
 20
8.4042600000000007
 30
0.0
 70
    32
  0
VERTEX
  5
1508
  8
241
  6
CONTINUOUS
 10
148.077
 20
8.3781600000000012
 30
0.0
 70
    32
  0
VERTEX
  5
1509
  8
241
  6
CONTINUOUS
 10
148.06700000000001
 20
8.3520199999999996
 30
0.0
 70
    32
  0
VERTEX
  5
150A
  8
241
  6
CONTINUOUS
 10
148.05699999999999
 20
8.3258600000000005
 30
0.0
 70
    32
  0
VERTEX
  5
150B
  8
241
  6
CONTINUOUS
 10
148.048
 20
8.2996699999999972
 30
0.0
 70
    32
  0
VERTEX
  5
150C
  8
241
  6
CONTINUOUS
 10
148.03800000000001
 20
8.273439999999999
 30
0.0
 70
    32
  0
VERTEX
  5
150D
  8
241
  6
CONTINUOUS
 10
148.029
 20
8.247189999999998
 30
0.0
 70
    32
  0
VERTEX
  5
150E
  8
241
  6
CONTINUOUS
 10
148.01900000000001
 20
8.2209099999999982
 30
0.0
 70
    32
  0
VERTEX
  5
150F
  8
241
  6
CONTINUOUS
 10
148.00999999999999
 20
8.1946100000000008
 30
0.0
 70
    32
  0
VERTEX
  5
1510
  8
241
  6
CONTINUOUS
 10
148.001
 20
8.1682699999999961
 30
0.0
 70
    32
  0
VERTEX
  5
1511
  8
241
  6
CONTINUOUS
 10
147.99199999999999
 20
8.1419100000000011
 30
0.0
 70
    32
  0
VERTEX
  5
1512
  8
241
  6
CONTINUOUS
 10
147.983
 20
8.1155200000000001
 30
0.0
 70
    32
  0
VERTEX
  5
1513
  8
241
  6
CONTINUOUS
 10
147.97399999999999
 20
8.0891000000000002
 30
0.0
 70
    32
  0
VERTEX
  5
1514
  8
241
  6
CONTINUOUS
 10
147.965
 20
8.0626499999999997
 30
0.0
 70
    32
  0
VERTEX
  5
1515
  8
241
  6
CONTINUOUS
 10
147.95599999999999
 20
8.0361799999999981
 30
0.0
 70
    32
  0
VERTEX
  5
1516
  8
241
  6
CONTINUOUS
 10
147.947
 20
8.0096799999999995
 30
0.0
 70
    32
  0
VERTEX
  5
1517
  8
241
  6
CONTINUOUS
 10
147.93899999999999
 20
7.9831599999999998
 30
0.0
 70
    32
  0
VERTEX
  5
1518
  8
241
  6
CONTINUOUS
 10
147.93000000000001
 20
7.956599999999999
 30
0.0
 70
    32
  0
VERTEX
  5
1519
  8
241
  6
CONTINUOUS
 10
147.922
 20
7.9300199999999972
 30
0.0
 70
    32
  0
VERTEX
  5
151A
  8
241
  6
CONTINUOUS
 10
147.91300000000001
 20
7.903419999999997
 30
0.0
 70
    32
  0
VERTEX
  5
151B
  8
241
  6
CONTINUOUS
 10
147.905
 20
7.8767899999999971
 30
0.0
 70
    32
  0
VERTEX
  5
151C
  8
241
  6
CONTINUOUS
 10
147.89699999999999
 20
7.850139999999997
 30
0.0
 70
    32
  0
VERTEX
  5
151D
  8
241
  6
CONTINUOUS
 10
147.88800000000001
 20
7.8234599999999999
 30
0.0
 70
    32
  0
VERTEX
  5
151E
  8
241
  6
CONTINUOUS
 10
147.88
 20
7.7967500000000003
 30
0.0
 70
    32
  0
VERTEX
  5
151F
  8
241
  6
CONTINUOUS
 10
147.87200000000001
 20
7.770019999999997
 30
0.0
 70
    32
  0
VERTEX
  5
1520
  8
241
  6
CONTINUOUS
 10
147.86500000000001
 20
7.7432699999999972
 30
0.0
 70
    32
  0
VERTEX
  5
1521
  8
241
  6
CONTINUOUS
 10
147.857
 20
7.7164899999999967
 30
0.0
 70
    32
  0
VERTEX
  5
1522
  8
241
  6
CONTINUOUS
 10
147.84899999999999
 20
7.6896800000000001
 30
0.0
 70
    32
  0
VERTEX
  5
1523
  8
241
  6
CONTINUOUS
 10
147.84100000000001
 20
7.6628600000000002
 30
0.0
 70
    32
  0
VERTEX
  5
1524
  8
241
  6
CONTINUOUS
 10
147.834
 20
7.6360099999999997
 30
0.0
 70
    32
  0
VERTEX
  5
1525
  8
241
  6
CONTINUOUS
 10
147.82599999999999
 20
7.6091300000000004
 30
0.0
 70
    32
  0
VERTEX
  5
1526
  8
241
  6
CONTINUOUS
 10
147.81899999999999
 20
7.58223
 30
0.0
 70
    32
  0
VERTEX
  5
1527
  8
241
  6
CONTINUOUS
 10
147.81200000000001
 20
7.5553100000000004
 30
0.0
 70
    32
  0
VERTEX
  5
1528
  8
241
  6
CONTINUOUS
 10
147.804
 20
7.528369999999998
 30
0.0
 70
    32
  0
VERTEX
  5
1529
  8
241
  6
CONTINUOUS
 10
147.797
 20
7.5014000000000003
 30
0.0
 70
    32
  0
VERTEX
  5
152A
  8
241
  6
CONTINUOUS
 10
147.78999999999999
 20
7.4744099999999998
 30
0.0
 70
    32
  0
VERTEX
  5
152B
  8
241
  6
CONTINUOUS
 10
147.78299999999999
 20
7.4474
 30
0.0
 70
    32
  0
VERTEX
  5
152C
  8
241
  6
CONTINUOUS
 10
147.77600000000001
 20
7.4203700000000001
 30
0.0
 70
    32
  0
VERTEX
  5
152D
  8
241
  6
CONTINUOUS
 10
147.77000000000001
 20
7.3933200000000001
 30
0.0
 70
    32
  0
VERTEX
  5
152E
  8
241
  6
CONTINUOUS
 10
147.76300000000001
 20
7.3662399999999968
 30
0.0
 70
    32
  0
VERTEX
  5
152F
  8
241
  6
CONTINUOUS
 10
147.756
 20
7.3391399999999969
 30
0.0
 70
    32
  0
VERTEX
  5
1530
  8
241
  6
CONTINUOUS
 10
147.75
 20
7.3120199999999969
 30
0.0
 70
    32
  0
VERTEX
  5
1531
  8
241
  6
CONTINUOUS
 10
147.74299999999999
 20
7.2848800000000002
 30
0.0
 70
    32
  0
VERTEX
  5
1532
  8
241
  6
CONTINUOUS
 10
147.73699999999999
 20
7.2577199999999991
 30
0.0
 70
    32
  0
VERTEX
  5
1533
  8
241
  6
CONTINUOUS
 10
147.73099999999999
 20
7.2305399999999969
 30
0.0
 70
    32
  0
VERTEX
  5
1534
  8
241
  6
CONTINUOUS
 10
147.72399999999999
 20
7.2033399999999972
 30
0.0
 70
    32
  0
VERTEX
  5
1535
  8
241
  6
CONTINUOUS
 10
147.71799999999999
 20
7.1761200000000001
 30
0.0
 70
    32
  0
VERTEX
  5
1536
  8
241
  6
CONTINUOUS
 10
147.71199999999999
 20
7.1488800000000001
 30
0.0
 70
    32
  0
VERTEX
  5
1537
  8
241
  6
CONTINUOUS
 10
147.70599999999999
 20
7.1216200000000001
 30
0.0
 70
    32
  0
VERTEX
  5
1538
  8
241
  6
CONTINUOUS
 10
147.69999999999999
 20
7.0943300000000002
 30
0.0
 70
    32
  0
VERTEX
  5
1539
  8
241
  6
CONTINUOUS
 10
147.69499999999999
 20
7.0670399999999969
 30
0.0
 70
    32
  0
VERTEX
  5
153A
  8
241
  6
CONTINUOUS
 10
147.68899999999999
 20
7.0397199999999991
 30
0.0
 70
    32
  0
VERTEX
  5
153B
  8
241
  6
CONTINUOUS
 10
147.68299999999999
 20
7.0123800000000003
 30
0.0
 70
    32
  0
VERTEX
  5
153C
  8
241
  6
CONTINUOUS
 10
147.678
 20
6.9850199999999969
 30
0.0
 70
    32
  0
VERTEX
  5
153D
  8
241
  6
CONTINUOUS
 10
147.672
 20
6.9576500000000001
 30
0.0
 70
    32
  0
VERTEX
  5
153E
  8
241
  6
CONTINUOUS
 10
147.667
 20
6.9302599999999996
 30
0.0
 70
    32
  0
VERTEX
  5
153F
  8
241
  6
CONTINUOUS
 10
147.66200000000001
 20
6.9028399999999968
 30
0.0
 70
    32
  0
VERTEX
  5
1540
  8
241
  6
CONTINUOUS
 10
147.65600000000001
 20
6.8754200000000001
 30
0.0
 70
    32
  0
VERTEX
  5
1541
  8
241
  6
CONTINUOUS
 10
147.65100000000001
 20
6.8479700000000001
 30
0.0
 70
    32
  0
VERTEX
  5
1542
  8
241
  6
CONTINUOUS
 10
147.64599999999999
 20
6.8205099999999996
 30
0.0
 70
    32
  0
VERTEX
  5
1543
  8
241
  6
CONTINUOUS
 10
147.64099999999999
 20
6.793029999999999
 30
0.0
 70
    32
  0
VERTEX
  5
1544
  8
241
  6
CONTINUOUS
 10
147.636
 20
6.76553
 30
0.0
 70
    32
  0
VERTEX
  5
1545
  8
241
  6
CONTINUOUS
 10
147.63200000000001
 20
6.738019999999997
 30
0.0
 70
    32
  0
VERTEX
  5
1546
  8
241
  6
CONTINUOUS
 10
147.62700000000001
 20
6.7104899999999992
 30
0.0
 70
    32
  0
VERTEX
  5
1547
  8
241
  6
CONTINUOUS
 10
147.62200000000001
 20
6.6829399999999968
 30
0.0
 70
    32
  0
VERTEX
  5
1548
  8
241
  6
CONTINUOUS
 10
147.61799999999999
 20
6.6553800000000001
 30
0.0
 70
    32
  0
VERTEX
  5
1549
  8
241
  6
CONTINUOUS
 10
147.613
 20
6.627799999999997
 30
0.0
 70
    32
  0
VERTEX
  5
154A
  8
241
  6
CONTINUOUS
 10
147.60900000000001
 20
6.6002000000000001
 30
0.0
 70
    32
  0
VERTEX
  5
154B
  8
241
  6
CONTINUOUS
 10
147.60499999999999
 20
6.5726000000000004
 30
0.0
 70
    32
  0
VERTEX
  5
154C
  8
241
  6
CONTINUOUS
 10
147.601
 20
6.5449699999999966
 30
0.0
 70
    32
  0
VERTEX
  5
154D
  8
241
  6
CONTINUOUS
 10
147.596
 20
6.5173300000000003
 30
0.0
 70
    32
  0
VERTEX
  5
154E
  8
241
  6
CONTINUOUS
 10
147.59200000000001
 20
6.489679999999999
 30
0.0
 70
    32
  0
VERTEX
  5
154F
  8
241
  6
CONTINUOUS
 10
147.589
 20
6.4620100000000003
 30
0.0
 70
    32
  0
VERTEX
  5
1550
  8
241
  6
CONTINUOUS
 10
147.58500000000001
 20
6.4343300000000001
 30
0.0
 70
    32
  0
VERTEX
  5
1551
  8
241
  6
CONTINUOUS
 10
147.58099999999999
 20
6.4066299999999998
 30
0.0
 70
    32
  0
VERTEX
  5
1552
  8
241
  6
CONTINUOUS
 10
147.577
 20
6.378919999999999
 30
0.0
 70
    32
  0
VERTEX
  5
1553
  8
241
  6
CONTINUOUS
 10
147.57400000000001
 20
6.351189999999999
 30
0.0
 70
    32
  0
VERTEX
  5
1554
  8
241
  6
CONTINUOUS
 10
147.56999999999999
 20
6.3234500000000002
 30
0.0
 70
    32
  0
VERTEX
  5
1555
  8
241
  6
CONTINUOUS
 10
147.56700000000001
 20
6.2957000000000001
 30
0.0
 70
    32
  0
VERTEX
  5
1556
  8
241
  6
CONTINUOUS
 10
147.56299999999999
 20
6.2679400000000003
 30
0.0
 70
    32
  0
VERTEX
  5
1557
  8
241
  6
CONTINUOUS
 10
147.56
 20
6.2401599999999968
 30
0.0
 70
    32
  0
VERTEX
  5
1558
  8
241
  6
CONTINUOUS
 10
147.55699999999999
 20
6.2123799999999996
 30
0.0
 70
    32
  0
VERTEX
  5
1559
  8
241
  6
CONTINUOUS
 10
147.554
 20
6.18459
 30
0.0
 70
    32
  0
VERTEX
  5
155A
  8
241
  6
CONTINUOUS
 10
147.55099999999999
 20
6.1567899999999991
 30
0.0
 70
    32
  0
VERTEX
  5
155B
  8
241
  6
CONTINUOUS
 10
147.548
 20
6.1289999999999969
 30
0.0
 70
    32
  0
VERTEX
  5
155C
  8
241
  6
CONTINUOUS
 10
147.54499999999999
 20
6.1012000000000004
 30
0.0
 70
    32
  0
VERTEX
  5
155D
  8
241
  6
CONTINUOUS
 10
147.542
 20
6.0734000000000004
 30
0.0
 70
    32
  0
VERTEX
  5
155E
  8
241
  6
CONTINUOUS
 10
147.53999999999999
 20
6.0456000000000003
 30
0.0
 70
    32
  0
VERTEX
  5
155F
  8
241
  6
CONTINUOUS
 10
147.53700000000001
 20
6.0178000000000003
 30
0.0
 70
    32
  0
VERTEX
  5
1560
  8
241
  6
CONTINUOUS
 10
147.535
 20
5.9900000000000002
 30
0.0
 70
    32
  0
VERTEX
  5
1561
  8
241
  6
CONTINUOUS
 10
147.53200000000001
 20
5.9621899999999997
 30
0.0
 70
    32
  0
VERTEX
  5
1562
  8
241
  6
CONTINUOUS
 10
147.53
 20
5.9343799999999991
 30
0.0
 70
    32
  0
VERTEX
  5
1563
  8
241
  6
CONTINUOUS
 10
147.52799999999999
 20
5.9065799999999991
 30
0.0
 70
    32
  0
VERTEX
  5
1564
  8
241
  6
CONTINUOUS
 10
147.52600000000001
 20
5.8787699999999967
 30
0.0
 70
    32
  0
VERTEX
  5
1565
  8
241
  6
CONTINUOUS
 10
147.524
 20
5.8509500000000001
 30
0.0
 70
    32
  0
VERTEX
  5
1566
  8
241
  6
CONTINUOUS
 10
147.52199999999999
 20
5.8231400000000004
 30
0.0
 70
    32
  0
VERTEX
  5
1567
  8
241
  6
CONTINUOUS
 10
147.52000000000001
 20
5.7953299999999972
 30
0.0
 70
    32
  0
VERTEX
  5
1568
  8
241
  6
CONTINUOUS
 10
147.518
 20
5.7675199999999966
 30
0.0
 70
    32
  0
VERTEX
  5
1569
  8
241
  6
CONTINUOUS
 10
147.51599999999999
 20
5.7397
 30
0.0
 70
    32
  0
VERTEX
  5
156A
  8
241
  6
CONTINUOUS
 10
147.51499999999999
 20
5.7118900000000004
 30
0.0
 70
    32
  0
VERTEX
  5
156B
  8
241
  6
CONTINUOUS
 10
147.51300000000001
 20
5.6840699999999966
 30
0.0
 70
    32
  0
VERTEX
  5
156C
  8
241
  6
CONTINUOUS
 10
147.512
 20
5.656259999999997
 30
0.0
 70
    32
  0
VERTEX
  5
156D
  8
241
  6
CONTINUOUS
 10
147.50999999999999
 20
5.6284400000000003
 30
0.0
 70
    32
  0
VERTEX
  5
156E
  8
241
  6
CONTINUOUS
 10
147.5089999999999
 20
5.6006199999999966
 30
0.0
 70
    32
  0
VERTEX
  5
156F
  8
241
  6
CONTINUOUS
 10
147.50800000000001
 20
5.5728099999999969
 30
0.0
 70
    32
  0
VERTEX
  5
1570
  8
241
  6
CONTINUOUS
 10
147.50700000000001
 20
5.5449900000000003
 30
0.0
 70
    32
  0
VERTEX
  5
1571
  8
241
  6
CONTINUOUS
 10
147.506
 20
5.5171799999999998
 30
0.0
 70
    32
  0
VERTEX
  5
1572
  8
241
  6
CONTINUOUS
 10
147.505
 20
5.4893599999999969
 30
0.0
 70
    32
  0
VERTEX
  5
1573
  8
241
  6
CONTINUOUS
 10
147.50399999999999
 20
5.461549999999999
 30
0.0
 70
    32
  0
VERTEX
  5
1574
  8
241
  6
CONTINUOUS
 10
147.50299999999999
 20
5.4337299999999997
 30
0.0
 70
    32
  0
VERTEX
  5
1575
  8
241
  6
CONTINUOUS
 10
147.50299999999999
 20
5.4059200000000001
 30
0.0
 70
    32
  0
VERTEX
  5
1576
  8
241
  6
CONTINUOUS
 10
147.50200000000001
 20
5.3781099999999968
 30
0.0
 70
    32
  0
VERTEX
  5
1577
  8
241
  6
CONTINUOUS
 10
147.501
 20
5.3502999999999981
 30
0.0
 70
    32
  0
VERTEX
  5
1578
  8
241
  6
CONTINUOUS
 10
147.501
 20
5.3224900000000002
 30
0.0
 70
    32
  0
VERTEX
  5
1579
  8
241
  6
CONTINUOUS
 10
147.501
 20
5.2946799999999996
 30
0.0
 70
    32
  0
VERTEX
  5
157A
  8
241
  6
CONTINUOUS
 10
147.5
 20
5.2668699999999991
 30
0.0
 70
    32
  0
VERTEX
  5
157B
  8
241
  6
CONTINUOUS
 10
147.5
 20
5.239069999999999
 30
0.0
 70
    32
  0
VERTEX
  5
157C
  8
241
  6
CONTINUOUS
 10
147.5
 20
5.2112600000000002
 30
0.0
 70
    32
  0
VERTEX
  5
157D
  8
241
  6
CONTINUOUS
 10
147.5
 20
5.1834600000000002
 30
0.0
 70
    32
  0
VERTEX
  5
157E
  8
241
  6
CONTINUOUS
 10
147.5
 20
5.1556600000000001
 30
0.0
 70
    32
  0
VERTEX
  5
157F
  8
241
  6
CONTINUOUS
 10
147.5
 20
5.1278600000000001
 30
0.0
 70
    32
  0
VERTEX
  5
1580
  8
241
  6
CONTINUOUS
 10
147.5
 20
5.100069999999997
 30
0.0
 70
    32
  0
VERTEX
  5
1581
  8
241
  6
CONTINUOUS
 10
147.501
 20
5.0722699999999969
 30
0.0
 70
    32
  0
VERTEX
  5
1582
  8
241
  6
CONTINUOUS
 10
147.501
 20
5.0444800000000001
 30
0.0
 70
    32
  0
VERTEX
  5
1583
  8
241
  6
CONTINUOUS
 10
147.50200000000001
 20
5.0166899999999996
 30
0.0
 70
    32
  0
VERTEX
  5
1584
  8
241
  6
CONTINUOUS
 10
147.50200000000001
 20
4.9889099999999971
 30
0.0
 70
    32
  0
VERTEX
  5
1585
  8
241
  6
CONTINUOUS
 10
147.50299999999999
 20
4.9611199999999984
 30
0.0
 70
    32
  0
VERTEX
  5
1586
  8
241
  6
CONTINUOUS
 10
147.50399999999999
 20
4.9333400000000003
 30
0.0
 70
    32
  0
VERTEX
  5
1587
  8
241
  6
CONTINUOUS
 10
147.50399999999999
 20
4.9055599999999977
 30
0.0
 70
    32
  0
VERTEX
  5
1588
  8
241
  6
CONTINUOUS
 10
147.505
 20
4.8777900000000001
 30
0.0
 70
    32
  0
VERTEX
  5
1589
  8
241
  6
CONTINUOUS
 10
147.506
 20
4.8500199999999971
 30
0.0
 70
    32
  0
VERTEX
  5
158A
  8
241
  6
CONTINUOUS
 10
147.50700000000001
 20
4.8222500000000004
 30
0.0
 70
    32
  0
VERTEX
  5
158B
  8
241
  6
CONTINUOUS
 10
147.50800000000001
 20
4.7944899999999997
 30
0.0
 70
    32
  0
VERTEX
  5
158C
  8
241
  6
CONTINUOUS
 10
147.50999999999999
 20
4.766729999999999
 30
0.0
 70
    32
  0
VERTEX
  5
158D
  8
241
  6
CONTINUOUS
 10
147.511
 20
4.7389700000000001
 30
0.0
 70
    32
  0
VERTEX
  5
158E
  8
241
  6
CONTINUOUS
 10
147.512
 20
4.7112099999999977
 30
0.0
 70
    32
  0
VERTEX
  5
158F
  8
241
  6
CONTINUOUS
 10
147.51400000000001
 20
4.683469999999998
 30
0.0
 70
    32
  0
VERTEX
  5
1590
  8
241
  6
CONTINUOUS
 10
147.51499999999999
 20
4.655719999999997
 30
0.0
 70
    32
  0
VERTEX
  5
1591
  8
241
  6
CONTINUOUS
 10
147.517
 20
4.6279799999999991
 30
0.0
 70
    32
  0
SEQEND
  5
1592
  8
241
  6
CONTINUOUS
  0
POLYLINE
  5
ED2
  8
241
  6
CONTINUOUS
 66
     1
 10
0.0
 20
0.0
 30
0.0
 70
     8
  0
VERTEX
  5
1593
  8
241
  6
CONTINUOUS
 10
147.517
 20
4.6279799999999991
 30
0.0
 70
    32
  0
VERTEX
  5
1594
  8
241
  6
CONTINUOUS
 10
147.518
 20
4.6182699999999981
 30
0.0
 70
    32
  0
VERTEX
  5
1595
  8
241
  6
CONTINUOUS
 10
147.518
 20
4.6085599999999971
 30
0.0
 70
    32
  0
VERTEX
  5
1596
  8
241
  6
CONTINUOUS
 10
147.51900000000001
 20
4.598849999999997
 30
0.0
 70
    32
  0
VERTEX
  5
1597
  8
241
  6
CONTINUOUS
 10
147.52000000000001
 20
4.5891400000000004
 30
0.0
 70
    32
  0
VERTEX
  5
1598
  8
241
  6
CONTINUOUS
 10
147.52000000000001
 20
4.5794300000000003
 30
0.0
 70
    32
  0
VERTEX
  5
1599
  8
241
  6
CONTINUOUS
 10
147.52099999999999
 20
4.5697199999999976
 30
0.0
 70
    32
  0
VERTEX
  5
159A
  8
241
  6
CONTINUOUS
 10
147.52099999999999
 20
4.5600199999999971
 30
0.0
 70
    32
  0
VERTEX
  5
159B
  8
241
  6
CONTINUOUS
 10
147.52199999999999
 20
4.550309999999997
 30
0.0
 70
    32
  0
VERTEX
  5
159C
  8
241
  6
CONTINUOUS
 10
147.523
 20
4.54061
 30
0.0
 70
    32
  0
VERTEX
  5
159D
  8
241
  6
CONTINUOUS
 10
147.523
 20
4.530899999999999
 30
0.0
 70
    32
  0
VERTEX
  5
159E
  8
241
  6
CONTINUOUS
 10
147.524
 20
4.5212000000000003
 30
0.0
 70
    32
  0
VERTEX
  5
159F
  8
241
  6
CONTINUOUS
 10
147.52500000000001
 20
4.5114999999999981
 30
0.0
 70
    32
  0
VERTEX
  5
15A0
  8
241
  6
CONTINUOUS
 10
147.52600000000001
 20
4.5018000000000002
 30
0.0
 70
    32
  0
VERTEX
  5
15A1
  8
241
  6
CONTINUOUS
 10
147.52600000000001
 20
4.4920999999999971
 30
0.0
 70
    32
  0
VERTEX
  5
15A2
  8
241
  6
CONTINUOUS
 10
147.52699999999999
 20
4.4824000000000002
 30
0.0
 70
    32
  0
VERTEX
  5
15A3
  8
241
  6
CONTINUOUS
 10
147.52799999999999
 20
4.472699999999997
 30
0.0
 70
    32
  0
VERTEX
  5
15A4
  8
241
  6
CONTINUOUS
 10
147.529
 20
4.463009999999997
 30
0.0
 70
    32
  0
VERTEX
  5
15A5
  8
241
  6
CONTINUOUS
 10
147.529
 20
4.4533100000000001
 30
0.0
 70
    32
  0
VERTEX
  5
15A6
  8
241
  6
CONTINUOUS
 10
147.53
 20
4.4436200000000001
 30
0.0
 70
    32
  0
VERTEX
  5
15A7
  8
241
  6
CONTINUOUS
 10
147.53100000000001
 20
4.433919999999997
 30
0.0
 70
    32
  0
VERTEX
  5
15A8
  8
241
  6
CONTINUOUS
 10
147.53200000000001
 20
4.4242299999999997
 30
0.0
 70
    32
  0
VERTEX
  5
15A9
  8
241
  6
CONTINUOUS
 10
147.53299999999999
 20
4.4145399999999997
 30
0.0
 70
    32
  0
VERTEX
  5
15AA
  8
241
  6
CONTINUOUS
 10
147.53299999999999
 20
4.404849999999997
 30
0.0
 70
    32
  0
VERTEX
  5
15AB
  8
241
  6
CONTINUOUS
 10
147.53399999999999
 20
4.3951599999999971
 30
0.0
 70
    32
  0
VERTEX
  5
15AC
  8
241
  6
CONTINUOUS
 10
147.535
 20
4.3854699999999971
 30
0.0
 70
    32
  0
VERTEX
  5
15AD
  8
241
  6
CONTINUOUS
 10
147.536
 20
4.3757900000000003
 30
0.0
 70
    32
  0
VERTEX
  5
15AE
  8
241
  6
CONTINUOUS
 10
147.53700000000001
 20
4.3661000000000003
 30
0.0
 70
    32
  0
VERTEX
  5
15AF
  8
241
  6
CONTINUOUS
 10
147.53800000000001
 20
4.3564199999999991
 30
0.0
 70
    32
  0
VERTEX
  5
15B0
  8
241
  6
CONTINUOUS
 10
147.53800000000001
 20
4.3467399999999996
 30
0.0
 70
    32
  0
VERTEX
  5
15B1
  8
241
  6
CONTINUOUS
 10
147.53899999999999
 20
4.337049999999997
 30
0.0
 70
    32
  0
VERTEX
  5
15B2
  8
241
  6
CONTINUOUS
 10
147.53999999999999
 20
4.3273699999999984
 30
0.0
 70
    32
  0
VERTEX
  5
15B3
  8
241
  6
CONTINUOUS
 10
147.541
 20
4.317689999999998
 30
0.0
 70
    32
  0
VERTEX
  5
15B4
  8
241
  6
CONTINUOUS
 10
147.542
 20
4.3080199999999991
 30
0.0
 70
    32
  0
VERTEX
  5
15B5
  8
241
  6
CONTINUOUS
 10
147.54300000000001
 20
4.2983399999999996
 30
0.0
 70
    32
  0
VERTEX
  5
15B6
  8
241
  6
CONTINUOUS
 10
147.54400000000001
 20
4.2886600000000001
 30
0.0
 70
    32
  0
VERTEX
  5
15B7
  8
241
  6
CONTINUOUS
 10
147.54499999999999
 20
4.2789900000000003
 30
0.0
 70
    32
  0
VERTEX
  5
15B8
  8
241
  6
CONTINUOUS
 10
147.54599999999999
 20
4.2693199999999969
 30
0.0
 70
    32
  0
VERTEX
  5
15B9
  8
241
  6
CONTINUOUS
 10
147.547
 20
4.259649999999997
 30
0.0
 70
    32
  0
VERTEX
  5
15BA
  8
241
  6
CONTINUOUS
 10
147.548
 20
4.2499799999999981
 30
0.0
 70
    32
  0
VERTEX
  5
15BB
  8
241
  6
CONTINUOUS
 10
147.54900000000001
 20
4.24031
 30
0.0
 70
    32
  0
VERTEX
  5
15BC
  8
241
  6
CONTINUOUS
 10
147.55000000000001
 20
4.2306400000000002
 30
0.0
 70
    32
  0
VERTEX
  5
15BD
  8
241
  6
CONTINUOUS
 10
147.55099999999999
 20
4.2209799999999991
 30
0.0
 70
    32
  0
VERTEX
  5
15BE
  8
241
  6
CONTINUOUS
 10
147.55199999999999
 20
4.2113100000000001
 30
0.0
 70
    32
  0
VERTEX
  5
15BF
  8
241
  6
CONTINUOUS
 10
147.553
 20
4.2016499999999981
 30
0.0
 70
    32
  0
VERTEX
  5
15C0
  8
241
  6
CONTINUOUS
 10
147.554
 20
4.1919899999999997
 30
0.0
 70
    32
  0
VERTEX
  5
15C1
  8
241
  6
CONTINUOUS
 10
147.55500000000001
 20
4.1823300000000003
 30
0.0
 70
    32
  0
VERTEX
  5
15C2
  8
241
  6
CONTINUOUS
 10
147.55600000000001
 20
4.1726700000000001
 30
0.0
 70
    32
  0
VERTEX
  5
15C3
  8
241
  6
CONTINUOUS
 10
147.55699999999999
 20
4.1630099999999981
 30
0.0
 70
    32
  0
VERTEX
  5
15C4
  8
241
  6
CONTINUOUS
 10
147.55799999999999
 20
4.1533600000000002
 30
0.0
 70
    32
  0
VERTEX
  5
15C5
  8
241
  6
CONTINUOUS
 10
147.559
 20
4.1436999999999991
 30
0.0
 70
    32
  0
VERTEX
  5
15C6
  8
241
  6
CONTINUOUS
 10
147.56
 20
4.1340500000000002
 30
0.0
 70
    32
  0
VERTEX
  5
15C7
  8
241
  6
CONTINUOUS
 10
147.56100000000001
 20
4.124399999999997
 30
0.0
 70
    32
  0
VERTEX
  5
15C8
  8
241
  6
CONTINUOUS
 10
147.56299999999999
 20
4.114749999999999
 30
0.0
 70
    32
  0
VERTEX
  5
15C9
  8
241
  6
CONTINUOUS
 10
147.56399999999999
 20
4.1051000000000002
 30
0.0
 70
    32
  0
VERTEX
  5
15CA
  8
241
  6
CONTINUOUS
 10
147.565
 20
4.0954499999999969
 30
0.0
 70
    32
  0
VERTEX
  5
15CB
  8
241
  6
CONTINUOUS
 10
147.566
 20
4.0858099999999977
 30
0.0
 70
    32
  0
VERTEX
  5
15CC
  8
241
  6
CONTINUOUS
 10
147.56700000000001
 20
4.0761699999999976
 30
0.0
 70
    32
  0
VERTEX
  5
15CD
  8
241
  6
CONTINUOUS
 10
147.56800000000001
 20
4.066519999999997
 30
0.0
 70
    32
  0
VERTEX
  5
15CE
  8
241
  6
CONTINUOUS
 10
147.56899999999999
 20
4.0568799999999996
 30
0.0
 70
    32
  0
VERTEX
  5
15CF
  8
241
  6
CONTINUOUS
 10
147.571
 20
4.04725
 30
0.0
 70
    32
  0
VERTEX
  5
15D0
  8
241
  6
CONTINUOUS
 10
147.572
 20
4.037609999999999
 30
0.0
 70
    32
  0
VERTEX
  5
15D1
  8
241
  6
CONTINUOUS
 10
147.57299999999989
 20
4.0279699999999981
 30
0.0
 70
    32
  0
VERTEX
  5
15D2
  8
241
  6
CONTINUOUS
 10
147.57400000000001
 20
4.0183400000000002
 30
0.0
 70
    32
  0
VERTEX
  5
15D3
  8
241
  6
CONTINUOUS
 10
147.57499999999999
 20
4.0087099999999971
 30
0.0
 70
    32
  0
VERTEX
  5
15D4
  8
241
  6
CONTINUOUS
 10
147.577
 20
3.9990800000000002
 30
0.0
 70
    32
  0
VERTEX
  5
15D5
  8
241
  6
CONTINUOUS
 10
147.578
 20
3.9894500000000002
 30
0.0
 70
    32
  0
VERTEX
  5
15D6
  8
241
  6
CONTINUOUS
 10
147.57900000000001
 20
3.9798300000000002
 30
0.0
 70
    32
  0
VERTEX
  5
15D7
  8
241
  6
CONTINUOUS
 10
147.58099999999999
 20
3.9702000000000002
 30
0.0
 70
    32
  0
VERTEX
  5
15D8
  8
241
  6
CONTINUOUS
 10
147.58199999999999
 20
3.9605800000000002
 30
0.0
 70
    32
  0
VERTEX
  5
15D9
  8
241
  6
CONTINUOUS
 10
147.583
 20
3.950959999999998
 30
0.0
 70
    32
  0
VERTEX
  5
15DA
  8
241
  6
CONTINUOUS
 10
147.584
 20
3.9413399999999998
 30
0.0
 70
    32
  0
VERTEX
  5
15DB
  8
241
  6
CONTINUOUS
 10
147.58600000000001
 20
3.9317199999999981
 30
0.0
 70
    32
  0
VERTEX
  5
15DC
  8
241
  6
CONTINUOUS
 10
147.58699999999999
 20
3.9221099999999982
 30
0.0
 70
    32
  0
VERTEX
  5
15DD
  8
241
  6
CONTINUOUS
 10
147.58799999999999
 20
3.91249
 30
0.0
 70
    32
  0
VERTEX
  5
15DE
  8
241
  6
CONTINUOUS
 10
147.59
 20
3.9028800000000001
 30
0.0
 70
    32
  0
VERTEX
  5
15DF
  8
241
  6
CONTINUOUS
 10
147.59100000000001
 20
3.8932699999999971
 30
0.0
 70
    32
  0
VERTEX
  5
15E0
  8
241
  6
CONTINUOUS
 10
147.59200000000001
 20
3.883659999999999
 30
0.0
 70
    32
  0
VERTEX
  5
15E1
  8
241
  6
CONTINUOUS
 10
147.59399999999999
 20
3.8740600000000001
 30
0.0
 70
    32
  0
VERTEX
  5
15E2
  8
241
  6
CONTINUOUS
 10
147.595
 20
3.8644500000000002
 30
0.0
 70
    32
  0
VERTEX
  5
15E3
  8
241
  6
CONTINUOUS
 10
147.59700000000001
 20
3.8548499999999981
 30
0.0
 70
    32
  0
VERTEX
  5
15E4
  8
241
  6
CONTINUOUS
 10
147.59800000000001
 20
3.8452500000000001
 30
0.0
 70
    32
  0
VERTEX
  5
15E5
  8
241
  6
CONTINUOUS
 10
147.59899999999999
 20
3.8356499999999971
 30
0.0
 70
    32
  0
VERTEX
  5
15E6
  8
241
  6
CONTINUOUS
 10
147.601
 20
3.82605
 30
0.0
 70
    32
  0
VERTEX
  5
15E7
  8
241
  6
CONTINUOUS
 10
147.602
 20
3.816459999999998
 30
0.0
 70
    32
  0
VERTEX
  5
15E8
  8
241
  6
CONTINUOUS
 10
147.60400000000001
 20
3.8068699999999982
 30
0.0
 70
    32
  0
VERTEX
  5
15E9
  8
241
  6
CONTINUOUS
 10
147.60499999999999
 20
3.7972800000000002
 30
0.0
 70
    32
  0
VERTEX
  5
15EA
  8
241
  6
CONTINUOUS
 10
147.607
 20
3.78769
 30
0.0
 70
    32
  0
VERTEX
  5
15EB
  8
241
  6
CONTINUOUS
 10
147.608
 20
3.778099999999998
 30
0.0
 70
    32
  0
VERTEX
  5
15EC
  8
241
  6
CONTINUOUS
 10
147.61000000000001
 20
3.7685199999999979
 30
0.0
 70
    32
  0
VERTEX
  5
15ED
  8
241
  6
CONTINUOUS
 10
147.61099999999999
 20
3.7589299999999999
 30
0.0
 70
    32
  0
VERTEX
  5
15EE
  8
241
  6
CONTINUOUS
 10
147.61199999999999
 20
3.7493500000000002
 30
0.0
 70
    32
  0
VERTEX
  5
15EF
  8
241
  6
CONTINUOUS
 10
147.614
 20
3.7397800000000001
 30
0.0
 70
    32
  0
VERTEX
  5
15F0
  8
241
  6
CONTINUOUS
 10
147.61600000000001
 20
3.7301999999999982
 30
0.0
 70
    32
  0
VERTEX
  5
15F1
  8
241
  6
CONTINUOUS
 10
147.61699999999999
 20
3.7206299999999999
 30
0.0
 70
    32
  0
VERTEX
  5
15F2
  8
241
  6
CONTINUOUS
 10
147.619
 20
3.7110500000000002
 30
0.0
 70
    32
  0
VERTEX
  5
15F3
  8
241
  6
CONTINUOUS
 10
147.62
 20
3.7014800000000001
 30
0.0
 70
    32
  0
VERTEX
  5
15F4
  8
241
  6
CONTINUOUS
 10
147.62200000000001
 20
3.6919199999999979
 30
0.0
 70
    32
  0
VERTEX
  5
15F5
  8
241
  6
CONTINUOUS
 10
147.62299999999999
 20
3.68235
 30
0.0
 70
    32
  0
VERTEX
  5
15F6
  8
241
  6
CONTINUOUS
 10
147.625
 20
3.6727899999999978
 30
0.0
 70
    32
  0
VERTEX
  5
15F7
  8
241
  6
CONTINUOUS
 10
147.626
 20
3.66323
 30
0.0
 70
    32
  0
VERTEX
  5
15F8
  8
241
  6
CONTINUOUS
 10
147.62799999999999
 20
3.6536699999999982
 30
0.0
 70
    32
  0
VERTEX
  5
15F9
  8
241
  6
CONTINUOUS
 10
147.63
 20
3.6441099999999982
 30
0.0
 70
    32
  0
VERTEX
  5
15FA
  8
241
  6
CONTINUOUS
 10
147.631
 20
3.63456
 30
0.0
 70
    32
  0
VERTEX
  5
15FB
  8
241
  6
CONTINUOUS
 10
147.63300000000001
 20
3.6250100000000001
 30
0.0
 70
    32
  0
VERTEX
  5
15FC
  8
241
  6
CONTINUOUS
 10
147.63499999999999
 20
3.6154599999999979
 30
0.0
 70
    32
  0
VERTEX
  5
15FD
  8
241
  6
CONTINUOUS
 10
147.636
 20
3.605909999999998
 30
0.0
 70
    32
  0
VERTEX
  5
15FE
  8
241
  6
CONTINUOUS
 10
147.63800000000001
 20
3.596359999999998
 30
0.0
 70
    32
  0
VERTEX
  5
15FF
  8
241
  6
CONTINUOUS
 10
147.63999999999999
 20
3.586819999999999
 30
0.0
 70
    32
  0
VERTEX
  5
1600
  8
241
  6
CONTINUOUS
 10
147.64099999999999
 20
3.57728
 30
0.0
 70
    32
  0
VERTEX
  5
1601
  8
241
  6
CONTINUOUS
 10
147.643
 20
3.5677400000000001
 30
0.0
 70
    32
  0
VERTEX
  5
1602
  8
241
  6
CONTINUOUS
 10
147.64500000000001
 20
3.5582099999999981
 30
0.0
 70
    32
  0
VERTEX
  5
1603
  8
241
  6
CONTINUOUS
 10
147.64599999999999
 20
3.5486699999999982
 30
0.0
 70
    32
  0
VERTEX
  5
1604
  8
241
  6
CONTINUOUS
 10
147.648
 20
3.5391400000000002
 30
0.0
 70
    32
  0
VERTEX
  5
1605
  8
241
  6
CONTINUOUS
 10
147.65000000000001
 20
3.529609999999999
 30
0.0
 70
    32
  0
VERTEX
  5
1606
  8
241
  6
CONTINUOUS
 10
147.65100000000001
 20
3.5200900000000002
 30
0.0
 70
    32
  0
VERTEX
  5
1607
  8
241
  6
CONTINUOUS
 10
147.65299999999999
 20
3.510559999999999
 30
0.0
 70
    32
  0
VERTEX
  5
1608
  8
241
  6
CONTINUOUS
 10
147.655
 20
3.5010400000000002
 30
0.0
 70
    32
  0
VERTEX
  5
1609
  8
241
  6
CONTINUOUS
 10
147.65700000000001
 20
3.4915199999999982
 30
0.0
 70
    32
  0
VERTEX
  5
160A
  8
241
  6
CONTINUOUS
 10
147.65899999999999
 20
3.4820099999999981
 30
0.0
 70
    32
  0
VERTEX
  5
160B
  8
241
  6
CONTINUOUS
 10
147.66
 20
3.4724900000000001
 30
0.0
 70
    32
  0
VERTEX
  5
160C
  8
241
  6
CONTINUOUS
 10
147.66200000000001
 20
3.4629799999999999
 30
0.0
 70
    32
  0
VERTEX
  5
160D
  8
241
  6
CONTINUOUS
 10
147.66399999999999
 20
3.453469999999998
 30
0.0
 70
    32
  0
VERTEX
  5
160E
  8
241
  6
CONTINUOUS
 10
147.666
 20
3.443969999999998
 30
0.0
 70
    32
  0
VERTEX
  5
160F
  8
241
  6
CONTINUOUS
 10
147.66800000000001
 20
3.4344600000000001
 30
0.0
 70
    32
  0
VERTEX
  5
1610
  8
241
  6
CONTINUOUS
 10
147.66900000000001
 20
3.42496
 30
0.0
 70
    32
  0
VERTEX
  5
1611
  8
241
  6
CONTINUOUS
 10
147.67099999999999
 20
3.4154599999999982
 30
0.0
 70
    32
  0
VERTEX
  5
1612
  8
241
  6
CONTINUOUS
 10
147.673
 20
3.4059699999999982
 30
0.0
 70
    32
  0
VERTEX
  5
1613
  8
241
  6
CONTINUOUS
 10
147.67500000000001
 20
3.3964699999999981
 30
0.0
 70
    32
  0
SEQEND
  5
1614
  8
241
  6
CONTINUOUS
  0
LINE
  5
ED3
  8
241
  6
CONTINUOUS
 10
188.0
 20
11.49647321
 30
0.0
 11
168.0
 21
11.49647321
 31
0.0
  0
LINE
  5
ED4
  8
241
  6
CONTINUOUS
 10
49.49999502
 20
24.386750710000001
 30
0.0
 11
51.99999502
 21
22.943375029999999
 31
0.0
  0
LINE
  5
ED5
  8
241
  6
CONTINUOUS
 10
66.99999502
 20
22.943373229999999
 30
0.0
 11
69.49999502
 21
24.386748900000001
 31
0.0
  0
LINE
  5
ED6
  8
241
  6
CONTINUOUS
 10
69.49999502
 20
24.386748900000001
 30
0.0
 11
71.99999502
 21
22.943373229999999
 31
0.0
  0
LINE
  5
ED7
  8
241
  6
CONTINUOUS
 10
89.49999502
 20
24.386751350000001
 30
0.0
 11
91.99999502
 21
22.943375670000002
 31
0.0
  0
LINE
  5
ED8
  8
241
  6
CONTINUOUS
 10
86.99999502
 20
22.943375670000002
 30
0.0
 11
89.49999502
 21
24.386751350000001
 31
0.0
  0
LINE
  5
EDA
  8
240
  6
CONTINUOUS
 10
168.0
 20
31.496473210000001
 30
0.0
 11
186.32229953000001
 21
31.496473210000001
 31
0.0
  0
ARC
  5
EDB
  8
240
  6
CONTINUOUS
 10
167.99881733999999
 20
-0.0035268
 30
0.0
 40
40.0
 50
319.77181524066992
 51
40.228202359999997
  0
LINE
  5
EDE
  8
250
  6
CONTINUOUS
 10
101.43301271
 20
0.0
 30
0.0
 11
113.0
 21
0.0
 31
0.0
  0
LINE
  5
EDF
  8
250
  6
CONTINUOUS
 10
113.0
 20
31.5
 30
0.0
 11
100.5
 21
31.499999999999989
 31
0.0
  0
LINE
  5
EE0
  8
250
  6
CONTINUOUS
 10
112.0
 20
2.2299999999999991
 30
0.0
 11
112.0
 21
29.27
 31
0.0
  0
LINE
  5
EF0
  8
250
  6
CONTINUOUS
 10
168.0
 20
42.493044899999987
 30
0.0
 11
168.0
 21
49.996473200000011
 31
0.0
  0
LINE
  5
EF1
  8
250
  6
CONTINUOUS
 10
188.0
 20
31.908271379999999
 30
0.0
 11
188.0
 21
49.996473200000011
 31
0.0
  0
LINE
  5
EF2
  8
250
  6
CONTINUOUS
 10
170.22999999999999
 20
48.99647319999999
 30
0.0
 11
185.77000000000001
 21
48.99647319999999
 31
0.0
  0
TEXT
  5
F15
  8
250
  6
CONTINUOUS
 10
111.0
 20
10.75
 30
0.0
 40
3.0
  1
31.5
 50
90.0
1001
ACAD
1000
MTEXTBEGIN
1070
    73
1070
     1
1070
    44
1040
1.0
1070
    74
1070
     0
1000
MTEXTEND
1000
MTEXTBEGIN
1070
    73
1070
     1
1070
    44
1040
1.0
1070
    74
1070
     0
1000
MTEXTEND
  0
LINE
  5
F16
  8
250
  6
CONTINUOUS
 10
111.6283333259
 20
29.27
 30
0.0
 11
112.0
 21
31.5
 31
0.0
  0
LINE
  5
F17
  8
250
  6
CONTINUOUS
 10
112.3716666741
 20
29.27
 30
0.0
 11
112.0
 21
31.5
 31
0.0
  0
LINE
  5
F18
  8
250
  6
CONTINUOUS
 10
112.0
 20
31.5
 30
0.0
 11
112.0
 21
29.27
 31
0.0
  0
LINE
  5
F19
  8
250
  6
CONTINUOUS
 10
112.3716666741
 20
2.2299999999999991
 30
0.0
 11
112.0
 21
0.0
 31
0.0
  0
LINE
  5
F1A
  8
250
  6
CONTINUOUS
 10
111.6283333259
 20
2.2299999999999991
 30
0.0
 11
112.0
 21
0.0
 31
0.0
  0
LINE
  5
F1B
  8
250
  6
CONTINUOUS
 10
112.0
 20
0.0
 30
0.0
 11
112.0
 21
2.2299999999999991
 31
0.0
  0
TEXT
  5
F1C
  8
250
  6
CONTINUOUS
 10
173.4571428571428
 20
49.996473200000011
 30
0.0
 40
3.0
  1
□20
1001
ACAD
1000
MTEXTBEGIN
1070
    73
1070
     1
1070
    44
1040
1.0
1070
    74
1070
     0
1000
MTEXTEND
  0
LINE
  5
F1D
  8
250
  6
CONTINUOUS
 10
185.77000000000001
 20
49.368139874099981
 30
0.0
 11
188.0
 21
48.99647319999999
 31
0.0
  0
LINE
  5
F1E
  8
250
  6
CONTINUOUS
 10
185.77000000000001
 20
48.624806525900013
 30
0.0
 11
188.0
 21
48.99647319999999
 31
0.0
  0
LINE
  5
F1F
  8
250
  6
CONTINUOUS
 10
188.0
 20
48.99647319999999
 30
0.0
 11
185.77000000000001
 21
48.99647319999999
 31
0.0
  0
LINE
  5
F20
  8
250
  6
CONTINUOUS
 10
170.22999999999999
 20
48.624806525900013
 30
0.0
 11
168.0
 21
48.99647319999999
 31
0.0
  0
LINE
  5
F21
  8
250
  6
CONTINUOUS
 10
170.22999999999999
 20
49.368139874099981
 30
0.0
 11
168.0
 21
48.99647319999999
 31
0.0
  0
LINE
  5
F22
  8
250
  6
CONTINUOUS
 10
168.0
 20
48.99647319999999
 30
0.0
 11
170.22999999999999
 21
48.99647319999999
 31
0.0
  0
LINE
  5
1726
  8
240
  6
CONTINUOUS
 10
0.0
 20
31.5
 30
0.0
 11
0.0
 21
21.630611991142189
 31
0.0
  0
LINE
  5
1727
  8
240
  6
CONTINUOUS
 10
-38.0
 20
-20.68052849476301
 30
0.0
 11
-38.0
 21
20.680528494763141
 31
0.0
  0
LINE
  5
1728
  8
241
  6
CONTINUOUS
 10
-38.0
 20
-3.594500000000008
 30
0.0
 11
-31.550000000000011
 21
-3.594500000000008
 31
0.0
  0
LINE
  5
1729
  8
241
  6
CONTINUOUS
 10
-38.0
 20
3.594500000000008
 30
0.0
 11
-31.550000000000011
 21
3.594500000000008
 31
0.0
  0
LINE
  5
172A
  8
241
  6
CONTINUOUS
 10
-31.550000000000011
 20
-3.594500000000008
 30
0.0
 11
-31.550000000000011
 21
3.594500000000008
 31
0.0
  0
LINE
  5
172B
  8
241
  6
CONTINUOUS
 10
22.0
 20
-31.5
 30
0.0
 11
22.0
 21
31.5
 31
0.0
  0
LINE
  5
172C
  8
240
  6
CONTINUOUS
 10
0.0
 20
-31.5
 30
0.0
 11
0.0
 21
-21.630611991141851
 31
0.0
  0
LINE
  5
172D
  8
241
  6
CONTINUOUS
 10
0.0
 20
-21.630611991141851
 30
0.0
 11
0.0
 21
21.630611991142189
 31
0.0
  0
LINE
  5
172E
  8
250
  6
CONTINUOUS
 10
-18.785867276320712
 20
-22.942252325237192
 30
0.0
 11
-17.348994501247521
 21
-21.196849008131231
 31
0.0
  0
LINE
  5
172F
  8
250
  6
CONTINUOUS
 10
-18.142121726174281
 20
-23.313918991903861
 30
0.0
 11
-17.348994501247521
 21
-21.196849008131231
 31
0.0
  0
LINE
  5
1730
  8
250
  6
CONTINUOUS
 10
-17.348994501247521
 20
-21.196849008131231
 30
0.0
 11
-18.46399450124753
 21
-23.128085658570541
 31
0.0
  0
POLYLINE
  5
1731
  8
250
  6
CONTINUOUS
 66
     1
 10
0.0
 20
0.0
 30
0.0
  0
VERTEX
  5
1DC8
  8
250
  6
CONTINUOUS
 10
-18.46399450124753
 20
-23.128085658570541
 30
0.0
  0
VERTEX
  5
1DC9
  8
250
  6
CONTINUOUS
 10
-23.84889586488546
 20
-32.455008414138391
 30
0.0
  0
SEQEND
  5
1DCA
  8
250
  6
CONTINUOUS
  0
TEXT
  5
1732
  8
250
  6
CONTINUOUS
 10
-31.715562531552141
 20
-31.455008414138391
 30
0.0
 40
2.799999999999998
  1
C6
  7
YOKO
1001
ITEMNAME
1000
LNSP3
  0
LINE
  5
1733
  8
250
  6
CONTINUOUS
 10
-23.84889586488546
 20
-32.455008414138391
 30
0.0
 11
-34.115562531552108
 21
-32.455008414138391
 31
0.0
1001
ITEMNAME
1000
LNSP2
  0
LINE
  5
1734
  8
247
  6
CONTINUOUS
 10
6.0
 20
-17.250000000069999
 30
0.0
 11
6.0
 21
-10.557692308029999
 31
0.0
  0
ARC
  5
1735
  8
247
  6
CONTINUOUS
 10
4.2500000000699716
 20
-17.250000000069999
 30
0.0
 40
1.7499999999299991
 50
180.0
 51
0.0
  0
ARC
  5
1736
  8
247
  6
CONTINUOUS
 10
4.2500000000699716
 20
-10.557692308029999
 30
0.0
 40
1.7499999999299991
 50
0.0
 51
180.0
  0
LINE
  5
1737
  8
247
  6
CONTINUOUS
 10
2.500000000140004
 20
-16.38461538472
 30
0.0
 11
5.5000000000200071
 21
-17.244851541962021
 31
0.0
  0
LINE
  5
1738
  8
247
  6
CONTINUOUS
 10
3.923076923160008
 20
-15.48498381833582
 30
0.0
 11
3.923076923160008
 21
-16.79267612597582
 31
0.0
  0
ARC
  5
1739
  8
247
  6
CONTINUOUS
 10
3.04959866770298
 20
-15.14514381608978
 30
0.0
 40
0.5538165441895349
 50
72.997889675291773
 51
172.924166218512
  0
ARC
  5
173A
  8
247
  6
CONTINUOUS
 10
2.936033044465773
 20
-15.56687832302879
 30
0.0
 40
0.9904354236226808
 50
4.7429368522022113
 51
73.849226273266297
1001
GENIUS_GENOBJ-N-FIL_13
1002
{
1000
OWNER
1000
GEN
1002
}
1001
GENIUS_GENODEF_13
1002
{
1000
HIER
1070
     0
1002
}
1002
{
1000
MANEDIT
1070
     0
1002
}
1002
{
1000
NOSEL
1070
     0
1002
}
1002
{
1000
BEHIND
1070
     0
1002
}
1002
{
1000
OTHER
1070
     0
1002
}
1002
{
1000
REACTOR
1002
}
  0
LINE
  5
173B
  8
247
  6
CONTINUOUS
 10
5.5000000000200071
 20
-15.937159234321991
 30
0.0
 11
5.5000000000200071
 21
-17.244851541962021
 31
0.0
  0
LINE
  5
173C
  8
247
  6
CONTINUOUS
 10
2.500000000140004
 20
-16.38461538472
 30
0.0
 11
2.500000000140004
 21
-15.07692307707998
 31
0.0
  0
ARC
  5
173D
  8
247
  6
CONTINUOUS
 10
4.4820242326655331
 20
-15.56091963654697
 30
0.0
 40
0.5640818586791229
 50
65.990941652528889
 51
172.26344345906909
  0
ARC
  5
173E
  8
247
  6
CONTINUOUS
 10
4.487429039186563
 20
-16.03826268534706
 30
0.0
 40
1.0176059446230981
 50
5.7019851642580841
 51
77.277338436822376
1001
GENIUS_GENOBJ-N-FIL_13
1002
{
1000
OWNER
1000
GEN
1002
}
1001
GENIUS_GENODEF_13
1002
{
1000
HIER
1070
     0
1002
}
1002
{
1000
MANEDIT
1070
     0
1002
}
1002
{
1000
NOSEL
1070
     0
1002
}
1002
{
1000
BEHIND
1070
     0
1002
}
1002
{
1000
OTHER
1070
     0
1002
}
1002
{
1000
REACTOR
1002
}
  0
LINE
  5
173F
  8
247
  6
CONTINUOUS
 10
5.5000000000200071
 20
-14.283313080541999
 30
0.0
 11
2.500000000140004
 21
-13.423076923300011
 31
0.0
  0
LINE
  5
1740
  8
247
  6
CONTINUOUS
 10
2.500000000140004
 20
-11.00000000032
 30
0.0
 11
2.500000000140004
 21
-11.565736619456599
 31
0.0
  0
LINE
  5
1741
  8
247
  6
CONTINUOUS
 10
5.5000000000200071
 20
-12.461538461799989
 30
0.0
 11
5.5000000000200071
 21
-11.846153846440011
 31
0.0
  0
ARC
  5
1742
  8
247
  6
CONTINUOUS
 10
4.583285135973366
 20
-10.708791209122859
 30
0.0
 40
2.25265008234221
 50
202.35948814152559
 51
254.99324854284609
  0
ARC
  5
1743
  8
247
  6
CONTINUOUS
 10
3.3083126551945261
 20
-11.37406947921323
 30
0.0
 40
0.8906723995727782
 50
94.994589319075317
 51
155.1663289573039
1001
GENIUS_GENOBJ-N-FIL_13
1002
{
1000
OWNER
1000
GEN
1002
}
1001
GENIUS_GENODEF_13
1002
{
1000
HIER
1070
     0
1002
}
1002
{
1000
MANEDIT
1070
     0
1002
}
1002
{
1000
NOSEL
1070
     0
1002
}
1002
{
1000
BEHIND
1070
     0
1002
}
1002
{
1000
OTHER
1070
     0
1002
}
1002
{
1000
REACTOR
1002
}
  0
ARC
  5
1744
  8
247
  6
CONTINUOUS
 10
4.160145888667782
 20
-12.22645888621258
 30
0.0
 40
1.392781735586712
 50
15.84609655577923
 51
82.325137004169065
  0
ARC
  5
1745
  8
247
  6
CONTINUOUS
 10
4.4592434315272831
 20
-11.64221272584035
 30
0.0
 40
1.324563662670287
 50
249.7136016704969
 51
321.78874565640928
1001
GENIUS_GENOBJ-N-FIL_13
1002
{
1000
OWNER
1000
GEN
1002
}
1001
GENIUS_GENODEF_13
1002
{
1000
HIER
1070
     0
1002
}
1002
{
1000
MANEDIT
1070
     0
1002
}
1002
{
1000
NOSEL
1070
     0
1002
}
1002
{
1000
BEHIND
1070
     0
1002
}
1002
{
1000
OTHER
1070
     0
1002
}
1002
{
1000
REACTOR
1002
}
  0
LINE
  5
1746
  8
247
  6
CONTINUOUS
 10
4.346153846219976
 20
-11.53846153876
 30
0.0
 11
4.346153846219976
 21
-10.84615384648
 31
0.0
  0
LINE
  5
1747
  8
247
  6
CONTINUOUS
 10
2.500000000139976
 20
-17.250000000069999
 30
0.0
 11
2.500000000139976
 21
-16.576923077020009
 31
0.0
  0
LINE
  5
1748
  8
240
  6
CONTINUOUS
 10
0.0
 20
21.630611991142189
 30
0.0
 11
-38.0
 21
20.680528494763109
 31
0.0
1001
GRPNAME
1000
PASTMD35
  0
LINE
  5
1749
  8
240
  6
CONTINUOUS
 10
0.0
 20
-21.630611991141851
 30
0.0
 11
-38.0
 21
-20.68052849476301
 31
0.0
1001
GRPNAME
1000
PASTMD35
  0
LINE
  5
174B
  8
240
  6
CONTINUOUS
 10
0.0
 20
-31.5
 30
0.0
 11
23.933012707760241
 21
-31.5
 31
0.0
  0
LINE
  5
174C
  8
241
  6
CONTINUOUS
 10
9.9499999999999869
 20
8.9923414211634736
 30
0.0
 11
9.9499999999999869
 21
30.18137425657125
 31
0.0
1001
GRPNAME
1000
PASTMD30
  0
LINE
  5
174D
  8
241
  6
CONTINUOUS
 10
9.9499999999999869
 20
30.18137425657125
 30
0.0
 11
14.05000000000001
 21
30.18137425657125
 31
0.0
1001
GRPNAME
1000
PASTMD30
  0
LINE
  5
174E
  8
241
  6
CONTINUOUS
 10
14.05000000000055
 20
8.9923414211634736
 30
0.0
 11
14.05000000000001
 21
30.18137425657125
 31
0.0
1001
GRPNAME
1000
PASTMD30
  0
LINE
  5
174F
  8
241
  6
CONTINUOUS
 10
9.9499999999999869
 20
8.9923414211634736
 30
0.0
 11
14.05000000000055
 21
8.9923414211634736
 31
0.0
1001
GRPNAME
1000
PASTMD30
  0
ARC
  5
1750
  8
241
  6
CONTINUOUS
 10
-16.228827256943418
 20
19.586857838866571
 30
0.0
 40
32.07882725694369
 50
340.71513450902091
 51
19.284865490980941
  0
ARC
  5
1751
  8
241
  6
CONTINUOUS
 10
40.228827256943717
 20
19.58685783886736
 30
0.0
 40
32.07882725694374
 50
160.71513450901909
 51
199.28486549098039
  0
LINE
  5
1752
  8
241
  6
CONTINUOUS
 10
9.9499999999999869
 20
-8.9923414211634736
 30
0.0
 11
9.9499999999999869
 21
-30.18137425657125
 31
0.0
1001
GRPNAME
1000
PASTMD30
  0
LINE
  5
1753
  8
241
  6
CONTINUOUS
 10
9.9499999999999869
 20
-30.18137425657125
 30
0.0
 11
14.05000000000001
 21
-30.18137425657125
 31
0.0
1001
GRPNAME
1000
PASTMD30
  0
LINE
  5
1754
  8
241
  6
CONTINUOUS
 10
14.05000000000055
 20
-8.9923414211634736
 30
0.0
 11
14.05000000000001
 21
-30.18137425657125
 31
0.0
1001
GRPNAME
1000
PASTMD30
  0
LINE
  5
1755
  8
241
  6
CONTINUOUS
 10
9.9499999999999869
 20
-8.9923414211634736
 30
0.0
 11
14.05000000000055
 21
-8.9923414211634736
 31
0.0
1001
GRPNAME
1000
PASTMD30
  0
ARC
  5
1756
  8
241
  6
CONTINUOUS
 10
-16.228827256943418
 20
-19.586857838866571
 30
0.0
 40
32.07882725694369
 50
340.71513450901892
 51
19.284865490979119
  0
ARC
  5
1757
  8
241
  6
CONTINUOUS
 10
40.228827256943717
 20
-19.58685783886736
 30
0.0
 40
32.07882725694374
 50
160.71513450901909
 51
199.28486549098039
  0
ARC
  5
1758
  8
241
  6
CONTINUOUS
 10
-33.93660144659556
 20
0.0
 30
0.0
 40
4.314660672045016
 50
303.58253920472129
 51
56.417460795278693
  0
LINE
  5
177A
  8
242
  6
PHANTOM2
 10
34.999999999995786
 20
-39.999999999999659
 30
0.0
 11
95.999999822604423
 21
-39.999999999999659
 31
0.0
  0
ARC
  5
177B
  8
242
  6
PHANTOM2
 10
95.999999822604423
 20
-35.999999999999659
 30
0.0
 40
4.0
 50
270.0
 51
0.0
  0
ARC
  5
177C
  8
242
  6
PHANTOM2
 10
34.999999999995786
 20
-37.999999999999723
 30
0.0
 40
2.0
 50
180.0
 51
270.0
  0
LINE
  5
1787
  8
242
  6
PHANTOM2
 10
33.006498448171897
 20
-36.235478435129437
 30
0.0
 11
33.006498448171783
 21
-37.90180316075282
 31
0.0
  0
LINE
  5
1788
  8
242
  6
PHANTOM2
 10
34.999999999995786
 20
39.999999999999659
 30
0.0
 11
95.999999822604423
 21
39.999999999999659
 31
0.0
  0
ARC
  5
1789
  8
242
  6
PHANTOM2
 10
95.999999822604423
 20
35.999999999999659
 30
0.0
 40
4.0
 50
0.0
 51
90.000000000000057
  0
ARC
  5
178A
  8
242
  6
PHANTOM2
 10
34.999999999995786
 20
37.999999999999723
 30
0.0
 40
2.0
 50
90.000000000000057
 51
180.0
  0
LINE
  5
178B
  8
242
  6
PHANTOM2
 10
33.006498448171897
 20
36.235478435129437
 30
0.0
 11
33.006498448171783
 21
37.90180316075282
 31
0.0
  0
ARC
  5
179B
  8
240
  6
CONTINUOUS
 10
168.0
 20
-0.0035268000000031
 30
0.0
 40
31.5
 50
90.0
 51
270.0
  0
ARC
  5
17A1
  8
240
  6
CONTINUOUS
 10
186.32229953334959
 20
-15.50352681
 30
0.0
 40
16.0
 50
270.0
 51
319.77181524066981
  0
LINE
  5
17D2
  8
250
  6
CONTINUOUS
 10
132.24963052290781
 20
-12.88745639918063
 30
0.0
 11
203.74800415709231
 21
12.880402799180629
 31
0.0
  0
INSERT
  5
17D3
  8
250
  6
CONTINUOUS
  2
_OPEN
 10
130.36809437463981
 20
-13.56555795703224
 30
0.0
 41
2.0
 42
2.0
 43
2.0
 50
199.81905295122209
  0
INSERT
  5
17D4
  8
250
  6
CONTINUOUS
  2
_OPEN
 10
205.62954030536031
 20
13.558504357032231
 30
0.0
 41
2.0
 42
2.0
 43
2.0
 50
19.819052951222179
  0
INSERT
  5
17D5
  8
245
  2
*U6
 10
0.0
 20
0.0
 30
0.0
  0
LINE
  5
17EE
  8
250
  6
CONTINUOUS
 10
0.0
 20
-32.0
 30
0.0
 11
-0.0000000000000016
 21
-57.0
 31
0.0
  0
LINE
  5
17EF
  8
250
  6
CONTINUOUS
 10
100.0
 20
-8.1862915000000012
 30
0.0
 11
100.0
 21
-57.0
 31
0.0
  0
LINE
  5
17F0
  8
250
  6
CONTINUOUS
 10
1.999999999999998
 20
-56.0
 30
0.0
 11
98.000000000000014
 21
-56.0
 31
0.0
  0
INSERT
  5
17F1
  8
250
  6
CONTINUOUS
  2
_OPEN
 10
-0.0000000000000015
 20
-56.0
 30
0.0
 41
2.0
 42
2.0
 43
2.0
 50
180.0
  0
INSERT
  5
17F2
  8
250
  6
CONTINUOUS
  2
_OPEN
 10
100.0
 20
-56.0
 30
0.0
 41
2.0
 42
2.0
 43
2.0
  0
INSERT
  5
17F3
  8
245
  2
*U7
 10
0.0
 20
0.0
 30
0.0
  0
LINE
  5
1B99
  8
245
  6
CENTER2
 10
-76.999999999999815
 20
25.114855198717748
 30
0.0
 11
-76.999999999999815
 21
-23.89446977392112
 31
0.0
1001
GRPNAME
1000
PASTMD01
  0
LINE
  5
1B9A
  8
245
  6
CENTER2
 10
-51.283197423766069
 20
0.0
 30
0.0
 11
-100.1550187717223
 21
0.0
 31
0.0
  0
CIRCLE
  5
1B9B
  8
242
  6
CONTINUOUS
 10
-76.999999999999815
 20
0.0
 30
0.0
 40
10.0
  0
CIRCLE
  5
1B9C
  8
241
  6
CONTINUOUS
 10
-76.999999999999815
 20
0.0
 30
0.0
 40
13.99999999999997
  0
CIRCLE
  5
1B9D
  8
241
  6
CONTINUOUS
 10
-76.999999999999815
 20
0.0
 30
0.0
 40
9.0500000000000131
  0
ARC
  5
1B9E
  8
241
  6
CONTINUOUS
 10
-50.189999999999799
 20
0.0
 30
0.0
 40
6.0
 50
134.55380765322491
 51
225.44599696379231
  0
ARC
  5
1B9F
  8
241
  6
CONTINUOUS
 10
-100.9999999999998
 20
0.0
 30
0.0
 40
6.0
 50
308.67550996835593
 51
51.324339718951961
  0
POLYLINE
  5
1BA0
  8
240
 66
     1
 10
0.0
 20
0.0
 30
0.0
 70
     8
  0
VERTEX
  5
1BA1
  8
240
 10
-66.700000000000003
 20
17.8401
 30
0.0
 70
    32
  0
VERTEX
  5
1BA2
  8
240
 10
-66.421000000000006
 20
17.6799
 30
0.0
 70
    32
  0
VERTEX
  5
1BA3
  8
240
 10
-66.143699999999995
 20
17.517099999999999
 30
0.0
 70
    32
  0
VERTEX
  5
1BA4
  8
240
 10
-65.868099999999984
 20
17.352
 30
0.0
 70
    32
  0
VERTEX
  5
1BA5
  8
240
 10
-65.594300000000004
 20
17.1845
 30
0.0
 70
    32
  0
VERTEX
  5
1BA6
  8
240
 10
-65.322400000000002
 20
17.014700000000001
 30
0.0
 70
    32
  0
VERTEX
  5
1BA7
  8
240
 10
-65.052300000000002
 20
16.842600000000001
 30
0.0
 70
    32
  0
VERTEX
  5
1BA8
  8
240
 10
-64.784199999999984
 20
16.668199999999999
 30
0.0
 70
    32
  0
VERTEX
  5
1BA9
  8
240
 10
-64.518000000000001
 20
16.491499999999998
 30
0.0
 70
    32
  0
VERTEX
  5
1BAA
  8
240
 10
-64.253799999999998
 20
16.3126
 30
0.0
 70
    32
  0
VERTEX
  5
1BAB
  8
240
 10
-63.991799999999998
 20
16.131499999999999
 30
0.0
 70
    32
  0
VERTEX
  5
1BAC
  8
240
 10
-63.7318
 20
15.9483
 30
0.0
 70
    32
  0
VERTEX
  5
1BAD
  8
240
 10
-63.473999999999997
 20
15.763
 30
0.0
 70
    32
  0
VERTEX
  5
1BAE
  8
240
 10
-63.218400000000003
 20
15.5755
 30
0.0
 70
    32
  0
VERTEX
  5
1BAF
  8
240
 10
-62.9651
 20
15.385999999999999
 30
0.0
 70
    32
  0
VERTEX
  5
1BB0
  8
240
 10
-62.713999999999992
 20
15.1944
 30
0.0
 70
    32
  0
VERTEX
  5
1BB1
  8
240
 10
-62.465299999999992
 20
15.0009
 30
0.0
 70
    32
  0
VERTEX
  5
1BB2
  8
240
 10
-62.219000000000001
 20
14.805400000000001
 30
0.0
 70
    32
  0
VERTEX
  5
1BB3
  8
240
 10
-61.975200000000001
 20
14.607900000000001
 30
0.0
 70
    32
  0
VERTEX
  5
1BB4
  8
240
 10
-61.733899999999998
 20
14.4086
 30
0.0
 70
    32
  0
VERTEX
  5
1BB5
  8
240
 10
-61.49499999999999
 20
14.2073
 30
0.0
 70
    32
  0
VERTEX
  5
1BB6
  8
240
 10
-61.258800000000001
 20
14.004200000000001
 30
0.0
 70
    32
  0
VERTEX
  5
1BB7
  8
240
 10
-61.025199999999998
 20
13.799300000000001
 30
0.0
 70
    32
  0
VERTEX
  5
1BB8
  8
240
 10
-60.7943
 20
13.592700000000001
 30
0.0
 70
    32
  0
VERTEX
  5
1BB9
  8
240
 10
-60.566200000000002
 20
13.3842
 30
0.0
 70
    32
  0
VERTEX
  5
1BBA
  8
240
 10
-60.340800000000002
 20
13.174099999999999
 30
0.0
 70
    32
  0
VERTEX
  5
1BBB
  8
240
 10
-60.118200000000002
 20
12.962199999999999
 30
0.0
 70
    32
  0
VERTEX
  5
1BBC
  8
240
 10
-59.898499999999999
 20
12.748699999999999
 30
0.0
 70
    32
  0
VERTEX
  5
1BBD
  8
240
 10
-59.681699999999999
 20
12.5336
 30
0.0
 70
    32
  0
VERTEX
  5
1BBE
  8
240
 10
-59.4679
 20
12.316800000000001
 30
0.0
 70
    32
  0
VERTEX
  5
1BBF
  8
240
 10
-59.257100000000001
 20
12.0985
 30
0.0
 70
    32
  0
VERTEX
  5
1BC0
  8
240
 10
-59.049300000000002
 20
11.8787
 30
0.0
 70
    32
  0
VERTEX
  5
1BC1
  8
240
 10
-58.844700000000003
 20
11.657299999999999
 30
0.0
 70
    32
  0
VERTEX
  5
1BC2
  8
240
 10
-58.6432
 20
11.4345
 30
0.0
 70
    32
  0
VERTEX
  5
1BC3
  8
240
 10
-58.444899999999997
 20
11.2103
 30
0.0
 70
    32
  0
VERTEX
  5
1BC4
  8
240
 10
-58.24989999999999
 20
10.9846
 30
0.0
 70
    32
  0
VERTEX
  5
1BC5
  8
240
 10
-58.05810000000001
 20
10.7575
 30
0.0
 70
    32
  0
VERTEX
  5
1BC6
  8
240
 10
-57.869700000000002
 20
10.5291
 30
0.0
 70
    32
  0
VERTEX
  5
1BC7
  8
240
 10
-57.684699999999999
 20
10.2994
 30
0.0
 70
    32
  0
VERTEX
  5
1BC8
  8
240
 10
-57.503100000000003
 20
10.0684
 30
0.0
 70
    32
  0
VERTEX
  5
1BC9
  8
240
 10
-57.325000000000003
 20
9.8361600000000013
 30
0.0
 70
    32
  0
VERTEX
  5
1BCA
  8
240
 10
-57.150500000000001
 20
9.6026699999999998
 30
0.0
 70
    32
  0
VERTEX
  5
1BCB
  8
240
 10
-56.979500000000002
 20
9.3679899999999972
 30
0.0
 70
    32
  0
VERTEX
  5
1BCC
  8
240
 10
-56.812100000000001
 20
9.1321399999999997
 30
0.0
 70
    32
  0
VERTEX
  5
1BCD
  8
240
 10
-56.648499999999999
 20
8.8951600000000006
 30
0.0
 70
    32
  0
VERTEX
  5
1BCE
  8
240
 10
-56.488500000000002
 20
8.6570800000000006
 30
0.0
 70
    32
  0
VERTEX
  5
1BCF
  8
240
 10
-56.332299999999996
 20
8.4179300000000001
 30
0.0
 70
    32
  0
VERTEX
  5
1BD0
  8
240
 10
-56.179900000000004
 20
8.17774
 30
0.0
 70
    32
  0
VERTEX
  5
1BD1
  8
240
 10
-56.031399999999991
 20
7.936539999999999
 30
0.0
 70
    32
  0
VERTEX
  5
1BD2
  8
240
 10
-55.886800000000001
 20
7.6943599999999996
 30
0.0
 70
    32
  0
VERTEX
  5
1BD3
  8
240
 10
-55.746200000000002
 20
7.4512399999999994
 30
0.0
 70
    32
  0
VERTEX
  5
1BD4
  8
240
 10
-55.609499999999997
 20
7.2072000000000003
 30
0.0
 70
    32
  0
VERTEX
  5
1BD5
  8
240
 10
-55.476900000000001
 20
6.9622799999999998
 30
0.0
 70
    32
  0
VERTEX
  5
1BD6
  8
240
 10
-55.348399999999991
 20
6.7165100000000004
 30
0.0
 70
    32
  0
VERTEX
  5
1BD7
  8
240
 10
-55.2241
 20
6.4699099999999987
 30
0.0
 70
    32
  0
VERTEX
  5
1BD8
  8
240
 10
-55.10390000000001
 20
6.2225199999999994
 30
0.0
 70
    32
  0
VERTEX
  5
1BD9
  8
240
 10
-54.988
 20
5.97438
 30
0.0
 70
    32
  0
VERTEX
  5
1BDA
  8
240
 10
-54.87639999999999
 20
5.7255000000000003
 30
0.0
 70
    32
  0
VERTEX
  5
1BDB
  8
240
 10
-54.769100000000002
 20
5.4759199999999986
 30
0.0
 70
    32
  0
VERTEX
  5
1BDC
  8
240
 10
-54.666200000000003
 20
5.2256799999999997
 30
0.0
 70
    32
  0
VERTEX
  5
1BDD
  8
240
 10
-54.567700000000002
 20
4.9748000000000001
 30
0.0
 70
    32
  0
VERTEX
  5
1BDE
  8
240
 10
-54.473700000000001
 20
4.7233199999999993
 30
0.0
 70
    32
  0
VERTEX
  5
1BDF
  8
240
 10
-54.3842
 20
4.47126
 30
0.0
 70
    32
  0
VERTEX
  5
1BE0
  8
240
 10
-54.299300000000002
 20
4.218659999999999
 30
0.0
 70
    32
  0
VERTEX
  5
1BE1
  8
240
 10
-54.219000000000001
 20
3.965549999999999
 30
0.0
 70
    32
  0
VERTEX
  5
1BE2
  8
240
 10
-54.143300000000004
 20
3.711959999999999
 30
0.0
 70
    32
  0
VERTEX
  5
1BE3
  8
240
 10
-54.072400000000002
 20
3.4579199999999992
 30
0.0
 70
    32
  0
VERTEX
  5
1BE4
  8
240
 10
-54.006199999999993
 20
3.2034500000000001
 30
0.0
 70
    32
  0
VERTEX
  5
1BE5
  8
240
 10
-53.944899999999997
 20
2.94861
 30
0.0
 70
    32
  0
VERTEX
  5
1BE6
  8
240
 10
-53.888399999999997
 20
2.6934
 30
0.0
 70
    32
  0
VERTEX
  5
1BE7
  8
240
 10
-53.836799999999997
 20
2.4378700000000002
 30
0.0
 70
    32
  0
VERTEX
  5
1BE8
  8
240
 10
-53.790100000000002
 20
2.1820400000000002
 30
0.0
 70
    32
  0
VERTEX
  5
1BE9
  8
240
 10
-53.7485
 20
1.9259500000000001
 30
0.0
 70
    32
  0
VERTEX
  5
1BEA
  8
240
 10
-53.71179999999999
 20
1.6696299999999991
 30
0.0
 70
    32
  0
VERTEX
  5
1BEB
  8
240
 10
-53.680300000000003
 20
1.4131
 30
0.0
 70
    32
  0
VERTEX
  5
1BEC
  8
240
 10
-53.6539
 20
1.156409999999999
 30
0.0
 70
    32
  0
VERTEX
  5
1BED
  8
240
 10
-53.632699999999993
 20
0.899573
 30
0.0
 70
    32
  0
VERTEX
  5
1BEE
  8
240
 10
-53.616700000000002
 20
0.6426300000000002
 30
0.0
 70
    32
  0
VERTEX
  5
1BEF
  8
240
 10
-53.606000000000002
 20
0.385609
 30
0.0
 70
    32
  0
VERTEX
  5
1BF0
  8
240
 10
-53.600700000000003
 20
0.128541
 30
0.0
 70
    32
  0
VERTEX
  5
1BF1
  8
240
 10
-53.600700000000003
 20
-0.128541
 30
0.0
 70
    32
  0
VERTEX
  5
1BF2
  8
240
 10
-53.606000000000002
 20
-0.385609
 30
0.0
 70
    32
  0
VERTEX
  5
1BF3
  8
240
 10
-53.616700000000002
 20
-0.6426300000000002
 30
0.0
 70
    32
  0
VERTEX
  5
1BF4
  8
240
 10
-53.632699999999993
 20
-0.899573
 30
0.0
 70
    32
  0
VERTEX
  5
1BF5
  8
240
 10
-53.6539
 20
-1.156409999999999
 30
0.0
 70
    32
  0
VERTEX
  5
1BF6
  8
240
 10
-53.680300000000003
 20
-1.4131
 30
0.0
 70
    32
  0
VERTEX
  5
1BF7
  8
240
 10
-53.71179999999999
 20
-1.6696299999999991
 30
0.0
 70
    32
  0
VERTEX
  5
1BF8
  8
240
 10
-53.7485
 20
-1.9259500000000001
 30
0.0
 70
    32
  0
VERTEX
  5
1BF9
  8
240
 10
-53.790100000000002
 20
-2.1820400000000002
 30
0.0
 70
    32
  0
VERTEX
  5
1BFA
  8
240
 10
-53.836799999999997
 20
-2.4378700000000002
 30
0.0
 70
    32
  0
VERTEX
  5
1BFB
  8
240
 10
-53.888399999999997
 20
-2.6934
 30
0.0
 70
    32
  0
VERTEX
  5
1BFC
  8
240
 10
-53.944899999999997
 20
-2.94861
 30
0.0
 70
    32
  0
VERTEX
  5
1BFD
  8
240
 10
-54.006199999999993
 20
-3.2034500000000001
 30
0.0
 70
    32
  0
VERTEX
  5
1BFE
  8
240
 10
-54.072400000000002
 20
-3.4579199999999992
 30
0.0
 70
    32
  0
VERTEX
  5
1BFF
  8
240
 10
-54.143300000000004
 20
-3.711959999999999
 30
0.0
 70
    32
  0
VERTEX
  5
1C00
  8
240
 10
-54.219000000000001
 20
-3.965549999999999
 30
0.0
 70
    32
  0
VERTEX
  5
1C01
  8
240
 10
-54.299300000000002
 20
-4.218659999999999
 30
0.0
 70
    32
  0
VERTEX
  5
1C02
  8
240
 10
-54.3842
 20
-4.47126
 30
0.0
 70
    32
  0
VERTEX
  5
1C03
  8
240
 10
-54.473700000000001
 20
-4.7233199999999993
 30
0.0
 70
    32
  0
VERTEX
  5
1C04
  8
240
 10
-54.567700000000002
 20
-4.9748000000000001
 30
0.0
 70
    32
  0
VERTEX
  5
1C05
  8
240
 10
-54.666200000000003
 20
-5.2256799999999997
 30
0.0
 70
    32
  0
VERTEX
  5
1C06
  8
240
 10
-54.769100000000002
 20
-5.4759199999999986
 30
0.0
 70
    32
  0
VERTEX
  5
1C07
  8
240
 10
-54.87639999999999
 20
-5.7255000000000003
 30
0.0
 70
    32
  0
VERTEX
  5
1C08
  8
240
 10
-54.988
 20
-5.97438
 30
0.0
 70
    32
  0
VERTEX
  5
1C09
  8
240
 10
-55.10390000000001
 20
-6.2225199999999994
 30
0.0
 70
    32
  0
VERTEX
  5
1C0A
  8
240
 10
-55.2241
 20
-6.4699099999999987
 30
0.0
 70
    32
  0
VERTEX
  5
1C0B
  8
240
 10
-55.348399999999991
 20
-6.7165100000000004
 30
0.0
 70
    32
  0
VERTEX
  5
1C0C
  8
240
 10
-55.476900000000001
 20
-6.9622799999999998
 30
0.0
 70
    32
  0
VERTEX
  5
1C0D
  8
240
 10
-55.609499999999997
 20
-7.2072000000000003
 30
0.0
 70
    32
  0
VERTEX
  5
1C0E
  8
240
 10
-55.746200000000002
 20
-7.4512399999999994
 30
0.0
 70
    32
  0
VERTEX
  5
1C0F
  8
240
 10
-55.886800000000001
 20
-7.6943599999999996
 30
0.0
 70
    32
  0
VERTEX
  5
1C10
  8
240
 10
-56.031399999999991
 20
-7.936539999999999
 30
0.0
 70
    32
  0
VERTEX
  5
1C11
  8
240
 10
-56.179900000000004
 20
-8.17774
 30
0.0
 70
    32
  0
VERTEX
  5
1C12
  8
240
 10
-56.332299999999996
 20
-8.4179300000000001
 30
0.0
 70
    32
  0
VERTEX
  5
1C13
  8
240
 10
-56.488500000000002
 20
-8.6570800000000006
 30
0.0
 70
    32
  0
VERTEX
  5
1C14
  8
240
 10
-56.648499999999999
 20
-8.8951600000000006
 30
0.0
 70
    32
  0
VERTEX
  5
1C15
  8
240
 10
-56.812100000000001
 20
-9.1321399999999997
 30
0.0
 70
    32
  0
VERTEX
  5
1C16
  8
240
 10
-56.979500000000002
 20
-9.3679899999999972
 30
0.0
 70
    32
  0
VERTEX
  5
1C17
  8
240
 10
-57.150500000000001
 20
-9.6026699999999998
 30
0.0
 70
    32
  0
VERTEX
  5
1C18
  8
240
 10
-57.325000000000003
 20
-9.8361600000000013
 30
0.0
 70
    32
  0
VERTEX
  5
1C19
  8
240
 10
-57.503100000000003
 20
-10.0684
 30
0.0
 70
    32
  0
VERTEX
  5
1C1A
  8
240
 10
-57.684699999999999
 20
-10.2994
 30
0.0
 70
    32
  0
VERTEX
  5
1C1B
  8
240
 10
-57.869700000000002
 20
-10.5291
 30
0.0
 70
    32
  0
VERTEX
  5
1C1C
  8
240
 10
-58.05810000000001
 20
-10.7575
 30
0.0
 70
    32
  0
VERTEX
  5
1C1D
  8
240
 10
-58.24989999999999
 20
-10.9846
 30
0.0
 70
    32
  0
VERTEX
  5
1C1E
  8
240
 10
-58.444899999999997
 20
-11.2103
 30
0.0
 70
    32
  0
VERTEX
  5
1C1F
  8
240
 10
-58.6432
 20
-11.4345
 30
0.0
 70
    32
  0
VERTEX
  5
1C20
  8
240
 10
-58.844700000000003
 20
-11.657299999999999
 30
0.0
 70
    32
  0
VERTEX
  5
1C21
  8
240
 10
-59.049300000000002
 20
-11.8787
 30
0.0
 70
    32
  0
VERTEX
  5
1C22
  8
240
 10
-59.257100000000001
 20
-12.0985
 30
0.0
 70
    32
  0
VERTEX
  5
1C23
  8
240
 10
-59.4679
 20
-12.316800000000001
 30
0.0
 70
    32
  0
VERTEX
  5
1C24
  8
240
 10
-59.681699999999999
 20
-12.5336
 30
0.0
 70
    32
  0
VERTEX
  5
1C25
  8
240
 10
-59.898499999999999
 20
-12.748699999999999
 30
0.0
 70
    32
  0
VERTEX
  5
1C26
  8
240
 10
-60.118200000000002
 20
-12.962199999999999
 30
0.0
 70
    32
  0
VERTEX
  5
1C27
  8
240
 10
-60.340800000000002
 20
-13.174099999999999
 30
0.0
 70
    32
  0
VERTEX
  5
1C28
  8
240
 10
-60.566200000000002
 20
-13.3842
 30
0.0
 70
    32
  0
VERTEX
  5
1C29
  8
240
 10
-60.7943
 20
-13.592700000000001
 30
0.0
 70
    32
  0
VERTEX
  5
1C2A
  8
240
 10
-61.025199999999998
 20
-13.799300000000001
 30
0.0
 70
    32
  0
VERTEX
  5
1C2B
  8
240
 10
-61.258800000000001
 20
-14.004200000000001
 30
0.0
 70
    32
  0
VERTEX
  5
1C2C
  8
240
 10
-61.49499999999999
 20
-14.2073
 30
0.0
 70
    32
  0
VERTEX
  5
1C2D
  8
240
 10
-61.733899999999998
 20
-14.4086
 30
0.0
 70
    32
  0
VERTEX
  5
1C2E
  8
240
 10
-61.975200000000001
 20
-14.607900000000001
 30
0.0
 70
    32
  0
VERTEX
  5
1C2F
  8
240
 10
-62.219000000000001
 20
-14.805400000000001
 30
0.0
 70
    32
  0
VERTEX
  5
1C30
  8
240
 10
-62.465299999999992
 20
-15.0009
 30
0.0
 70
    32
  0
VERTEX
  5
1C31
  8
240
 10
-62.713999999999992
 20
-15.1944
 30
0.0
 70
    32
  0
VERTEX
  5
1C32
  8
240
 10
-62.9651
 20
-15.385999999999999
 30
0.0
 70
    32
  0
VERTEX
  5
1C33
  8
240
 10
-63.218400000000003
 20
-15.5755
 30
0.0
 70
    32
  0
VERTEX
  5
1C34
  8
240
 10
-63.473999999999997
 20
-15.763
 30
0.0
 70
    32
  0
VERTEX
  5
1C35
  8
240
 10
-63.7318
 20
-15.9483
 30
0.0
 70
    32
  0
VERTEX
  5
1C36
  8
240
 10
-63.991799999999998
 20
-16.131499999999999
 30
0.0
 70
    32
  0
VERTEX
  5
1C37
  8
240
 10
-64.253799999999998
 20
-16.3126
 30
0.0
 70
    32
  0
VERTEX
  5
1C38
  8
240
 10
-64.518000000000001
 20
-16.491499999999998
 30
0.0
 70
    32
  0
VERTEX
  5
1C39
  8
240
 10
-64.784199999999984
 20
-16.668199999999999
 30
0.0
 70
    32
  0
VERTEX
  5
1C3A
  8
240
 10
-65.052300000000002
 20
-16.842600000000001
 30
0.0
 70
    32
  0
VERTEX
  5
1C3B
  8
240
 10
-65.322400000000002
 20
-17.014700000000001
 30
0.0
 70
    32
  0
VERTEX
  5
1C3C
  8
240
 10
-65.594300000000004
 20
-17.1845
 30
0.0
 70
    32
  0
VERTEX
  5
1C3D
  8
240
 10
-65.868099999999984
 20
-17.352
 30
0.0
 70
    32
  0
VERTEX
  5
1C3E
  8
240
 10
-66.143699999999995
 20
-17.517099999999999
 30
0.0
 70
    32
  0
VERTEX
  5
1C3F
  8
240
 10
-66.421000000000006
 20
-17.6799
 30
0.0
 70
    32
  0
VERTEX
  5
1C40
  8
240
 10
-66.700000000000003
 20
-17.8401
 30
0.0
 70
    32
  0
SEQEND
  5
1C41
  8
240
  0
POLYLINE
  5
1C42
  8
240
 66
     1
 10
0.0
 20
0.0
 30
0.0
 70
     8
  0
VERTEX
  5
1C43
  8
240
 10
-97.599999999999994
 20
0.0000000000000562
 30
0.0
 70
    32
  0
VERTEX
  5
1C44
  8
240
 10
-97.600700000000003
 20
0.321754
 30
0.0
 70
    32
  0
VERTEX
  5
1C45
  8
240
 10
-97.598399999999998
 20
0.643262
 30
0.0
 70
    32
  0
VERTEX
  5
1C46
  8
240
 10
-97.593199999999996
 20
0.9644669999999999
 30
0.0
 70
    32
  0
VERTEX
  5
1C47
  8
240
 10
-97.585100000000011
 20
1.2853099999999991
 30
0.0
 70
    32
  0
VERTEX
  5
1C48
  8
240
 10
-97.573999999999998
 20
1.6057399999999991
 30
0.0
 70
    32
  0
VERTEX
  5
1C49
  8
240
 10
-97.559899999999999
 20
1.9256999999999991
 30
0.0
 70
    32
  0
VERTEX
  5
1C4A
  8
240
 10
-97.543000000000006
 20
2.2451300000000001
 30
0.0
 70
    32
  0
VERTEX
  5
1C4B
  8
240
 10
-97.523100000000014
 20
2.563979999999999
 30
0.0
 70
    32
  0
VERTEX
  5
1C4C
  8
240
 10
-97.500200000000007
 20
2.8821899999999991
 30
0.0
 70
    32
  0
VERTEX
  5
1C4D
  8
240
 10
-97.474400000000003
 20
3.1996899999999999
 30
0.0
 70
    32
  0
VERTEX
  5
1C4E
  8
240
 10
-97.445700000000016
 20
3.516449999999999
 30
0.0
 70
    32
  0
VERTEX
  5
1C4F
  8
240
 10
-97.414100000000005
 20
3.8323900000000002
 30
0.0
 70
    32
  0
VERTEX
  5
1C50
  8
240
 10
-97.379600000000011
 20
4.1474699999999993
 30
0.0
 70
    32
  0
VERTEX
  5
1C51
  8
240
 10
-97.342100000000002
 20
4.4616300000000004
 30
0.0
 70
    32
  0
VERTEX
  5
1C52
  8
240
 10
-97.3018
 20
4.774799999999999
 30
0.0
 70
    32
  0
VERTEX
  5
1C53
  8
240
 10
-97.258500000000012
 20
5.0869400000000002
 30
0.0
 70
    32
  0
VERTEX
  5
1C54
  8
240
 10
-97.212299999999999
 20
5.3979900000000001
 30
0.0
 70
    32
  0
VERTEX
  5
1C55
  8
240
 10
-97.163200000000003
 20
5.707889999999999
 30
0.0
 70
    32
  0
VERTEX
  5
1C56
  8
240
 10
-97.1113
 20
6.0165800000000003
 30
0.0
 70
    32
  0
VERTEX
  5
1C57
  8
240
 10
-97.056399999999996
 20
6.3240199999999991
 30
0.0
 70
    32
  0
VERTEX
  5
1C58
  8
240
 10
-96.99860000000001
 20
6.6301300000000003
 30
0.0
 70
    32
  0
VERTEX
  5
1C59
  8
240
 10
-96.938000000000017
 20
6.9348700000000001
 30
0.0
 70
    32
  0
VERTEX
  5
1C5A
  8
240
 10
-96.874399999999994
 20
7.2381799999999998
 30
0.0
 70
    32
  0
VERTEX
  5
1C5B
  8
240
 10
-96.808000000000007
 20
7.5400099999999997
 30
0.0
 70
    32
  0
VERTEX
  5
1C5C
  8
240
 10
-96.738699999999994
 20
7.8402899999999986
 30
0.0
 70
    32
  0
VERTEX
  5
1C5D
  8
240
 10
-96.666499999999999
 20
8.1389700000000005
 30
0.0
 70
    32
  0
VERTEX
  5
1C5E
  8
240
 10
-96.591499999999996
 20
8.4359899999999985
 30
0.0
 70
    32
  0
VERTEX
  5
1C5F
  8
240
 10
-96.513499999999993
 20
8.7312999999999992
 30
0.0
 70
    32
  0
VERTEX
  5
1C60
  8
240
 10
-96.432700000000011
 20
9.0248500000000007
 30
0.0
 70
    32
  0
VERTEX
  5
1C61
  8
240
 10
-96.349100000000007
 20
9.3165600000000008
 30
0.0
 70
    32
  0
VERTEX
  5
1C62
  8
240
 10
-96.26260000000002
 20
9.6064000000000007
 30
0.0
 70
    32
  0
VERTEX
  5
1C63
  8
240
 10
-96.173199999999994
 20
9.8942999999999994
 30
0.0
 70
    32
  0
VERTEX
  5
1C64
  8
240
 10
-96.081000000000003
 20
10.180199999999999
 30
0.0
 70
    32
  0
VERTEX
  5
1C65
  8
240
 10
-95.985899999999987
 20
10.4641
 30
0.0
 70
    32
  0
VERTEX
  5
1C66
  8
240
 10
-95.888000000000005
 20
10.745799999999999
 30
0.0
 70
    32
  0
VERTEX
  5
1C67
  8
240
 10
-95.787300000000002
 20
11.025399999999999
 30
0.0
 70
    32
  0
VERTEX
  5
1C68
  8
240
 10
-95.683699999999988
 20
11.3027
 30
0.0
 70
    32
  0
VERTEX
  5
1C69
  8
240
 10
-95.577200000000005
 20
11.5778
 30
0.0
 70
    32
  0
VERTEX
  5
1C6A
  8
240
 10
-95.467899999999986
 20
11.8506
 30
0.0
 70
    32
  0
VERTEX
  5
1C6B
  8
240
 10
-95.355800000000016
 20
12.120900000000001
 30
0.0
 70
    32
  0
VERTEX
  5
1C6C
  8
240
 10
-95.240899999999996
 20
12.3889
 30
0.0
 70
    32
  0
VERTEX
  5
1C6D
  8
240
 10
-95.123199999999997
 20
12.654299999999999
 30
0.0
 70
    32
  0
VERTEX
  5
1C6E
  8
240
 10
-95.002600000000001
 20
12.9171
 30
0.0
 70
    32
  0
VERTEX
  5
1C6F
  8
240
 10
-94.879199999999997
 20
13.1774
 30
0.0
 70
    32
  0
VERTEX
  5
1C70
  8
240
 10
-94.753
 20
13.434900000000001
 30
0.0
 70
    32
  0
VERTEX
  5
1C71
  8
240
 10
-94.623999999999995
 20
13.6898
 30
0.0
 70
    32
  0
VERTEX
  5
1C72
  8
240
 10
-94.492199999999997
 20
13.941800000000001
 30
0.0
 70
    32
  0
VERTEX
  5
1C73
  8
240
 10
-94.357500000000002
 20
14.1911
 30
0.0
 70
    32
  0
VERTEX
  5
1C74
  8
240
 10
-94.220100000000002
 20
14.4374
 30
0.0
 70
    32
  0
VERTEX
  5
1C75
  8
240
 10
-94.079899999999995
 20
14.6807
 30
0.0
 70
    32
  0
VERTEX
  5
1C76
  8
240
 10
-93.936899999999994
 20
14.921099999999999
 30
0.0
 70
    32
  0
VERTEX
  5
1C77
  8
240
 10
-93.790999999999997
 20
15.1584
 30
0.0
 70
    32
  0
VERTEX
  5
1C78
  8
240
 10
-93.642499999999998
 20
15.3926
 30
0.0
 70
    32
  0
VERTEX
  5
1C79
  8
240
 10
-93.491100000000003
 20
15.6235
 30
0.0
 70
    32
  0
VERTEX
  5
1C7A
  8
240
 10
-93.3369
 20
15.8513
 30
0.0
 70
    32
  0
VERTEX
  5
1C7B
  8
240
 10
-93.180000000000007
 20
16.075800000000001
 30
0.0
 70
    32
  0
VERTEX
  5
1C7C
  8
240
 10
-93.020200000000003
 20
16.296900000000001
 30
0.0
 70
    32
  0
VERTEX
  5
1C7D
  8
240
 10
-92.857699999999994
 20
16.514600000000002
 30
0.0
 70
    32
  0
VERTEX
  5
1C7E
  8
240
 10
-92.692499999999995
 20
16.7288
 30
0.0
 70
    32
  0
VERTEX
  5
1C7F
  8
240
 10
-92.524500000000003
 20
16.939599999999999
 30
0.0
 70
    32
  0
VERTEX
  5
1C80
  8
240
 10
-92.353700000000003
 20
17.146699999999999
 30
0.0
 70
    32
  0
VERTEX
  5
1C81
  8
240
 10
-92.180099999999996
 20
17.350200000000001
 30
0.0
 70
    32
  0
VERTEX
  5
1C82
  8
240
 10
-92.003799999999998
 20
17.5501
 30
0.0
 70
    32
  0
VERTEX
  5
1C83
  8
240
 10
-91.824799999999996
 20
17.746200000000002
 30
0.0
 70
    32
  0
VERTEX
  5
1C84
  8
240
 10
-91.643000000000001
 20
17.938500000000001
 30
0.0
 70
    32
  0
VERTEX
  5
1C85
  8
240
 10
-91.458399999999983
 20
18.126899999999999
 30
0.0
 70
    32
  0
VERTEX
  5
1C86
  8
240
 10
-91.271199999999993
 20
18.311499999999999
 30
0.0
 70
    32
  0
VERTEX
  5
1C87
  8
240
 10
-91.081100000000006
 20
18.492000000000001
 30
0.0
 70
    32
  0
VERTEX
  5
1C88
  8
240
 10
-90.888400000000004
 20
18.668600000000001
 30
0.0
 70
    32
  0
VERTEX
  5
1C89
  8
240
 10
-90.692899999999995
 20
18.841000000000001
 30
0.0
 70
    32
  0
VERTEX
  5
1C8A
  8
240
 10
-90.494600000000005
 20
19.0093
 30
0.0
 70
    32
  0
VERTEX
  5
1C8B
  8
240
 10
-90.293700000000001
 20
19.173400000000001
 30
0.0
 70
    32
  0
VERTEX
  5
1C8C
  8
240
 10
-90.090000000000003
 20
19.333300000000001
 30
0.0
 70
    32
  0
VERTEX
  5
1C8D
  8
240
 10
-89.883600000000001
 20
19.488900000000001
 30
0.0
 70
    32
  0
VERTEX
  5
1C8E
  8
240
 10
-89.674499999999995
 20
19.6401
 30
0.0
 70
    32
  0
VERTEX
  5
1C8F
  8
240
 10
-89.462699999999998
 20
19.786899999999999
 30
0.0
 70
    32
  0
VERTEX
  5
1C90
  8
240
 10
-89.248199999999997
 20
19.929200000000002
 30
0.0
 70
    32
  0
VERTEX
  5
1C91
  8
240
 10
-89.030900000000003
 20
20.067
 30
0.0
 70
    32
  0
VERTEX
  5
1C92
  8
240
 10
-88.811000000000007
 20
20.200099999999999
 30
0.0
 70
    32
  0
VERTEX
  5
1C93
  8
240
 10
-88.588300000000004
 20
20.328700000000001
 30
0.0
 70
    32
  0
VERTEX
  5
1C94
  8
240
 10
-88.362999999999985
 20
20.4526
 30
0.0
 70
    32
  0
VERTEX
  5
1C95
  8
240
 10
-88.135099999999994
 20
20.5718
 30
0.0
 70
    32
  0
VERTEX
  5
1C96
  8
240
 10
-87.904600000000016
 20
20.686399999999999
 30
0.0
 70
    32
  0
VERTEX
  5
1C97
  8
240
 10
-87.671599999999998
 20
20.796500000000002
 30
0.0
 70
    32
  0
VERTEX
  5
1C98
  8
240
 10
-87.436099999999996
 20
20.902000000000001
 30
0.0
 70
    32
  0
VERTEX
  5
1C99
  8
240
 10
-87.198099999999997
 20
21.003
 30
0.0
 70
    32
  0
VERTEX
  5
1C9A
  8
240
 10
-86.957800000000006
 20
21.099399999999999
 30
0.0
 70
    32
  0
VERTEX
  5
1C9B
  8
240
 10
-86.715199999999996
 20
21.191400000000002
 30
0.0
 70
    32
  0
VERTEX
  5
1C9C
  8
240
 10
-86.470399999999998
 20
21.2789
 30
0.0
 70
    32
  0
VERTEX
  5
1C9D
  8
240
 10
-86.223299999999995
 20
21.361999999999998
 30
0.0
 70
    32
  0
VERTEX
  5
1C9E
  8
240
 10
-85.974000000000004
 20
21.4406
 30
0.0
 70
    32
  0
VERTEX
  5
1C9F
  8
240
 10
-85.722599999999986
 20
21.514900000000001
 30
0.0
 70
    32
  0
VERTEX
  5
1CA0
  8
240
 10
-85.469200000000001
 20
21.584800000000001
 30
0.0
 70
    32
  0
VERTEX
  5
1CA1
  8
240
 10
-85.213700000000003
 20
21.650400000000001
 30
0.0
 70
    32
  0
VERTEX
  5
1CA2
  8
240
 10
-84.956299999999999
 20
21.7117
 30
0.0
 70
    32
  0
VERTEX
  5
1CA3
  8
240
 10
-84.696899999999985
 20
21.768699999999999
 30
0.0
 70
    32
  0
VERTEX
  5
1CA4
  8
240
 10
-84.435699999999997
 20
21.8215
 30
0.0
 70
    32
  0
VERTEX
  5
1CA5
  8
240
 10
-84.172700000000006
 20
21.870000000000001
 30
0.0
 70
    32
  0
VERTEX
  5
1CA6
  8
240
 10
-83.907899999999998
 20
21.914400000000001
 30
0.0
 70
    32
  0
VERTEX
  5
1CA7
  8
240
 10
-83.641300000000015
 20
21.954499999999999
 30
0.0
 70
    32
  0
VERTEX
  5
1CA8
  8
240
 10
-83.373199999999997
 20
21.990500000000001
 30
0.0
 70
    32
  0
VERTEX
  5
1CA9
  8
240
 10
-83.103399999999993
 20
22.022400000000001
 30
0.0
 70
    32
  0
VERTEX
  5
1CAA
  8
240
 10
-82.831999999999994
 20
22.0501
 30
0.0
 70
    32
  0
VERTEX
  5
1CAB
  8
240
 10
-82.559200000000004
 20
22.073799999999999
 30
0.0
 70
    32
  0
VERTEX
  5
1CAC
  8
240
 10
-82.284899999999979
 20
22.093499999999999
 30
0.0
 70
    32
  0
VERTEX
  5
1CAD
  8
240
 10
-82.009100000000004
 20
22.109100000000002
 30
0.0
 70
    32
  0
VERTEX
  5
1CAE
  8
240
 10
-81.731999999999985
 20
22.120699999999999
 30
0.0
 70
    32
  0
VERTEX
  5
1CAF
  8
240
 10
-81.453599999999994
 20
22.128299999999999
 30
0.0
 70
    32
  0
VERTEX
  5
1CB0
  8
240
 10
-81.174000000000007
 20
22.132000000000001
 30
0.0
 70
    32
  0
VERTEX
  5
1CB1
  8
240
 10
-80.893100000000004
 20
22.131699999999999
 30
0.0
 70
    32
  0
VERTEX
  5
1CB2
  8
240
 10
-80.611000000000004
 20
22.127600000000001
 30
0.0
 70
    32
  0
VERTEX
  5
1CB3
  8
240
 10
-80.3279
 20
22.119599999999998
 30
0.0
 70
    32
  0
VERTEX
  5
1CB4
  8
240
 10
-80.043699999999987
 20
22.107700000000001
 30
0.0
 70
    32
  0
VERTEX
  5
1CB5
  8
240
 10
-79.758499999999998
 20
22.091999999999999
 30
0.0
 70
    32
  0
VERTEX
  5
1CB6
  8
240
 10
-79.472300000000004
 20
22.072500000000002
 30
0.0
 70
    32
  0
VERTEX
  5
1CB7
  8
240
 10
-79.185299999999998
 20
22.049299999999999
 30
0.0
 70
    32
  0
VERTEX
  5
1CB8
  8
240
 10
-78.897300000000001
 20
22.022300000000001
 30
0.0
 70
    32
  0
VERTEX
  5
1CB9
  8
240
 10
-78.608599999999996
 20
21.991499999999998
 30
0.0
 70
    32
  0
VERTEX
  5
1CBA
  8
240
 10
-78.319100000000006
 20
21.957100000000001
 30
0.0
 70
    32
  0
VERTEX
  5
1CBB
  8
240
 10
-78.028899999999993
 20
21.919
 30
0.0
 70
    32
  0
VERTEX
  5
1CBC
  8
240
 10
-77.738100000000003
 20
21.877300000000002
 30
0.0
 70
    32
  0
VERTEX
  5
1CBD
  8
240
 10
-77.446600000000004
 20
21.831900000000001
 30
0.0
 70
    32
  0
VERTEX
  5
1CBE
  8
240
 10
-77.154600000000002
 20
21.782900000000001
 30
0.0
 70
    32
  0
VERTEX
  5
1CBF
  8
240
 10
-76.862099999999984
 20
21.730399999999999
 30
0.0
 70
    32
  0
VERTEX
  5
1CC0
  8
240
 10
-76.569199999999995
 20
21.674299999999999
 30
0.0
 70
    32
  0
VERTEX
  5
1CC1
  8
240
 10
-76.275800000000004
 20
21.614699999999999
 30
0.0
 70
    32
  0
VERTEX
  5
1CC2
  8
240
 10
-75.982100000000003
 20
21.551600000000001
 30
0.0
 70
    32
  0
VERTEX
  5
1CC3
  8
240
 10
-75.688100000000006
 20
21.485099999999999
 30
0.0
 70
    32
  0
VERTEX
  5
1CC4
  8
240
 10
-75.393799999999999
 20
21.415099999999999
 30
0.0
 70
    32
  0
VERTEX
  5
1CC5
  8
240
 10
-75.099400000000003
 20
21.341699999999999
 30
0.0
 70
    32
  0
VERTEX
  5
1CC6
  8
240
 10
-74.8048
 20
21.264900000000001
 30
0.0
 70
    32
  0
VERTEX
  5
1CC7
  8
240
 10
-74.510099999999994
 20
21.184699999999999
 30
0.0
 70
    32
  0
VERTEX
  5
1CC8
  8
240
 10
-74.215299999999999
 20
21.101199999999999
 30
0.0
 70
    32
  0
VERTEX
  5
1CC9
  8
240
 10
-73.920500000000004
 20
21.014399999999998
 30
0.0
 70
    32
  0
VERTEX
  5
1CCA
  8
240
 10
-73.625799999999998
 20
20.924199999999999
 30
0.0
 70
    32
  0
VERTEX
  5
1CCB
  8
240
 10
-73.331199999999995
 20
20.8308
 30
0.0
 70
    32
  0
VERTEX
  5
1CCC
  8
240
 10
-73.036799999999985
 20
20.734200000000001
 30
0.0
 70
    32
  0
VERTEX
  5
1CCD
  8
240
 10
-72.742599999999996
 20
20.634399999999999
 30
0.0
 70
    32
  0
VERTEX
  5
1CCE
  8
240
 10
-72.448599999999999
 20
20.531300000000002
 30
0.0
 70
    32
  0
VERTEX
  5
1CCF
  8
240
 10
-72.154899999999984
 20
20.4252
 30
0.0
 70
    32
  0
VERTEX
  5
1CD0
  8
240
 10
-71.861599999999996
 20
20.315799999999999
 30
0.0
 70
    32
  0
VERTEX
  5
1CD1
  8
240
 10
-71.568600000000004
 20
20.203399999999998
 30
0.0
 70
    32
  0
VERTEX
  5
1CD2
  8
240
 10
-71.276200000000003
 20
20.087800000000001
 30
0.0
 70
    32
  0
VERTEX
  5
1CD3
  8
240
 10
-70.984200000000001
 20
19.969200000000001
 30
0.0
 70
    32
  0
VERTEX
  5
1CD4
  8
240
 10
-70.692800000000005
 20
19.8476
 30
0.0
 70
    32
  0
VERTEX
  5
1CD5
  8
240
 10
-70.402000000000001
 20
19.722999999999999
 30
0.0
 70
    32
  0
VERTEX
  5
1CD6
  8
240
 10
-70.111900000000006
 20
19.595300000000002
 30
0.0
 70
    32
  0
VERTEX
  5
1CD7
  8
240
 10
-69.822500000000005
 20
19.4648
 30
0.0
 70
    32
  0
VERTEX
  5
1CD8
  8
240
 10
-69.533799999999999
 20
19.331199999999999
 30
0.0
 70
    32
  0
VERTEX
  5
1CD9
  8
240
 10
-69.245900000000006
 20
19.194800000000001
 30
0.0
 70
    32
  0
VERTEX
  5
1CDA
  8
240
 10
-68.9589
 20
19.055499999999999
 30
0.0
 70
    32
  0
VERTEX
  5
1CDB
  8
240
 10
-68.672899999999998
 20
18.9133
 30
0.0
 70
    32
  0
VERTEX
  5
1CDC
  8
240
 10
-68.387699999999995
 20
18.7683
 30
0.0
 70
    32
  0
VERTEX
  5
1CDD
  8
240
 10
-68.1036
 20
18.6205
 30
0.0
 70
    32
  0
VERTEX
  5
1CDE
  8
240
 10
-67.820599999999999
 20
18.469899999999999
 30
0.0
 70
    32
  0
VERTEX
  5
1CDF
  8
240
 10
-67.538600000000002
 20
18.316500000000001
 30
0.0
 70
    32
  0
VERTEX
  5
1CE0
  8
240
 10
-67.257900000000006
 20
18.160399999999999
 30
0.0
 70
    32
  0
VERTEX
  5
1CE1
  8
240
 10
-66.978300000000004
 20
18.0016
 30
0.0
 70
    32
  0
VERTEX
  5
1CE2
  8
240
 10
-66.700000000000003
 20
17.8401
 30
0.0
 70
    32
  0
SEQEND
  5
1CE3
  8
240
  0
POLYLINE
  5
1CE4
  8
240
 66
     1
 10
0.0
 20
0.0
 30
0.0
 70
     8
  0
VERTEX
  5
1CE5
  8
240
 10
-66.700000000000003
 20
-17.8401
 30
0.0
 70
    32
  0
VERTEX
  5
1CE6
  8
240
 10
-66.978300000000004
 20
-18.0016
 30
0.0
 70
    32
  0
VERTEX
  5
1CE7
  8
240
 10
-67.257900000000006
 20
-18.160399999999999
 30
0.0
 70
    32
  0
VERTEX
  5
1CE8
  8
240
 10
-67.538600000000002
 20
-18.316500000000001
 30
0.0
 70
    32
  0
VERTEX
  5
1CE9
  8
240
 10
-67.820599999999999
 20
-18.469899999999999
 30
0.0
 70
    32
  0
VERTEX
  5
1CEA
  8
240
 10
-68.1036
 20
-18.6205
 30
0.0
 70
    32
  0
VERTEX
  5
1CEB
  8
240
 10
-68.387699999999995
 20
-18.7683
 30
0.0
 70
    32
  0
VERTEX
  5
1CEC
  8
240
 10
-68.672899999999998
 20
-18.9133
 30
0.0
 70
    32
  0
VERTEX
  5
1CED
  8
240
 10
-68.9589
 20
-19.055499999999999
 30
0.0
 70
    32
  0
VERTEX
  5
1CEE
  8
240
 10
-69.245900000000006
 20
-19.194800000000001
 30
0.0
 70
    32
  0
VERTEX
  5
1CEF
  8
240
 10
-69.533799999999999
 20
-19.331199999999999
 30
0.0
 70
    32
  0
VERTEX
  5
1CF0
  8
240
 10
-69.822500000000005
 20
-19.4648
 30
0.0
 70
    32
  0
VERTEX
  5
1CF1
  8
240
 10
-70.111900000000006
 20
-19.595300000000002
 30
0.0
 70
    32
  0
VERTEX
  5
1CF2
  8
240
 10
-70.402000000000001
 20
-19.722999999999999
 30
0.0
 70
    32
  0
VERTEX
  5
1CF3
  8
240
 10
-70.692800000000005
 20
-19.8476
 30
0.0
 70
    32
  0
VERTEX
  5
1CF4
  8
240
 10
-70.984200000000001
 20
-19.969200000000001
 30
0.0
 70
    32
  0
VERTEX
  5
1CF5
  8
240
 10
-71.276200000000003
 20
-20.087800000000001
 30
0.0
 70
    32
  0
VERTEX
  5
1CF6
  8
240
 10
-71.568600000000004
 20
-20.203399999999998
 30
0.0
 70
    32
  0
VERTEX
  5
1CF7
  8
240
 10
-71.861599999999996
 20
-20.315799999999999
 30
0.0
 70
    32
  0
VERTEX
  5
1CF8
  8
240
 10
-72.154899999999984
 20
-20.4252
 30
0.0
 70
    32
  0
VERTEX
  5
1CF9
  8
240
 10
-72.448599999999999
 20
-20.531300000000002
 30
0.0
 70
    32
  0
VERTEX
  5
1CFA
  8
240
 10
-72.742599999999996
 20
-20.634399999999999
 30
0.0
 70
    32
  0
VERTEX
  5
1CFB
  8
240
 10
-73.036799999999985
 20
-20.734200000000001
 30
0.0
 70
    32
  0
VERTEX
  5
1CFC
  8
240
 10
-73.331199999999995
 20
-20.8308
 30
0.0
 70
    32
  0
VERTEX
  5
1CFD
  8
240
 10
-73.625799999999998
 20
-20.924199999999999
 30
0.0
 70
    32
  0
VERTEX
  5
1CFE
  8
240
 10
-73.920500000000004
 20
-21.014399999999998
 30
0.0
 70
    32
  0
VERTEX
  5
1CFF
  8
240
 10
-74.215299999999999
 20
-21.101199999999999
 30
0.0
 70
    32
  0
VERTEX
  5
1D00
  8
240
 10
-74.510099999999994
 20
-21.184699999999999
 30
0.0
 70
    32
  0
VERTEX
  5
1D01
  8
240
 10
-74.8048
 20
-21.264900000000001
 30
0.0
 70
    32
  0
VERTEX
  5
1D02
  8
240
 10
-75.099400000000003
 20
-21.341699999999999
 30
0.0
 70
    32
  0
VERTEX
  5
1D03
  8
240
 10
-75.393799999999999
 20
-21.415099999999999
 30
0.0
 70
    32
  0
VERTEX
  5
1D04
  8
240
 10
-75.688100000000006
 20
-21.485099999999999
 30
0.0
 70
    32
  0
VERTEX
  5
1D05
  8
240
 10
-75.982100000000003
 20
-21.551600000000001
 30
0.0
 70
    32
  0
VERTEX
  5
1D06
  8
240
 10
-76.275800000000004
 20
-21.614699999999999
 30
0.0
 70
    32
  0
VERTEX
  5
1D07
  8
240
 10
-76.569199999999995
 20
-21.674299999999999
 30
0.0
 70
    32
  0
VERTEX
  5
1D08
  8
240
 10
-76.862099999999984
 20
-21.730399999999999
 30
0.0
 70
    32
  0
VERTEX
  5
1D09
  8
240
 10
-77.154600000000002
 20
-21.782900000000001
 30
0.0
 70
    32
  0
VERTEX
  5
1D0A
  8
240
 10
-77.446600000000004
 20
-21.831900000000001
 30
0.0
 70
    32
  0
VERTEX
  5
1D0B
  8
240
 10
-77.738100000000003
 20
-21.877300000000002
 30
0.0
 70
    32
  0
VERTEX
  5
1D0C
  8
240
 10
-78.028899999999993
 20
-21.919
 30
0.0
 70
    32
  0
VERTEX
  5
1D0D
  8
240
 10
-78.319100000000006
 20
-21.957100000000001
 30
0.0
 70
    32
  0
VERTEX
  5
1D0E
  8
240
 10
-78.608599999999996
 20
-21.991499999999998
 30
0.0
 70
    32
  0
VERTEX
  5
1D0F
  8
240
 10
-78.897300000000001
 20
-22.022300000000001
 30
0.0
 70
    32
  0
VERTEX
  5
1D10
  8
240
 10
-79.185299999999998
 20
-22.049299999999999
 30
0.0
 70
    32
  0
VERTEX
  5
1D11
  8
240
 10
-79.472300000000004
 20
-22.072500000000002
 30
0.0
 70
    32
  0
VERTEX
  5
1D12
  8
240
 10
-79.758499999999998
 20
-22.091999999999999
 30
0.0
 70
    32
  0
VERTEX
  5
1D13
  8
240
 10
-80.043699999999987
 20
-22.107700000000001
 30
0.0
 70
    32
  0
VERTEX
  5
1D14
  8
240
 10
-80.3279
 20
-22.119599999999998
 30
0.0
 70
    32
  0
VERTEX
  5
1D15
  8
240
 10
-80.611000000000004
 20
-22.127600000000001
 30
0.0
 70
    32
  0
VERTEX
  5
1D16
  8
240
 10
-80.893100000000004
 20
-22.131699999999999
 30
0.0
 70
    32
  0
VERTEX
  5
1D17
  8
240
 10
-81.174000000000007
 20
-22.132000000000001
 30
0.0
 70
    32
  0
VERTEX
  5
1D18
  8
240
 10
-81.453599999999994
 20
-22.128299999999999
 30
0.0
 70
    32
  0
VERTEX
  5
1D19
  8
240
 10
-81.731999999999985
 20
-22.120699999999999
 30
0.0
 70
    32
  0
VERTEX
  5
1D1A
  8
240
 10
-82.009100000000004
 20
-22.109100000000002
 30
0.0
 70
    32
  0
VERTEX
  5
1D1B
  8
240
 10
-82.284899999999979
 20
-22.093499999999999
 30
0.0
 70
    32
  0
VERTEX
  5
1D1C
  8
240
 10
-82.559200000000004
 20
-22.073799999999999
 30
0.0
 70
    32
  0
VERTEX
  5
1D1D
  8
240
 10
-82.831999999999994
 20
-22.0501
 30
0.0
 70
    32
  0
VERTEX
  5
1D1E
  8
240
 10
-83.103399999999993
 20
-22.022400000000001
 30
0.0
 70
    32
  0
VERTEX
  5
1D1F
  8
240
 10
-83.373199999999997
 20
-21.990500000000001
 30
0.0
 70
    32
  0
VERTEX
  5
1D20
  8
240
 10
-83.641300000000015
 20
-21.954499999999999
 30
0.0
 70
    32
  0
VERTEX
  5
1D21
  8
240
 10
-83.907899999999998
 20
-21.914400000000001
 30
0.0
 70
    32
  0
VERTEX
  5
1D22
  8
240
 10
-84.172700000000006
 20
-21.870000000000001
 30
0.0
 70
    32
  0
VERTEX
  5
1D23
  8
240
 10
-84.435699999999997
 20
-21.8215
 30
0.0
 70
    32
  0
VERTEX
  5
1D24
  8
240
 10
-84.696899999999985
 20
-21.768699999999999
 30
0.0
 70
    32
  0
VERTEX
  5
1D25
  8
240
 10
-84.956299999999999
 20
-21.7117
 30
0.0
 70
    32
  0
VERTEX
  5
1D26
  8
240
 10
-85.213700000000003
 20
-21.650400000000001
 30
0.0
 70
    32
  0
VERTEX
  5
1D27
  8
240
 10
-85.469200000000001
 20
-21.584800000000001
 30
0.0
 70
    32
  0
VERTEX
  5
1D28
  8
240
 10
-85.722599999999986
 20
-21.514900000000001
 30
0.0
 70
    32
  0
VERTEX
  5
1D29
  8
240
 10
-85.974000000000004
 20
-21.4406
 30
0.0
 70
    32
  0
VERTEX
  5
1D2A
  8
240
 10
-86.223299999999995
 20
-21.361999999999998
 30
0.0
 70
    32
  0
VERTEX
  5
1D2B
  8
240
 10
-86.470399999999998
 20
-21.2789
 30
0.0
 70
    32
  0
VERTEX
  5
1D2C
  8
240
 10
-86.715199999999996
 20
-21.191400000000002
 30
0.0
 70
    32
  0
VERTEX
  5
1D2D
  8
240
 10
-86.957800000000006
 20
-21.099399999999999
 30
0.0
 70
    32
  0
VERTEX
  5
1D2E
  8
240
 10
-87.198099999999997
 20
-21.003
 30
0.0
 70
    32
  0
VERTEX
  5
1D2F
  8
240
 10
-87.436099999999996
 20
-20.902000000000001
 30
0.0
 70
    32
  0
VERTEX
  5
1D30
  8
240
 10
-87.671599999999998
 20
-20.796500000000002
 30
0.0
 70
    32
  0
VERTEX
  5
1D31
  8
240
 10
-87.904600000000016
 20
-20.686399999999999
 30
0.0
 70
    32
  0
VERTEX
  5
1D32
  8
240
 10
-88.135099999999994
 20
-20.5718
 30
0.0
 70
    32
  0
VERTEX
  5
1D33
  8
240
 10
-88.362999999999985
 20
-20.4526
 30
0.0
 70
    32
  0
VERTEX
  5
1D34
  8
240
 10
-88.588300000000004
 20
-20.328700000000001
 30
0.0
 70
    32
  0
VERTEX
  5
1D35
  8
240
 10
-88.811000000000007
 20
-20.200099999999999
 30
0.0
 70
    32
  0
VERTEX
  5
1D36
  8
240
 10
-89.030900000000003
 20
-20.067
 30
0.0
 70
    32
  0
VERTEX
  5
1D37
  8
240
 10
-89.248199999999997
 20
-19.929200000000002
 30
0.0
 70
    32
  0
VERTEX
  5
1D38
  8
240
 10
-89.462699999999998
 20
-19.786899999999999
 30
0.0
 70
    32
  0
VERTEX
  5
1D39
  8
240
 10
-89.674499999999995
 20
-19.6401
 30
0.0
 70
    32
  0
VERTEX
  5
1D3A
  8
240
 10
-89.883600000000001
 20
-19.488900000000001
 30
0.0
 70
    32
  0
VERTEX
  5
1D3B
  8
240
 10
-90.090000000000003
 20
-19.333300000000001
 30
0.0
 70
    32
  0
VERTEX
  5
1D3C
  8
240
 10
-90.293700000000001
 20
-19.173400000000001
 30
0.0
 70
    32
  0
VERTEX
  5
1D3D
  8
240
 10
-90.494600000000005
 20
-19.0093
 30
0.0
 70
    32
  0
VERTEX
  5
1D3E
  8
240
 10
-90.692899999999995
 20
-18.841000000000001
 30
0.0
 70
    32
  0
VERTEX
  5
1D3F
  8
240
 10
-90.888400000000004
 20
-18.668600000000001
 30
0.0
 70
    32
  0
VERTEX
  5
1D40
  8
240
 10
-91.081100000000006
 20
-18.492000000000001
 30
0.0
 70
    32
  0
VERTEX
  5
1D41
  8
240
 10
-91.271199999999993
 20
-18.311499999999999
 30
0.0
 70
    32
  0
VERTEX
  5
1D42
  8
240
 10
-91.458399999999983
 20
-18.126899999999999
 30
0.0
 70
    32
  0
VERTEX
  5
1D43
  8
240
 10
-91.643000000000001
 20
-17.938500000000001
 30
0.0
 70
    32
  0
VERTEX
  5
1D44
  8
240
 10
-91.824799999999996
 20
-17.746200000000002
 30
0.0
 70
    32
  0
VERTEX
  5
1D45
  8
240
 10
-92.003799999999998
 20
-17.5501
 30
0.0
 70
    32
  0
VERTEX
  5
1D46
  8
240
 10
-92.180099999999996
 20
-17.350200000000001
 30
0.0
 70
    32
  0
VERTEX
  5
1D47
  8
240
 10
-92.353700000000003
 20
-17.146699999999999
 30
0.0
 70
    32
  0
VERTEX
  5
1D48
  8
240
 10
-92.524500000000003
 20
-16.939599999999999
 30
0.0
 70
    32
  0
VERTEX
  5
1D49
  8
240
 10
-92.692499999999995
 20
-16.7288
 30
0.0
 70
    32
  0
VERTEX
  5
1D4A
  8
240
 10
-92.857699999999994
 20
-16.514600000000002
 30
0.0
 70
    32
  0
VERTEX
  5
1D4B
  8
240
 10
-93.020200000000003
 20
-16.296900000000001
 30
0.0
 70
    32
  0
VERTEX
  5
1D4C
  8
240
 10
-93.180000000000007
 20
-16.075800000000001
 30
0.0
 70
    32
  0
VERTEX
  5
1D4D
  8
240
 10
-93.3369
 20
-15.8513
 30
0.0
 70
    32
  0
VERTEX
  5
1D4E
  8
240
 10
-93.491100000000003
 20
-15.6235
 30
0.0
 70
    32
  0
VERTEX
  5
1D4F
  8
240
 10
-93.642499999999998
 20
-15.3926
 30
0.0
 70
    32
  0
VERTEX
  5
1D50
  8
240
 10
-93.790999999999997
 20
-15.1584
 30
0.0
 70
    32
  0
VERTEX
  5
1D51
  8
240
 10
-93.936899999999994
 20
-14.921099999999999
 30
0.0
 70
    32
  0
VERTEX
  5
1D52
  8
240
 10
-94.079899999999995
 20
-14.6807
 30
0.0
 70
    32
  0
VERTEX
  5
1D53
  8
240
 10
-94.220100000000002
 20
-14.4374
 30
0.0
 70
    32
  0
VERTEX
  5
1D54
  8
240
 10
-94.357500000000002
 20
-14.1911
 30
0.0
 70
    32
  0
VERTEX
  5
1D55
  8
240
 10
-94.492199999999997
 20
-13.941800000000001
 30
0.0
 70
    32
  0
VERTEX
  5
1D56
  8
240
 10
-94.623999999999995
 20
-13.6898
 30
0.0
 70
    32
  0
VERTEX
  5
1D57
  8
240
 10
-94.753
 20
-13.434900000000001
 30
0.0
 70
    32
  0
VERTEX
  5
1D58
  8
240
 10
-94.879199999999997
 20
-13.1774
 30
0.0
 70
    32
  0
VERTEX
  5
1D59
  8
240
 10
-95.002600000000001
 20
-12.9171
 30
0.0
 70
    32
  0
VERTEX
  5
1D5A
  8
240
 10
-95.123199999999997
 20
-12.654299999999999
 30
0.0
 70
    32
  0
VERTEX
  5
1D5B
  8
240
 10
-95.240899999999996
 20
-12.3889
 30
0.0
 70
    32
  0
VERTEX
  5
1D5C
  8
240
 10
-95.355800000000016
 20
-12.120900000000001
 30
0.0
 70
    32
  0
VERTEX
  5
1D5D
  8
240
 10
-95.467899999999986
 20
-11.8506
 30
0.0
 70
    32
  0
VERTEX
  5
1D5E
  8
240
 10
-95.577200000000005
 20
-11.5778
 30
0.0
 70
    32
  0
VERTEX
  5
1D5F
  8
240
 10
-95.683699999999988
 20
-11.3027
 30
0.0
 70
    32
  0
VERTEX
  5
1D60
  8
240
 10
-95.787300000000002
 20
-11.025399999999999
 30
0.0
 70
    32
  0
VERTEX
  5
1D61
  8
240
 10
-95.888000000000005
 20
-10.745799999999999
 30
0.0
 70
    32
  0
VERTEX
  5
1D62
  8
240
 10
-95.985899999999987
 20
-10.4641
 30
0.0
 70
    32
  0
VERTEX
  5
1D63
  8
240
 10
-96.081000000000003
 20
-10.180199999999999
 30
0.0
 70
    32
  0
VERTEX
  5
1D64
  8
240
 10
-96.173199999999994
 20
-9.8942999999999994
 30
0.0
 70
    32
  0
VERTEX
  5
1D65
  8
240
 10
-96.26260000000002
 20
-9.6064000000000007
 30
0.0
 70
    32
  0
VERTEX
  5
1D66
  8
240
 10
-96.349100000000007
 20
-9.3165600000000008
 30
0.0
 70
    32
  0
VERTEX
  5
1D67
  8
240
 10
-96.432700000000011
 20
-9.0248500000000007
 30
0.0
 70
    32
  0
VERTEX
  5
1D68
  8
240
 10
-96.513499999999993
 20
-8.7312999999999992
 30
0.0
 70
    32
  0
VERTEX
  5
1D69
  8
240
 10
-96.591499999999996
 20
-8.4359899999999985
 30
0.0
 70
    32
  0
VERTEX
  5
1D6A
  8
240
 10
-96.666499999999999
 20
-8.1389700000000005
 30
0.0
 70
    32
  0
VERTEX
  5
1D6B
  8
240
 10
-96.738699999999994
 20
-7.8402899999999986
 30
0.0
 70
    32
  0
VERTEX
  5
1D6C
  8
240
 10
-96.808000000000007
 20
-7.5400099999999997
 30
0.0
 70
    32
  0
VERTEX
  5
1D6D
  8
240
 10
-96.874399999999994
 20
-7.2381799999999998
 30
0.0
 70
    32
  0
VERTEX
  5
1D6E
  8
240
 10
-96.938000000000017
 20
-6.9348700000000001
 30
0.0
 70
    32
  0
VERTEX
  5
1D6F
  8
240
 10
-96.99860000000001
 20
-6.6301300000000003
 30
0.0
 70
    32
  0
VERTEX
  5
1D70
  8
240
 10
-97.056399999999996
 20
-6.3240199999999991
 30
0.0
 70
    32
  0
VERTEX
  5
1D71
  8
240
 10
-97.1113
 20
-6.0165800000000003
 30
0.0
 70
    32
  0
VERTEX
  5
1D72
  8
240
 10
-97.163200000000003
 20
-5.707889999999999
 30
0.0
 70
    32
  0
VERTEX
  5
1D73
  8
240
 10
-97.212299999999999
 20
-5.3979900000000001
 30
0.0
 70
    32
  0
VERTEX
  5
1D74
  8
240
 10
-97.258500000000012
 20
-5.0869400000000002
 30
0.0
 70
    32
  0
VERTEX
  5
1D75
  8
240
 10
-97.3018
 20
-4.774799999999999
 30
0.0
 70
    32
  0
VERTEX
  5
1D76
  8
240
 10
-97.342100000000002
 20
-4.4616300000000004
 30
0.0
 70
    32
  0
VERTEX
  5
1D77
  8
240
 10
-97.379600000000011
 20
-4.1474699999999993
 30
0.0
 70
    32
  0
VERTEX
  5
1D78
  8
240
 10
-97.414100000000005
 20
-3.8323900000000002
 30
0.0
 70
    32
  0
VERTEX
  5
1D79
  8
240
 10
-97.445700000000016
 20
-3.516449999999999
 30
0.0
 70
    32
  0
VERTEX
  5
1D7A
  8
240
 10
-97.474400000000003
 20
-3.1996899999999999
 30
0.0
 70
    32
  0
VERTEX
  5
1D7B
  8
240
 10
-97.500200000000007
 20
-2.8821899999999991
 30
0.0
 70
    32
  0
VERTEX
  5
1D7C
  8
240
 10
-97.523100000000014
 20
-2.563979999999999
 30
0.0
 70
    32
  0
VERTEX
  5
1D7D
  8
240
 10
-97.543000000000006
 20
-2.2451300000000001
 30
0.0
 70
    32
  0
VERTEX
  5
1D7E
  8
240
 10
-97.559899999999999
 20
-1.9256999999999991
 30
0.0
 70
    32
  0
VERTEX
  5
1D7F
  8
240
 10
-97.573999999999998
 20
-1.6057399999999991
 30
0.0
 70
    32
  0
VERTEX
  5
1D80
  8
240
 10
-97.585100000000011
 20
-1.2853099999999991
 30
0.0
 70
    32
  0
VERTEX
  5
1D81
  8
240
 10
-97.593199999999996
 20
-0.9644669999999999
 30
0.0
 70
    32
  0
VERTEX
  5
1D82
  8
240
 10
-97.598399999999998
 20
-0.643262
 30
0.0
 70
    32
  0
VERTEX
  5
1D83
  8
240
 10
-97.600700000000003
 20
-0.321754
 30
0.0
 70
    32
  0
VERTEX
  5
1D84
  8
240
 10
-97.599999999999994
 20
0.0000000000138786
 30
0.0
 70
    32
  0
SEQEND
  5
1D85
  8
240
  0
VIEWPORT
  5
22
 67
     1
  8
0
 10
261.51769911999997
 20
148.5
 30
0.0
 40
523.03539823000006
 41
297.0
 68
     1
 69
     1
1001
ACAD
1000
MVIEW
1002
{
1070
    16
1010
0.0
1020
0.0
1030
0.0
1010
0.0
1020
0.0
1030
1.0
1040
0.0
1040
297.0
1040
261.51769911999997
1040
148.5
1040
50.0
1040
0.0
1040
0.0
1070
     0
1070
   100
1070
     1
1070
     1
1070
     0
1070
     0
1070
     0
1070
     0
1040
0.0
1040
0.0
1040
0.0
1040
1.0
1040
1.0
1040
10.0
1040
10.0
1070
     0
1002
{
1002
}
1002
}
1001
GENIUS_GENOBJ-N-SDF_13
1002
{
1000
OWNER
1000
GEN
1002
}
1001
GENIUS_GENODEF_13
1002
{
1000
HIER
1070
     0
1002
}
1002
{
1000
MANEDIT
1070
     0
1002
}
1002
{
1000
NOSEL
1070
     0
1002
}
1002
{
1000
BEHIND
1070
     0
1002
}
1002
{
1000
OTHER
1070
     0
1002
}
1002
{
1000
REACTOR
1002
}
1001
GENIUS_GENSCREG_15
1000
PF
1040
1.0
1000
DF
1040
1.0
1000
MIN
1011
0.0000000049999471
1021
0.0
1031
0.0
1021
0.0
1031
0.0
1000
MAX
1011
523.035398235
1021
0.0
1031
0.0
1021
297.0
1031
0.0
1000
FLAGS
1070
     4
  0
ENDSEC
  0
EOF
