  0
SECTION
  2
HEADER
  9
$ACADVER
  1
AC1015
  9
$ACADMAINTVER
 70
    20
  9
$DWGCODEPAGE
  3
ANSI_932
  9
$INSBASE
 10
0.0
 20
0.0
 30
0.0
  9
$EXTMIN
 10
-39.01025312395097
 20
-71.00857478520902
 30
-0.0015258207003583
  9
$EXTMAX
 10
273.0161140356401
 20
89.00912526926152
 30
0.0000000349246037
  9
$LIMMIN
 10
0.0
 20
0.0
  9
$LIMMAX
 10
297.0
 20
210.0
  9
$ORTHOMODE
 70
     0
  9
$REGENMODE
 70
     1
  9
$FILLMODE
 70
     1
  9
$QTEXTMODE
 70
     0
  9
$MIRRTEXT
 70
     1
  9
$LTSCALE
 40
10.0
  9
$ATTMODE
 70
     1
  9
$TEXTSIZE
 40
3.0
  9
$TRACEWID
 40
1.0
  9
$TEXTSTYLE
  7
YOKO
  9
$CLAYER
  8
240
  9
$CELTYPE
  6
ByLayer
  9
$CECOLOR
 62
   256
  9
$CELTSCALE
 40
1.0
  9
$DISPSILH
 70
     0
  9
$DIMSCALE
 40
1.0
  9
$DIMASZ
 40
2.0
  9
$DIMEXO
 40
0.5
  9
$DIMDLI
 40
7.0
  9
$DIMRND
 40
0.0
  9
$DIMDLE
 40
0.0
  9
$DIMEXE
 40
1.0
  9
$DIMTP
 40
0.0
  9
$DIMTM
 40
0.01
  9
$DIMTXT
 40
2.799999999999999
  9
$DIMCEN
 40
0.0
  9
$DIMTSZ
 40
0.0
  9
$DIMTOL
 70
     0
  9
$DIMLIM
 70
     0
  9
$DIMTIH
 70
     0
  9
$DIMTOH
 70
     0
  9
$DIMSE1
 70
     0
  9
$DIMSE2
 70
     0
  9
$DIMTAD
 70
     3
  9
$DIMZIN
 70
     8
  9
$DIMBLK
  1
OPEN
  9
$DIMASO
 70
     1
  9
$DIMSHO
 70
     1
  9
$DIMPOST
  1

  9
$DIMAPOST
  1

  9
$DIMALT
 70
     0
  9
$DIMALTD
 70
     2
  9
$DIMALTF
 40
25.4
  9
$DIMLFAC
 40
1.0
  9
$DIMTOFL
 70
     1
  9
$DIMTVP
 40
0.0
  9
$DIMTIX
 70
     1
  9
$DIMSOXD
 70
     0
  9
$DIMSAH
 70
     0
  9
$DIMBLK1
  1

  9
$DIMBLK2
  1

  9
$DIMSTYLE
  2
BIGT
  9
$DIMCLRD
 70
   256
  9
$DIMCLRE
 70
   256
  9
$DIMCLRT
 70
    40
  9
$DIMTFAC
 40
1.0
  9
$DIMGAP
 40
1.0
  9
$DIMJUST
 70
     0
  9
$DIMSD1
 70
     0
  9
$DIMSD2
 70
     0
  9
$DIMTOLJ
 70
     1
  9
$DIMTZIN
 70
     0
  9
$DIMALTZ
 70
     0
  9
$DIMALTTZ
 70
     0
  9
$DIMUPT
 70
     0
  9
$DIMDEC
 70
     3
  9
$DIMTDEC
 70
     4
  9
$DIMALTU
 70
     2
  9
$DIMALTTD
 70
     2
  9
$DIMTXSTY
  7
STANDARD
  9
$DIMAUNIT
 70
     0
  9
$DIMADEC
 70
     0
  9
$DIMALTRND
 40
0.0
  9
$DIMAZIN
 70
     0
  9
$DIMDSEP
 70
    46
  9
$DIMATFIT
 70
     3
  9
$DIMFRAC
 70
     0
  9
$DIMLDRBLK
  1
OPEN
  9
$DIMLUNIT
 70
     2
  9
$DIMLWD
 70
    -2
  9
$DIMLWE
 70
    -2
  9
$DIMTMOVE
 70
     0
  9
$LUNITS
 70
     2
  9
$LUPREC
 70
     6
  9
$SKETCHINC
 40
1.0
  9
$FILLETRAD
 40
20.0
  9
$AUNITS
 70
     0
  9
$AUPREC
 70
     6
  9
$MENU
  1
.
  9
$ELEVATION
 40
0.0
  9
$PELEVATION
 40
0.0
  9
$THICKNESS
 40
0.0
  9
$LIMCHECK
 70
     0
  9
$CHAMFERA
 40
0.2
  9
$CHAMFERB
 40
0.2
  9
$CHAMFERC
 40
0.0
  9
$CHAMFERD
 40
0.0
  9
$SKPOLY
 70
     0
  9
$TDCREATE
 40
2457536.446005335
  9
$TDUCREATE
 40
2457536.071005335
  9
$TDUPDATE
 40
2457869.654168195
  9
$TDUUPDATE
 40
2457869.279168195
  9
$TDINDWG
 40
0.0484442708
  9
$TDUSRTIMER
 40
0.0484440509
  9
$USRTIMER
 70
     1
  9
$ANGBASE
 50
0.0
  9
$ANGDIR
 70
     0
  9
$PDMODE
 70
     0
  9
$PDSIZE
 40
-5.0
  9
$PLINEWID
 40
0.0
  9
$SPLFRAME
 70
     0
  9
$SPLINETYPE
 70
     6
  9
$SPLINESEGS
 70
     4
  9
$HANDSEED
  5
509D
  9
$SURFTAB1
 70
     6
  9
$SURFTAB2
 70
     6
  9
$SURFTYPE
 70
     6
  9
$SURFU
 70
     6
  9
$SURFV
 70
     6
  9
$UCSBASE
  2

  9
$UCSNAME
  2

  9
$UCSORG
 10
0.0
 20
0.0
 30
0.0
  9
$UCSXDIR
 10
1.0
 20
0.0
 30
0.0
  9
$UCSYDIR
 10
0.0
 20
1.0
 30
0.0
  9
$UCSORTHOREF
  2

  9
$UCSORTHOVIEW
 70
     0
  9
$UCSORGTOP
 10
0.0
 20
0.0
 30
0.0
  9
$UCSORGBOTTOM
 10
0.0
 20
0.0
 30
0.0
  9
$UCSORGLEFT
 10
0.0
 20
0.0
 30
0.0
  9
$UCSORGRIGHT
 10
0.0
 20
0.0
 30
0.0
  9
$UCSORGFRONT
 10
0.0
 20
0.0
 30
0.0
  9
$UCSORGBACK
 10
0.0
 20
0.0
 30
0.0
  9
$PUCSBASE
  2

  9
$PUCSNAME
  2

  9
$PUCSORG
 10
0.0
 20
0.0
 30
0.0
  9
$PUCSXDIR
 10
1.0
 20
0.0
 30
0.0
  9
$PUCSYDIR
 10
0.0
 20
1.0
 30
0.0
  9
$PUCSORTHOREF
  2

  9
$PUCSORTHOVIEW
 70
     0
  9
$PUCSORGTOP
 10
0.0
 20
0.0
 30
0.0
  9
$PUCSORGBOTTOM
 10
0.0
 20
0.0
 30
0.0
  9
$PUCSORGLEFT
 10
0.0
 20
0.0
 30
0.0
  9
$PUCSORGRIGHT
 10
0.0
 20
0.0
 30
0.0
  9
$PUCSORGFRONT
 10
0.0
 20
0.0
 30
0.0
  9
$PUCSORGBACK
 10
0.0
 20
0.0
 30
0.0
  9
$USERI1
 70
     1
  9
$USERI2
 70
     0
  9
$USERI3
 70
     0
  9
$USERI4
 70
     0
  9
$USERI5
 70
     0
  9
$USERR1
 40
0.0
  9
$USERR2
 40
0.0
  9
$USERR3
 40
0.0
  9
$USERR4
 40
0.0
  9
$USERR5
 40
0.0
  9
$WORLDVIEW
 70
     1
  9
$SHADEDGE
 70
     3
  9
$SHADEDIF
 70
    70
  9
$TILEMODE
 70
     1
  9
$MAXACTVP
 70
    16
  9
$PINSBASE
 10
0.0
 20
0.0
 30
0.0
  9
$PLIMCHECK
 70
     0
  9
$PEXTMIN
 10
1.000000000000000E+20
 20
1.000000000000000E+20
 30
1.000000000000000E+20
  9
$PEXTMAX
 10
-1.000000000000000E+20
 20
-1.000000000000000E+20
 30
-1.000000000000000E+20
  9
$PLIMMIN
 10
0.0
 20
0.0
  9
$PLIMMAX
 10
420.0
 20
297.0
  9
$UNITMODE
 70
     0
  9
$VISRETAIN
 70
     1
  9
$PLINEGEN
 70
     0
  9
$PSLTSCALE
 70
     1
  9
$TREEDEPTH
 70
  3020
  9
$CMLSTYLE
  2
Standard
  9
$CMLJUST
 70
     0
  9
$CMLSCALE
 40
1.0
  9
$PROXYGRAPHICS
 70
     1
  9
$MEASUREMENT
 70
     0
  9
$CELWEIGHT
370
    -1
  9
$ENDCAPS
280
     0
  9
$JOINSTYLE
280
     0
  9
$LWDISPLAY
290
     0
  9
$INSUNITS
 70
     0
  9
$HYPERLINKBASE
  1

  9
$STYLESHEET
  1

  9
$XEDIT
290
     1
  9
$CEPSNTYPE
380
     0
  9
$PSTYLEMODE
290
     1
  9
$FINGERPRINTGUID
  2
{7FB977EA-DF04-4FAB-BDEA-1C3507853191}
  9
$VERSIONGUID
  2
{A1577735-4A9E-4F21-B5D9-11D6C817A9ED}
  9
$EXTNAMES
290
     1
  9
$PSVPSCALE
 40
0.0
  9
$OLESTARTUP
290
     0
  0
ENDSEC
  0
SECTION
  2
CLASSES
  0
CLASS
  1
ACDBDICTIONARYWDFLT
  2
AcDbDictionaryWithDefault
  3
ObjectDBX Classes
 90
        0
280
     0
281
     0
  0
CLASS
  1
MATERIAL
  2
AcDbMaterial
  3
ObjectDBX Classes
 90
     1153
280
     0
281
     0
  0
CLASS
  1
VISUALSTYLE
  2
AcDbVisualStyle
  3
ObjectDBX Classes
 90
     4095
280
     0
281
     0
  0
CLASS
  1
SCALE
  2
AcDbScale
  3
ObjectDBX Classes
 90
     1153
280
     0
281
     0
  0
CLASS
  1
TABLESTYLE
  2
AcDbTableStyle
  3
ObjectDBX Classes
 90
     4095
280
     0
281
     0
  0
CLASS
  1
MLEADERSTYLE
  2
AcDbMLeaderStyle
  3
ACDB_MLEADERSTYLE_CLASS
 90
     4095
280
     0
281
     0
  0
CLASS
  1
ACDBSECTIONVIEWSTYLE
  2
AcDbSectionViewStyle
  3
ObjectDBX Classes
 90
     1025
280
     0
281
     0
  0
CLASS
  1
ACDBDETAILVIEWSTYLE
  2
AcDbDetailViewStyle
  3
ObjectDBX Classes
 90
     1025
280
     0
281
     0
  0
CLASS
  1
SORTENTSTABLE
  2
AcDbSortentsTable
  3
ObjectDBX Classes
 90
        0
280
     0
281
     0
  0
CLASS
  1
DICTIONARYVAR
  2
AcDbDictionaryVar
  3
ObjectDBX Classes
 90
        0
280
     0
281
     0
  0
CLASS
  1
CELLSTYLEMAP
  2
AcDbCellStyleMap
  3
ObjectDBX Classes
 90
     1152
280
     0
281
     0
  0
CLASS
  1
ACDBPLACEHOLDER
  2
AcDbPlaceHolder
  3
ObjectDBX Classes
 90
        0
280
     0
281
     0
  0
CLASS
  1
LAYOUT
  2
AcDbLayout
  3
ObjectDBX Classes
 90
        0
280
     0
281
     0
  0
ENDSEC
  0
SECTION
  2
TABLES
  0
TABLE
  2
VPORT
  5
4CA3
330
0
100
AcDbSymbolTable
 70
     1
  0
VPORT
  5
4D10
330
4CA3
100
AcDbSymbolTableRecord
100
AcDbViewportTableRecord
  2
*ACTIVE
 70
     0
 10
0.0
 20
0.0
 11
1.0
 21
1.0
 12
117.0029304558445
 22
9.000275242026248
 13
0.0
 23
0.0
 14
7.0
 24
7.0
 15
7.0
 25
7.0
 16
0.0
 26
0.0
 36
1.0
 17
0.0
 27
0.0
 37
0.0
 40
163.543499250356
 41
1.914539400665926
 42
50.0
 43
0.0
 44
0.0
 50
0.0
 51
0.0
 71
     0
 72
  2000
 73
     1
 74
     0
 75
     0
 76
     0
 77
     0
 78
     0
281
     0
 65
     1
110
0.0
120
0.0
130
0.0
111
1.0
121
0.0
131
0.0
112
0.0
122
1.0
132
0.0
 79
     0
146
0.0
1001
ACAD_NAV_VCDISPLAY
1070
     3
  0
ENDTAB
  0
TABLE
  2
LTYPE
  5
4CA0
330
0
100
AcDbSymbolTable
 70
     4
  0
LTYPE
  5
4CF5
330
4CA0
100
AcDbSymbolTableRecord
100
AcDbLinetypeTableRecord
  2
ByBlock
 70
     0
  3

 72
    65
 73
     0
 40
0.0
  0
LTYPE
  5
4CF6
330
4CA0
100
AcDbSymbolTableRecord
100
AcDbLinetypeTableRecord
  2
ByLayer
 70
     0
  3

 72
    65
 73
     0
 40
0.0
  0
LTYPE
  5
4CF7
330
4CA0
100
AcDbSymbolTableRecord
100
AcDbLinetypeTableRecord
  2
CONTINUOUS
 70
     0
  3
Solid line
 72
    65
 73
     0
 40
0.0
  0
LTYPE
  5
4D11
330
4CA0
100
AcDbSymbolTableRecord
100
AcDbLinetypeTableRecord
  2
CENTER2
 70
     0
  3
___ _ ___ _ ___ _ ___ _ ___ _ ___ _ ___ _ ___ _
 72
    65
 73
     4
 40
1.125
 49
0.75
 74
     0
 49
-0.125
 74
     0
 49
0.125
 74
     0
 49
-0.125
 74
     0
  0
LTYPE
  5
4D12
330
4CA0
100
AcDbSymbolTableRecord
100
AcDbLinetypeTableRecord
  2
HIDDEN2
 70
     0
  3
_ _ _ _ _ _ _ _ _ _ _ _ _ _ _ _ _ _ _ _ _ _ _ _
 72
    65
 73
     2
 40
0.1875
 49
0.125
 74
     0
 49
-0.0625
 74
     0
  0
LTYPE
  5
4D13
330
4CA0
100
AcDbSymbolTableRecord
100
AcDbLinetypeTableRecord
  2
PHANTOM2
 70
     0
  3
___ _ _ ___ _ _ ___ _ _ ___ _ _ ___ _ _ ___ _ _
 72
    65
 73
     6
 40
1.25
 49
0.625
 74
     0
 49
-0.125
 74
     0
 49
0.125
 74
     0
 49
-0.125
 74
     0
 49
0.125
 74
     0
 49
-0.125
 74
     0
  0
ENDTAB
  0
TABLE
  2
LAYER
  5
4C9D
102
{ACAD_XDICTIONARY
360
4E63
102
}
330
0
100
AcDbSymbolTable
 70
    10
  0
LAYER
  5
4CEF
102
{ACAD_XDICTIONARY
360
4EE3
102
}
330
4C9D
100
AcDbSymbolTableRecord
100
AcDbLayerTableRecord
  2
0
 70
     0
 62
     7
  6
CONTINUOUS
370
    -3
390
4CAA
  0
LAYER
  5
4D0E
102
{ACAD_XDICTIONARY
360
4EE5
102
}
330
4C9D
100
AcDbSymbolTableRecord
100
AcDbLayerTableRecord
  2
240
 70
     0
 62
     4
  6
CONTINUOUS
370
    -3
390
4CAA
  0
LAYER
  5
4D1C
102
{ACAD_XDICTIONARY
360
4EE7
102
}
330
4C9D
100
AcDbSymbolTableRecord
100
AcDbLayerTableRecord
  2
245
 70
     0
 62
     2
  6
CENTER2
370
    -3
390
4CAA
  0
LAYER
  5
4D1D
102
{ACAD_XDICTIONARY
360
4EE9
102
}
330
4C9D
100
AcDbSymbolTableRecord
100
AcDbLayerTableRecord
  2
241
 70
     0
 62
   211
  6
CONTINUOUS
370
    -3
390
4CAA
  0
LAYER
  5
4D1E
102
{ACAD_XDICTIONARY
360
4EEB
102
}
330
4C9D
100
AcDbSymbolTableRecord
100
AcDbLayerTableRecord
  2
242
 70
     0
 62
     3
  6
CONTINUOUS
370
    -3
390
4CAA
  0
LAYER
  5
4D1F
102
{ACAD_XDICTIONARY
360
4EED
102
}
330
4C9D
100
AcDbSymbolTableRecord
100
AcDbLayerTableRecord
  2
243
 70
     0
 62
   211
  6
HIDDEN2
370
    -3
390
4CAA
  0
LAYER
  5
4D21
102
{ACAD_XDICTIONARY
360
4EEF
102
}
330
4C9D
100
AcDbSymbolTableRecord
100
AcDbLayerTableRecord
  2
250
 70
     0
 62
     3
  6
CONTINUOUS
370
    -3
390
4CAA
  0
LAYER
  5
4D72
102
{ACAD_XDICTIONARY
360
4EF1
102
}
330
4C9D
100
AcDbSymbolTableRecord
100
AcDbLayerTableRecord
  2
247
 70
     0
 62
    60
  6
CONTINUOUS
370
    -3
390
4CAA
  0
ENDTAB
  0
TABLE
  2
STYLE
  5
4C9E
330
0
100
AcDbSymbolTable
 70
     2
  0
STYLE
  5
4CF0
330
4C9E
100
AcDbSymbolTableRecord
100
AcDbTextStyleTableRecord
  2
STANDARD
 70
     0
 40
0.0
 41
1.0
 50
0.0
 71
     0
 42
2.799999999999998
  3
romans.shx
  4
extfont.shx
  0
STYLE
  5
4D0F
330
4C9E
100
AcDbSymbolTableRecord
100
AcDbTextStyleTableRecord
  2
YOKO
 70
     0
 40
0.0
 41
1.0
 50
0.0
 71
     0
 42
3.0
  3
romans.shx
  4
extfont.shx
  0
ENDTAB
  0
TABLE
  2
VIEW
  5
4CA1
330
0
100
AcDbSymbolTable
 70
     0
  0
ENDTAB
  0
TABLE
  2
UCS
  5
4CA2
330
0
100
AcDbSymbolTable
 70
     0
  0
ENDTAB
  0
TABLE
  2
APPID
  5
4CA4
330
0
100
AcDbSymbolTable
 70
    40
  0
APPID
  5
4CF1
330
4CA4
100
AcDbSymbolTableRecord
100
AcDbRegAppTableRecord
  2
ACAD
 70
     0
  0
APPID
  5
4CF8
330
4CA4
100
AcDbSymbolTableRecord
100
AcDbRegAppTableRecord
  2
AcadAnnotative
 70
     0
  0
APPID
  5
4D26
330
4CA4
100
AcDbSymbolTableRecord
100
AcDbRegAppTableRecord
  2
GLOBAL
 70
     0
  0
APPID
  5
4D27
330
4CA4
100
AcDbSymbolTableRecord
100
AcDbRegAppTableRecord
  2
DETAIL
 70
     0
  0
APPID
  5
4D28
330
4CA4
100
AcDbSymbolTableRecord
100
AcDbRegAppTableRecord
  2
GRPNAME
 70
     0
  0
APPID
  5
4D29
330
4CA4
100
AcDbSymbolTableRecord
100
AcDbRegAppTableRecord
  2
GPARA
 70
     0
  0
APPID
  5
4D2A
330
4CA4
100
AcDbSymbolTableRecord
100
AcDbRegAppTableRecord
  2
MCAD_NO_VIS
 70
     0
  0
APPID
  5
4D2B
330
4CA4
100
AcDbSymbolTableRecord
100
AcDbRegAppTableRecord
  2
ACAD_TEMP_GRAPHIC
 70
     0
  0
APPID
  5
4D2C
330
4CA4
100
AcDbSymbolTableRecord
100
AcDbRegAppTableRecord
  2
ACATTRIBSERVICES
 70
     0
  0
APPID
  5
4D2D
330
4CA4
100
AcDbSymbolTableRecord
100
AcDbRegAppTableRecord
  2
GENIUS_GENSCREG_15
 70
     0
  0
APPID
  5
4D2E
330
4CA4
100
AcDbSymbolTableRecord
100
AcDbRegAppTableRecord
  2
GENIUS_GENODEF_13
 70
     0
  0
APPID
  5
4D2F
330
4CA4
100
AcDbSymbolTableRecord
100
AcDbRegAppTableRecord
  2
GENIUS_GENOBJ-N-SDF_13
 70
     0
  0
APPID
  5
4D30
330
4CA4
100
AcDbSymbolTableRecord
100
AcDbRegAppTableRecord
  2
GENIUS_GENREC_14
 70
     0
  0
APPID
  5
4D31
330
4CA4
100
AcDbSymbolTableRecord
100
AcDbRegAppTableRecord
  2
GENIUS_GENOBJ-N-REC_13
 70
     0
  0
APPID
  5
4D32
330
4CA4
100
AcDbSymbolTableRecord
100
AcDbRegAppTableRecord
  2
GENIUS_GENDIMSH_14
 70
     0
  0
APPID
  5
4D33
330
4CA4
100
AcDbSymbolTableRecord
100
AcDbRegAppTableRecord
  2
GENIUS_GENOBJ-N-DIM_13
 70
     0
  0
APPID
  5
4D34
330
4CA4
100
AcDbSymbolTableRecord
100
AcDbRegAppTableRecord
  2
GENIUS_GENDIM_13
 70
     0
  0
APPID
  5
4D35
330
4CA4
100
AcDbSymbolTableRecord
100
AcDbRegAppTableRecord
  2
GENIUS_GENDTOL_13
 70
     0
  0
APPID
  5
4D36
330
4CA4
100
AcDbSymbolTableRecord
100
AcDbRegAppTableRecord
  2
GENIUS_GENOLIS_13
 70
     0
  0
APPID
  5
4D37
330
4CA4
100
AcDbSymbolTableRecord
100
AcDbRegAppTableRecord
  2
GENIUS_GENOENT_13
 70
     0
  0
APPID
  5
4D38
330
4CA4
100
AcDbSymbolTableRecord
100
AcDbRegAppTableRecord
  2
GENIUS_GENOBJ-F-FEM_13
 70
     0
  0
APPID
  5
4D39
330
4CA4
100
AcDbSymbolTableRecord
100
AcDbRegAppTableRecord
  2
GENIUS_GENOREF_13
 70
     0
  0
APPID
  5
4D3A
330
4CA4
100
AcDbSymbolTableRecord
100
AcDbRegAppTableRecord
  2
GENIUS_GEFFEM_13
 70
     0
  0
APPID
  5
4D3B
330
4CA4
100
AcDbSymbolTableRecord
100
AcDbRegAppTableRecord
  2
GENIUS_GEFFEMP_13
 70
     0
  0
APPID
  5
4D3C
330
4CA4
100
AcDbSymbolTableRecord
100
AcDbRegAppTableRecord
  2
AD_DRAW
 70
     0
  0
APPID
  5
4D3D
330
4CA4
100
AcDbSymbolTableRecord
100
AcDbRegAppTableRecord
  2
DESIGNERASSEMBLIES
 70
     0
  0
APPID
  5
4D3E
330
4CA4
100
AcDbSymbolTableRecord
100
AcDbRegAppTableRecord
  2
ACADM_DIM_EDIT
 70
     0
  0
APPID
  5
4D3F
330
4CA4
100
AcDbSymbolTableRecord
100
AcDbRegAppTableRecord
  2
AMDT_DM_ADJ
 70
     0
  0
APPID
  5
4D40
330
4CA4
100
AcDbSymbolTableRecord
100
AcDbRegAppTableRecord
  2
ITEMNAME
 70
     0
  0
APPID
  5
4D41
330
4CA4
100
AcDbSymbolTableRecord
100
AcDbRegAppTableRecord
  2
GENIUS_GENOBJ-N-FIL_13
 70
     0
  0
APPID
  5
4D42
330
4CA4
100
AcDbSymbolTableRecord
100
AcDbRegAppTableRecord
  2
GENIUS_GENFIL_13
 70
     0
  0
APPID
  5
4D43
330
4CA4
100
AcDbSymbolTableRecord
100
AcDbRegAppTableRecord
  2
GENIUS_GENOBJ-N-CHA_13
 70
     0
  0
APPID
  5
4D44
330
4CA4
100
AcDbSymbolTableRecord
100
AcDbRegAppTableRecord
  2
ACAD_NAV_VCDISPLAY
 70
     0
  0
APPID
  5
4D45
330
4CA4
100
AcDbSymbolTableRecord
100
AcDbRegAppTableRecord
  2
ACAD_EXEMPT_FROM_CAD_STANDARDS
 70
     0
  0
APPID
  5
4D46
330
4CA4
100
AcDbSymbolTableRecord
100
AcDbRegAppTableRecord
  2
ACAD_MLEADERVER
 70
     0
  0
APPID
  5
4E25
330
4CA4
100
AcDbSymbolTableRecord
100
AcDbRegAppTableRecord
  2
ACAD_DSTYLE_DIMRADIAL_EXTENSION
 70
     0
  0
APPID
  5
4E60
330
4CA4
100
AcDbSymbolTableRecord
100
AcDbRegAppTableRecord
  2
ACAD_PSEXT
 70
     0
  0
APPID
  5
4E61
330
4CA4
100
AcDbSymbolTableRecord
100
AcDbRegAppTableRecord
  2
ACAD_DSTYLE_DIMJAG
 70
     0
  0
APPID
  5
4E62
330
4CA4
100
AcDbSymbolTableRecord
100
AcDbRegAppTableRecord
  2
ACAD_DSTYLE_DIMTALN
 70
     0
  0
APPID
  5
4E7F
330
4CA4
100
AcDbSymbolTableRecord
100
AcDbRegAppTableRecord
  2
GRADE_0
 70
     0
  0
ENDTAB
  0
TABLE
  2
DIMSTYLE
  5
4CA5
330
0
100
AcDbSymbolTable
 70
     4
100
AcDbDimStyleTable
 71
     1
340
4D47
  0
DIMSTYLE
105
4D47
330
4CA5
100
AcDbSymbolTableRecord
100
AcDbDimStyleTableRecord
  2
BIGT
 70
     0
 41
2.229999999999999
 42
0.5
 43
7.0
 44
1.0
 48
0.01
 73
     0
 74
     0
 77
     3
 78
     9
140
2.799999999999998
141
0.0
147
1.0
172
     1
174
     1
176
   256
177
   256
178
    40
271
     6
272
     6
279
     2
284
     9
285
     9
286
     9
340
4D0F
  0
ENDTAB
  0
TABLE
  2
BLOCK_RECORD
  5
4C9C
330
0
100
AcDbSymbolTable
 70
     3
  0
BLOCK_RECORD
  5
4D0A
102
{ACAD_XDICTIONARY
360
4E75
102
}
330
4C9C
100
AcDbSymbolTableRecord
100
AcDbBlockTableRecord
  2
*Model_Space
340
4D0D
  0
BLOCK_RECORD
  5
4D06
330
4C9C
100
AcDbSymbolTableRecord
100
AcDbBlockTableRecord
  2
*Paper_Space
340
4D09
  0
BLOCK_RECORD
  5
4D66
330
4C9C
100
AcDbSymbolTableRecord
100
AcDbBlockTableRecord
  2
_OPEN
340
0
102
{BLKREFS
331
5015
331
5016
331
4EE0
331
4EE1
331
4ED5
331
4ED6
331
4F5D
331
4F5E
102
}
  0
ENDTAB
  0
ENDSEC
  0
SECTION
  2
BLOCKS
  0
BLOCK
  5
4D0B
330
4D0A
100
AcDbEntity
  8
0
100
AcDbBlockBegin
  2
*Model_Space
 70
     0
 10
0.0
 20
0.0
 30
0.0
  3
*Model_Space
  1

  0
ENDBLK
  5
4D0C
330
4D0A
100
AcDbEntity
  8
0
100
AcDbBlockEnd
  0
BLOCK
  5
4D07
330
4D06
100
AcDbEntity
 67
     1
  8
0
100
AcDbBlockBegin
  2
*Paper_Space
 70
     0
 10
0.0
 20
0.0
 30
0.0
  3
*Paper_Space
  1

  0
ENDBLK
  5
4D08
330
4D06
100
AcDbEntity
 67
     1
  8
0
100
AcDbBlockEnd
  0
BLOCK
  5
4D67
330
4D66
100
AcDbEntity
  8
0
100
AcDbBlockBegin
  2
_OPEN
 70
     0
 10
0.0
 20
0.0
 30
0.0
  3
_OPEN
  1

  0
LINE
  5
443B
330
4D66
100
AcDbEntity
  8
0
  6
ByBlock
 62
     0
100
AcDbLine
 10
-1.0
 20
0.1666666666666666
 30
0.0
 11
0.0
 21
0.0
 31
0.0
  0
LINE
  5
443C
330
4D66
100
AcDbEntity
  8
0
  6
ByBlock
 62
     0
100
AcDbLine
 10
-1.0
 20
-0.1666666666666666
 30
0.0
 11
0.0
 21
0.0
 31
0.0
  0
LINE
  5
443D
330
4D66
100
AcDbEntity
  8
0
  6
ByBlock
 62
     0
100
AcDbLine
 10
0.0
 20
0.0
 30
0.0
 11
-1.0
 21
0.0
 31
0.0
  0
ENDBLK
  5
443E
330
4D66
100
AcDbEntity
  8
0
100
AcDbBlockEnd
  0
ENDSEC
  0
SECTION
  2
ENTITIES
  0
LINE
  5
4298
330
4D0A
100
AcDbEntity
  8
245
  6
CENTER2
100
AcDbLine
 10
217.0000000000001
 20
56.00000000000001
 30
0.0
 11
217.0000000000001
 21
-56.00000000000001
 31
0.0
  0
LINE
  5
4299
330
4D0A
100
AcDbEntity
  8
245
  6
CENTER2
100
AcDbLine
 10
125.9999999999998
 20
-0.0000000000002923
 30
0.0
 11
-39.0
 21
-0.0000000000000523
 31
0.0
  0
POLYLINE
  5
429A
330
4D0A
100
AcDbEntity
  8
242
  6
Continuous
100
AcDb3dPolyline
 66
     1
 10
0.0
 20
0.0
 30
0.0
 70
     8
  0
VERTEX
  5
4666
330
429A
100
AcDbEntity
  8
242
  6
Continuous
100
AcDbVertex
100
AcDb3dPolylineVertex
 10
55.85
 20
-16.4232
 30
0.0
 70
    32
  0
VERTEX
  5
4667
330
429A
100
AcDbEntity
  8
242
  6
Continuous
100
AcDbVertex
100
AcDb3dPolylineVertex
 10
55.8574
 20
-16.2723
 30
0.0
 70
    32
  0
VERTEX
  5
4668
330
429A
100
AcDbEntity
  8
242
  6
Continuous
100
AcDbVertex
100
AcDb3dPolylineVertex
 10
55.8796
 20
-16.1218
 30
0.0
 70
    32
  0
VERTEX
  5
4669
330
429A
100
AcDbEntity
  8
242
  6
Continuous
100
AcDbVertex
100
AcDb3dPolylineVertex
 10
55.9166
 20
-15.972
 30
0.0
 70
    32
  0
VERTEX
  5
466A
330
429A
100
AcDbEntity
  8
242
  6
Continuous
100
AcDbVertex
100
AcDb3dPolylineVertex
 10
55.96820000000001
 20
-15.8233
 30
0.0
 70
    32
  0
VERTEX
  5
466B
330
429A
100
AcDbEntity
  8
242
  6
Continuous
100
AcDbVertex
100
AcDb3dPolylineVertex
 10
56.0343
 20
-15.676
 30
0.0
 70
    32
  0
VERTEX
  5
466C
330
429A
100
AcDbEntity
  8
242
  6
Continuous
100
AcDbVertex
100
AcDb3dPolylineVertex
 10
56.1148
 20
-15.5306
 30
0.0
 70
    32
  0
VERTEX
  5
466D
330
429A
100
AcDbEntity
  8
242
  6
Continuous
100
AcDbVertex
100
AcDb3dPolylineVertex
 10
56.2095
 20
-15.3873
 30
0.0
 70
    32
  0
VERTEX
  5
466E
330
429A
100
AcDbEntity
  8
242
  6
Continuous
100
AcDbVertex
100
AcDb3dPolylineVertex
 10
56.3181
 20
-15.2465
 30
0.0
 70
    32
  0
VERTEX
  5
466F
330
429A
100
AcDbEntity
  8
242
  6
Continuous
100
AcDbVertex
100
AcDb3dPolylineVertex
 10
56.4405
 20
-15.1085
 30
0.0
 70
    32
  0
VERTEX
  5
4670
330
429A
100
AcDbEntity
  8
242
  6
Continuous
100
AcDbVertex
100
AcDb3dPolylineVertex
 10
56.5762
 20
-14.9737
 30
0.0
 70
    32
  0
VERTEX
  5
4671
330
429A
100
AcDbEntity
  8
242
  6
Continuous
100
AcDbVertex
100
AcDb3dPolylineVertex
 10
56.725
 20
-14.8423
 30
0.0
 70
    32
  0
VERTEX
  5
4672
330
429A
100
AcDbEntity
  8
242
  6
Continuous
100
AcDbVertex
100
AcDb3dPolylineVertex
 10
56.88649999999999
 20
-14.7148
 30
0.0
 70
    32
  0
VERTEX
  5
4673
330
429A
100
AcDbEntity
  8
242
  6
Continuous
100
AcDbVertex
100
AcDb3dPolylineVertex
 10
57.0603
 20
-14.5914
 30
0.0
 70
    32
  0
VERTEX
  5
4674
330
429A
100
AcDbEntity
  8
242
  6
Continuous
100
AcDbVertex
100
AcDb3dPolylineVertex
 10
57.246
 20
-14.4724
 30
0.0
 70
    32
  0
VERTEX
  5
4675
330
429A
100
AcDbEntity
  8
242
  6
Continuous
100
AcDbVertex
100
AcDb3dPolylineVertex
 10
57.4431
 20
-14.3582
 30
0.0
 70
    32
  0
VERTEX
  5
4676
330
429A
100
AcDbEntity
  8
242
  6
Continuous
100
AcDbVertex
100
AcDb3dPolylineVertex
 10
57.6513
 20
-14.2489
 30
0.0
 70
    32
  0
VERTEX
  5
4677
330
429A
100
AcDbEntity
  8
242
  6
Continuous
100
AcDbVertex
100
AcDb3dPolylineVertex
 10
57.8699
 20
-14.1448
 30
0.0
 70
    32
  0
VERTEX
  5
4678
330
429A
100
AcDbEntity
  8
242
  6
Continuous
100
AcDbVertex
100
AcDb3dPolylineVertex
 10
58.0985
 20
-14.0462
 30
0.0
 70
    32
  0
VERTEX
  5
4679
330
429A
100
AcDbEntity
  8
242
  6
Continuous
100
AcDbVertex
100
AcDb3dPolylineVertex
 10
58.33639999999999
 20
-13.9533
 30
0.0
 70
    32
  0
VERTEX
  5
467A
330
429A
100
AcDbEntity
  8
242
  6
Continuous
100
AcDbVertex
100
AcDb3dPolylineVertex
 10
58.58319999999999
 20
-13.8664
 30
0.0
 70
    32
  0
VERTEX
  5
467B
330
429A
100
AcDbEntity
  8
242
  6
Continuous
100
AcDbVertex
100
AcDb3dPolylineVertex
 10
58.83829999999999
 20
-13.7857
 30
0.0
 70
    32
  0
VERTEX
  5
467C
330
429A
100
AcDbEntity
  8
242
  6
Continuous
100
AcDbVertex
100
AcDb3dPolylineVertex
 10
59.1009
 20
-13.7113
 30
0.0
 70
    32
  0
VERTEX
  5
467D
330
429A
100
AcDbEntity
  8
242
  6
Continuous
100
AcDbVertex
100
AcDb3dPolylineVertex
 10
59.3705
 20
-13.6434
 30
0.0
 70
    32
  0
VERTEX
  5
467E
330
429A
100
AcDbEntity
  8
242
  6
Continuous
100
AcDbVertex
100
AcDb3dPolylineVertex
 10
59.6465
 20
-13.5823
 30
0.0
 70
    32
  0
VERTEX
  5
467F
330
429A
100
AcDbEntity
  8
242
  6
Continuous
100
AcDbVertex
100
AcDb3dPolylineVertex
 10
59.9281
 20
-13.528
 30
0.0
 70
    32
  0
VERTEX
  5
4680
330
429A
100
AcDbEntity
  8
242
  6
Continuous
100
AcDbVertex
100
AcDb3dPolylineVertex
 10
60.2147
 20
-13.4806
 30
0.0
 70
    32
  0
VERTEX
  5
4681
330
429A
100
AcDbEntity
  8
242
  6
Continuous
100
AcDbVertex
100
AcDb3dPolylineVertex
 10
60.5057
 20
-13.4404
 30
0.0
 70
    32
  0
VERTEX
  5
4682
330
429A
100
AcDbEntity
  8
242
  6
Continuous
100
AcDbVertex
100
AcDb3dPolylineVertex
 10
60.8002
 20
-13.4073
 30
0.0
 70
    32
  0
VERTEX
  5
4683
330
429A
100
AcDbEntity
  8
242
  6
Continuous
100
AcDbVertex
100
AcDb3dPolylineVertex
 10
61.0976
 20
-13.3815
 30
0.0
 70
    32
  0
VERTEX
  5
4684
330
429A
100
AcDbEntity
  8
242
  6
Continuous
100
AcDbVertex
100
AcDb3dPolylineVertex
 10
61.3972
 20
-13.363
 30
0.0
 70
    32
  0
VERTEX
  5
4685
330
429A
100
AcDbEntity
  8
242
  6
Continuous
100
AcDbVertex
100
AcDb3dPolylineVertex
 10
61.6982
 20
-13.3519
 30
0.0
 70
    32
  0
VERTEX
  5
4686
330
429A
100
AcDbEntity
  8
242
  6
Continuous
100
AcDbVertex
100
AcDb3dPolylineVertex
 10
62.0
 20
-13.3482
 30
0.0
 70
    32
  0
VERTEX
  5
4687
330
429A
100
AcDbEntity
  8
242
  6
Continuous
100
AcDbVertex
100
AcDb3dPolylineVertex
 10
62.3018
 20
-13.3519
 30
0.0
 70
    32
  0
VERTEX
  5
4688
330
429A
100
AcDbEntity
  8
242
  6
Continuous
100
AcDbVertex
100
AcDb3dPolylineVertex
 10
62.6028
 20
-13.363
 30
0.0
 70
    32
  0
VERTEX
  5
4689
330
429A
100
AcDbEntity
  8
242
  6
Continuous
100
AcDbVertex
100
AcDb3dPolylineVertex
 10
62.9024
 20
-13.3815
 30
0.0
 70
    32
  0
VERTEX
  5
468A
330
429A
100
AcDbEntity
  8
242
  6
Continuous
100
AcDbVertex
100
AcDb3dPolylineVertex
 10
63.19980000000001
 20
-13.4073
 30
0.0
 70
    32
  0
VERTEX
  5
468B
330
429A
100
AcDbEntity
  8
242
  6
Continuous
100
AcDbVertex
100
AcDb3dPolylineVertex
 10
63.4943
 20
-13.4404
 30
0.0
 70
    32
  0
VERTEX
  5
468C
330
429A
100
AcDbEntity
  8
242
  6
Continuous
100
AcDbVertex
100
AcDb3dPolylineVertex
 10
63.7852
 20
-13.4806
 30
0.0
 70
    32
  0
VERTEX
  5
468D
330
429A
100
AcDbEntity
  8
242
  6
Continuous
100
AcDbVertex
100
AcDb3dPolylineVertex
 10
64.07189999999999
 20
-13.528
 30
0.0
 70
    32
  0
VERTEX
  5
468E
330
429A
100
AcDbEntity
  8
242
  6
Continuous
100
AcDbVertex
100
AcDb3dPolylineVertex
 10
64.35349999999999
 20
-13.5823
 30
0.0
 70
    32
  0
VERTEX
  5
468F
330
429A
100
AcDbEntity
  8
242
  6
Continuous
100
AcDbVertex
100
AcDb3dPolylineVertex
 10
64.62949999999999
 20
-13.6434
 30
0.0
 70
    32
  0
VERTEX
  5
4690
330
429A
100
AcDbEntity
  8
242
  6
Continuous
100
AcDbVertex
100
AcDb3dPolylineVertex
 10
64.8991
 20
-13.7113
 30
0.0
 70
    32
  0
VERTEX
  5
4691
330
429A
100
AcDbEntity
  8
242
  6
Continuous
100
AcDbVertex
100
AcDb3dPolylineVertex
 10
65.16169999999999
 20
-13.7857
 30
0.0
 70
    32
  0
VERTEX
  5
4692
330
429A
100
AcDbEntity
  8
242
  6
Continuous
100
AcDbVertex
100
AcDb3dPolylineVertex
 10
65.41679999999999
 20
-13.8664
 30
0.0
 70
    32
  0
VERTEX
  5
4693
330
429A
100
AcDbEntity
  8
242
  6
Continuous
100
AcDbVertex
100
AcDb3dPolylineVertex
 10
65.66349999999999
 20
-13.9533
 30
0.0
 70
    32
  0
VERTEX
  5
4694
330
429A
100
AcDbEntity
  8
242
  6
Continuous
100
AcDbVertex
100
AcDb3dPolylineVertex
 10
65.9015
 20
-14.0462
 30
0.0
 70
    32
  0
VERTEX
  5
4695
330
429A
100
AcDbEntity
  8
242
  6
Continuous
100
AcDbVertex
100
AcDb3dPolylineVertex
 10
66.1301
 20
-14.1448
 30
0.0
 70
    32
  0
VERTEX
  5
4696
330
429A
100
AcDbEntity
  8
242
  6
Continuous
100
AcDbVertex
100
AcDb3dPolylineVertex
 10
66.34869999999999
 20
-14.2489
 30
0.0
 70
    32
  0
VERTEX
  5
4697
330
429A
100
AcDbEntity
  8
242
  6
Continuous
100
AcDbVertex
100
AcDb3dPolylineVertex
 10
66.5568
 20
-14.3582
 30
0.0
 70
    32
  0
VERTEX
  5
4698
330
429A
100
AcDbEntity
  8
242
  6
Continuous
100
AcDbVertex
100
AcDb3dPolylineVertex
 10
66.75399999999999
 20
-14.4724
 30
0.0
 70
    32
  0
VERTEX
  5
4699
330
429A
100
AcDbEntity
  8
242
  6
Continuous
100
AcDbVertex
100
AcDb3dPolylineVertex
 10
66.9397
 20
-14.5914
 30
0.0
 70
    32
  0
VERTEX
  5
469A
330
429A
100
AcDbEntity
  8
242
  6
Continuous
100
AcDbVertex
100
AcDb3dPolylineVertex
 10
67.1135
 20
-14.7148
 30
0.0
 70
    32
  0
VERTEX
  5
469B
330
429A
100
AcDbEntity
  8
242
  6
Continuous
100
AcDbVertex
100
AcDb3dPolylineVertex
 10
67.275
 20
-14.8423
 30
0.0
 70
    32
  0
VERTEX
  5
469C
330
429A
100
AcDbEntity
  8
242
  6
Continuous
100
AcDbVertex
100
AcDb3dPolylineVertex
 10
67.4238
 20
-14.9737
 30
0.0
 70
    32
  0
VERTEX
  5
469D
330
429A
100
AcDbEntity
  8
242
  6
Continuous
100
AcDbVertex
100
AcDb3dPolylineVertex
 10
67.5595
 20
-15.1085
 30
0.0
 70
    32
  0
VERTEX
  5
469E
330
429A
100
AcDbEntity
  8
242
  6
Continuous
100
AcDbVertex
100
AcDb3dPolylineVertex
 10
67.6819
 20
-15.2465
 30
0.0
 70
    32
  0
VERTEX
  5
469F
330
429A
100
AcDbEntity
  8
242
  6
Continuous
100
AcDbVertex
100
AcDb3dPolylineVertex
 10
67.79049999999999
 20
-15.3873
 30
0.0
 70
    32
  0
VERTEX
  5
46A0
330
429A
100
AcDbEntity
  8
242
  6
Continuous
100
AcDbVertex
100
AcDb3dPolylineVertex
 10
67.8852
 20
-15.5306
 30
0.0
 70
    32
  0
VERTEX
  5
46A1
330
429A
100
AcDbEntity
  8
242
  6
Continuous
100
AcDbVertex
100
AcDb3dPolylineVertex
 10
67.9657
 20
-15.676
 30
0.0
 70
    32
  0
VERTEX
  5
46A2
330
429A
100
AcDbEntity
  8
242
  6
Continuous
100
AcDbVertex
100
AcDb3dPolylineVertex
 10
68.03180000000001
 20
-15.8233
 30
0.0
 70
    32
  0
VERTEX
  5
46A3
330
429A
100
AcDbEntity
  8
242
  6
Continuous
100
AcDbVertex
100
AcDb3dPolylineVertex
 10
68.0834
 20
-15.972
 30
0.0
 70
    32
  0
VERTEX
  5
46A4
330
429A
100
AcDbEntity
  8
242
  6
Continuous
100
AcDbVertex
100
AcDb3dPolylineVertex
 10
68.1204
 20
-16.1218
 30
0.0
 70
    32
  0
VERTEX
  5
46A5
330
429A
100
AcDbEntity
  8
242
  6
Continuous
100
AcDbVertex
100
AcDb3dPolylineVertex
 10
68.1426
 20
-16.2723
 30
0.0
 70
    32
  0
VERTEX
  5
46A6
330
429A
100
AcDbEntity
  8
242
  6
Continuous
100
AcDbVertex
100
AcDb3dPolylineVertex
 10
68.15000000000001
 20
-16.4232
 30
0.0
 70
    32
  0
VERTEX
  5
46A7
330
429A
100
AcDbEntity
  8
242
  6
Continuous
100
AcDbVertex
100
AcDb3dPolylineVertex
 10
68.1426
 20
-16.5741
 30
0.0
 70
    32
  0
VERTEX
  5
46A8
330
429A
100
AcDbEntity
  8
242
  6
Continuous
100
AcDbVertex
100
AcDb3dPolylineVertex
 10
68.1204
 20
-16.7246
 30
0.0
 70
    32
  0
VERTEX
  5
46A9
330
429A
100
AcDbEntity
  8
242
  6
Continuous
100
AcDbVertex
100
AcDb3dPolylineVertex
 10
68.0834
 20
-16.8744
 30
0.0
 70
    32
  0
VERTEX
  5
46AA
330
429A
100
AcDbEntity
  8
242
  6
Continuous
100
AcDbVertex
100
AcDb3dPolylineVertex
 10
68.03180000000001
 20
-17.0231
 30
0.0
 70
    32
  0
VERTEX
  5
46AB
330
429A
100
AcDbEntity
  8
242
  6
Continuous
100
AcDbVertex
100
AcDb3dPolylineVertex
 10
67.9657
 20
-17.1704
 30
0.0
 70
    32
  0
VERTEX
  5
46AC
330
429A
100
AcDbEntity
  8
242
  6
Continuous
100
AcDbVertex
100
AcDb3dPolylineVertex
 10
67.8852
 20
-17.3158
 30
0.0
 70
    32
  0
VERTEX
  5
46AD
330
429A
100
AcDbEntity
  8
242
  6
Continuous
100
AcDbVertex
100
AcDb3dPolylineVertex
 10
67.79049999999999
 20
-17.4591
 30
0.0
 70
    32
  0
VERTEX
  5
46AE
330
429A
100
AcDbEntity
  8
242
  6
Continuous
100
AcDbVertex
100
AcDb3dPolylineVertex
 10
67.6819
 20
-17.6
 30
0.0
 70
    32
  0
VERTEX
  5
46AF
330
429A
100
AcDbEntity
  8
242
  6
Continuous
100
AcDbVertex
100
AcDb3dPolylineVertex
 10
67.5595
 20
-17.7379
 30
0.0
 70
    32
  0
VERTEX
  5
46B0
330
429A
100
AcDbEntity
  8
242
  6
Continuous
100
AcDbVertex
100
AcDb3dPolylineVertex
 10
67.4238
 20
-17.8728
 30
0.0
 70
    32
  0
VERTEX
  5
46B1
330
429A
100
AcDbEntity
  8
242
  6
Continuous
100
AcDbVertex
100
AcDb3dPolylineVertex
 10
67.275
 20
-18.0041
 30
0.0
 70
    32
  0
VERTEX
  5
46B2
330
429A
100
AcDbEntity
  8
242
  6
Continuous
100
AcDbVertex
100
AcDb3dPolylineVertex
 10
67.1135
 20
-18.1316
 30
0.0
 70
    32
  0
VERTEX
  5
46B3
330
429A
100
AcDbEntity
  8
242
  6
Continuous
100
AcDbVertex
100
AcDb3dPolylineVertex
 10
66.9397
 20
-18.255
 30
0.0
 70
    32
  0
VERTEX
  5
46B4
330
429A
100
AcDbEntity
  8
242
  6
Continuous
100
AcDbVertex
100
AcDb3dPolylineVertex
 10
66.75399999999999
 20
-18.374
 30
0.0
 70
    32
  0
VERTEX
  5
46B5
330
429A
100
AcDbEntity
  8
242
  6
Continuous
100
AcDbVertex
100
AcDb3dPolylineVertex
 10
66.5568
 20
-18.4882
 30
0.0
 70
    32
  0
VERTEX
  5
46B6
330
429A
100
AcDbEntity
  8
242
  6
Continuous
100
AcDbVertex
100
AcDb3dPolylineVertex
 10
66.34869999999999
 20
-18.5976
 30
0.0
 70
    32
  0
VERTEX
  5
46B7
330
429A
100
AcDbEntity
  8
242
  6
Continuous
100
AcDbVertex
100
AcDb3dPolylineVertex
 10
66.1301
 20
-18.7016
 30
0.0
 70
    32
  0
VERTEX
  5
46B8
330
429A
100
AcDbEntity
  8
242
  6
Continuous
100
AcDbVertex
100
AcDb3dPolylineVertex
 10
65.9015
 20
-18.8002
 30
0.0
 70
    32
  0
VERTEX
  5
46B9
330
429A
100
AcDbEntity
  8
242
  6
Continuous
100
AcDbVertex
100
AcDb3dPolylineVertex
 10
65.66349999999999
 20
-18.8931
 30
0.0
 70
    32
  0
VERTEX
  5
46BA
330
429A
100
AcDbEntity
  8
242
  6
Continuous
100
AcDbVertex
100
AcDb3dPolylineVertex
 10
65.41679999999999
 20
-18.98
 30
0.0
 70
    32
  0
VERTEX
  5
46BB
330
429A
100
AcDbEntity
  8
242
  6
Continuous
100
AcDbVertex
100
AcDb3dPolylineVertex
 10
65.16169999999999
 20
-19.0607
 30
0.0
 70
    32
  0
VERTEX
  5
46BC
330
429A
100
AcDbEntity
  8
242
  6
Continuous
100
AcDbVertex
100
AcDb3dPolylineVertex
 10
64.8991
 20
-19.1351
 30
0.0
 70
    32
  0
VERTEX
  5
46BD
330
429A
100
AcDbEntity
  8
242
  6
Continuous
100
AcDbVertex
100
AcDb3dPolylineVertex
 10
64.62949999999999
 20
-19.203
 30
0.0
 70
    32
  0
VERTEX
  5
46BE
330
429A
100
AcDbEntity
  8
242
  6
Continuous
100
AcDbVertex
100
AcDb3dPolylineVertex
 10
64.35349999999999
 20
-19.2641
 30
0.0
 70
    32
  0
VERTEX
  5
46BF
330
429A
100
AcDbEntity
  8
242
  6
Continuous
100
AcDbVertex
100
AcDb3dPolylineVertex
 10
64.07189999999999
 20
-19.3185
 30
0.0
 70
    32
  0
VERTEX
  5
46C0
330
429A
100
AcDbEntity
  8
242
  6
Continuous
100
AcDbVertex
100
AcDb3dPolylineVertex
 10
63.7852
 20
-19.3658
 30
0.0
 70
    32
  0
VERTEX
  5
46C1
330
429A
100
AcDbEntity
  8
242
  6
Continuous
100
AcDbVertex
100
AcDb3dPolylineVertex
 10
63.4943
 20
-19.4061
 30
0.0
 70
    32
  0
VERTEX
  5
46C2
330
429A
100
AcDbEntity
  8
242
  6
Continuous
100
AcDbVertex
100
AcDb3dPolylineVertex
 10
63.19980000000001
 20
-19.4391
 30
0.0
 70
    32
  0
VERTEX
  5
46C3
330
429A
100
AcDbEntity
  8
242
  6
Continuous
100
AcDbVertex
100
AcDb3dPolylineVertex
 10
62.9024
 20
-19.4649
 30
0.0
 70
    32
  0
VERTEX
  5
46C4
330
429A
100
AcDbEntity
  8
242
  6
Continuous
100
AcDbVertex
100
AcDb3dPolylineVertex
 10
62.6028
 20
-19.4834
 30
0.0
 70
    32
  0
VERTEX
  5
46C5
330
429A
100
AcDbEntity
  8
242
  6
Continuous
100
AcDbVertex
100
AcDb3dPolylineVertex
 10
62.3018
 20
-19.4945
 30
0.0
 70
    32
  0
VERTEX
  5
46C6
330
429A
100
AcDbEntity
  8
242
  6
Continuous
100
AcDbVertex
100
AcDb3dPolylineVertex
 10
62.0
 20
-19.4982
 30
0.0
 70
    32
  0
VERTEX
  5
46C7
330
429A
100
AcDbEntity
  8
242
  6
Continuous
100
AcDbVertex
100
AcDb3dPolylineVertex
 10
61.6982
 20
-19.4945
 30
0.0
 70
    32
  0
VERTEX
  5
46C8
330
429A
100
AcDbEntity
  8
242
  6
Continuous
100
AcDbVertex
100
AcDb3dPolylineVertex
 10
61.3972
 20
-19.4834
 30
0.0
 70
    32
  0
VERTEX
  5
46C9
330
429A
100
AcDbEntity
  8
242
  6
Continuous
100
AcDbVertex
100
AcDb3dPolylineVertex
 10
61.0976
 20
-19.4649
 30
0.0
 70
    32
  0
VERTEX
  5
46CA
330
429A
100
AcDbEntity
  8
242
  6
Continuous
100
AcDbVertex
100
AcDb3dPolylineVertex
 10
60.8002
 20
-19.4391
 30
0.0
 70
    32
  0
VERTEX
  5
46CB
330
429A
100
AcDbEntity
  8
242
  6
Continuous
100
AcDbVertex
100
AcDb3dPolylineVertex
 10
60.5057
 20
-19.4061
 30
0.0
 70
    32
  0
VERTEX
  5
46CC
330
429A
100
AcDbEntity
  8
242
  6
Continuous
100
AcDbVertex
100
AcDb3dPolylineVertex
 10
60.2147
 20
-19.3658
 30
0.0
 70
    32
  0
VERTEX
  5
46CD
330
429A
100
AcDbEntity
  8
242
  6
Continuous
100
AcDbVertex
100
AcDb3dPolylineVertex
 10
59.9281
 20
-19.3185
 30
0.0
 70
    32
  0
VERTEX
  5
46CE
330
429A
100
AcDbEntity
  8
242
  6
Continuous
100
AcDbVertex
100
AcDb3dPolylineVertex
 10
59.6465
 20
-19.2641
 30
0.0
 70
    32
  0
VERTEX
  5
46CF
330
429A
100
AcDbEntity
  8
242
  6
Continuous
100
AcDbVertex
100
AcDb3dPolylineVertex
 10
59.3705
 20
-19.203
 30
0.0
 70
    32
  0
VERTEX
  5
46D0
330
429A
100
AcDbEntity
  8
242
  6
Continuous
100
AcDbVertex
100
AcDb3dPolylineVertex
 10
59.1009
 20
-19.1351
 30
0.0
 70
    32
  0
VERTEX
  5
46D1
330
429A
100
AcDbEntity
  8
242
  6
Continuous
100
AcDbVertex
100
AcDb3dPolylineVertex
 10
58.83829999999999
 20
-19.0607
 30
0.0
 70
    32
  0
VERTEX
  5
46D2
330
429A
100
AcDbEntity
  8
242
  6
Continuous
100
AcDbVertex
100
AcDb3dPolylineVertex
 10
58.58319999999999
 20
-18.98
 30
0.0
 70
    32
  0
VERTEX
  5
46D3
330
429A
100
AcDbEntity
  8
242
  6
Continuous
100
AcDbVertex
100
AcDb3dPolylineVertex
 10
58.33639999999999
 20
-18.8931
 30
0.0
 70
    32
  0
VERTEX
  5
46D4
330
429A
100
AcDbEntity
  8
242
  6
Continuous
100
AcDbVertex
100
AcDb3dPolylineVertex
 10
58.0985
 20
-18.8002
 30
0.0
 70
    32
  0
VERTEX
  5
46D5
330
429A
100
AcDbEntity
  8
242
  6
Continuous
100
AcDbVertex
100
AcDb3dPolylineVertex
 10
57.8699
 20
-18.7016
 30
0.0
 70
    32
  0
VERTEX
  5
46D6
330
429A
100
AcDbEntity
  8
242
  6
Continuous
100
AcDbVertex
100
AcDb3dPolylineVertex
 10
57.6513
 20
-18.5976
 30
0.0
 70
    32
  0
VERTEX
  5
46D7
330
429A
100
AcDbEntity
  8
242
  6
Continuous
100
AcDbVertex
100
AcDb3dPolylineVertex
 10
57.4431
 20
-18.4882
 30
0.0
 70
    32
  0
VERTEX
  5
46D8
330
429A
100
AcDbEntity
  8
242
  6
Continuous
100
AcDbVertex
100
AcDb3dPolylineVertex
 10
57.246
 20
-18.374
 30
0.0
 70
    32
  0
VERTEX
  5
46D9
330
429A
100
AcDbEntity
  8
242
  6
Continuous
100
AcDbVertex
100
AcDb3dPolylineVertex
 10
57.0603
 20
-18.255
 30
0.0
 70
    32
  0
VERTEX
  5
46DA
330
429A
100
AcDbEntity
  8
242
  6
Continuous
100
AcDbVertex
100
AcDb3dPolylineVertex
 10
56.88649999999999
 20
-18.1316
 30
0.0
 70
    32
  0
VERTEX
  5
46DB
330
429A
100
AcDbEntity
  8
242
  6
Continuous
100
AcDbVertex
100
AcDb3dPolylineVertex
 10
56.725
 20
-18.0041
 30
0.0
 70
    32
  0
VERTEX
  5
46DC
330
429A
100
AcDbEntity
  8
242
  6
Continuous
100
AcDbVertex
100
AcDb3dPolylineVertex
 10
56.5762
 20
-17.8728
 30
0.0
 70
    32
  0
VERTEX
  5
46DD
330
429A
100
AcDbEntity
  8
242
  6
Continuous
100
AcDbVertex
100
AcDb3dPolylineVertex
 10
56.4405
 20
-17.7379
 30
0.0
 70
    32
  0
VERTEX
  5
46DE
330
429A
100
AcDbEntity
  8
242
  6
Continuous
100
AcDbVertex
100
AcDb3dPolylineVertex
 10
56.3181
 20
-17.6
 30
0.0
 70
    32
  0
VERTEX
  5
46DF
330
429A
100
AcDbEntity
  8
242
  6
Continuous
100
AcDbVertex
100
AcDb3dPolylineVertex
 10
56.2095
 20
-17.4591
 30
0.0
 70
    32
  0
VERTEX
  5
46E0
330
429A
100
AcDbEntity
  8
242
  6
Continuous
100
AcDbVertex
100
AcDb3dPolylineVertex
 10
56.1148
 20
-17.3158
 30
0.0
 70
    32
  0
VERTEX
  5
46E1
330
429A
100
AcDbEntity
  8
242
  6
Continuous
100
AcDbVertex
100
AcDb3dPolylineVertex
 10
56.0343
 20
-17.1704
 30
0.0
 70
    32
  0
VERTEX
  5
46E2
330
429A
100
AcDbEntity
  8
242
  6
Continuous
100
AcDbVertex
100
AcDb3dPolylineVertex
 10
55.96820000000001
 20
-17.0231
 30
0.0
 70
    32
  0
VERTEX
  5
46E3
330
429A
100
AcDbEntity
  8
242
  6
Continuous
100
AcDbVertex
100
AcDb3dPolylineVertex
 10
55.9166
 20
-16.8744
 30
0.0
 70
    32
  0
VERTEX
  5
46E4
330
429A
100
AcDbEntity
  8
242
  6
Continuous
100
AcDbVertex
100
AcDb3dPolylineVertex
 10
55.8796
 20
-16.7246
 30
0.0
 70
    32
  0
VERTEX
  5
46E5
330
429A
100
AcDbEntity
  8
242
  6
Continuous
100
AcDbVertex
100
AcDb3dPolylineVertex
 10
55.8574
 20
-16.5741
 30
0.0
 70
    32
  0
VERTEX
  5
46E6
330
429A
100
AcDbEntity
  8
242
  6
Continuous
100
AcDbVertex
100
AcDb3dPolylineVertex
 10
55.85
 20
-16.4232
 30
0.0
 70
    32
  0
SEQEND
  5
46E7
330
429A
100
AcDbEntity
  8
242
  6
Continuous
  0
POLYLINE
  5
429B
330
4D0A
100
AcDbEntity
  8
242
  6
Continuous
100
AcDb3dPolyline
 66
     1
 10
0.0
 20
0.0
 30
0.0
 70
     8
  0
VERTEX
  5
46E8
330
429B
100
AcDbEntity
  8
242
  6
Continuous
100
AcDbVertex
100
AcDb3dPolylineVertex
 10
80.84999999999999
 20
-16.4232
 30
0.0
 70
    32
  0
VERTEX
  5
46E9
330
429B
100
AcDbEntity
  8
242
  6
Continuous
100
AcDbVertex
100
AcDb3dPolylineVertex
 10
80.85739999999999
 20
-16.2723
 30
0.0
 70
    32
  0
VERTEX
  5
46EA
330
429B
100
AcDbEntity
  8
242
  6
Continuous
100
AcDbVertex
100
AcDb3dPolylineVertex
 10
80.8796
 20
-16.1218
 30
0.0
 70
    32
  0
VERTEX
  5
46EB
330
429B
100
AcDbEntity
  8
242
  6
Continuous
100
AcDbVertex
100
AcDb3dPolylineVertex
 10
80.9166
 20
-15.972
 30
0.0
 70
    32
  0
VERTEX
  5
46EC
330
429B
100
AcDbEntity
  8
242
  6
Continuous
100
AcDbVertex
100
AcDb3dPolylineVertex
 10
80.96819999999999
 20
-15.8233
 30
0.0
 70
    32
  0
VERTEX
  5
46ED
330
429B
100
AcDbEntity
  8
242
  6
Continuous
100
AcDbVertex
100
AcDb3dPolylineVertex
 10
81.03430000000001
 20
-15.676
 30
0.0
 70
    32
  0
VERTEX
  5
46EE
330
429B
100
AcDbEntity
  8
242
  6
Continuous
100
AcDbVertex
100
AcDb3dPolylineVertex
 10
81.1148
 20
-15.5306
 30
0.0
 70
    32
  0
VERTEX
  5
46EF
330
429B
100
AcDbEntity
  8
242
  6
Continuous
100
AcDbVertex
100
AcDb3dPolylineVertex
 10
81.2095
 20
-15.3873
 30
0.0
 70
    32
  0
VERTEX
  5
46F0
330
429B
100
AcDbEntity
  8
242
  6
Continuous
100
AcDbVertex
100
AcDb3dPolylineVertex
 10
81.31809999999999
 20
-15.2465
 30
0.0
 70
    32
  0
VERTEX
  5
46F1
330
429B
100
AcDbEntity
  8
242
  6
Continuous
100
AcDbVertex
100
AcDb3dPolylineVertex
 10
81.4405
 20
-15.1085
 30
0.0
 70
    32
  0
VERTEX
  5
46F2
330
429B
100
AcDbEntity
  8
242
  6
Continuous
100
AcDbVertex
100
AcDb3dPolylineVertex
 10
81.57619999999999
 20
-14.9737
 30
0.0
 70
    32
  0
VERTEX
  5
46F3
330
429B
100
AcDbEntity
  8
242
  6
Continuous
100
AcDbVertex
100
AcDb3dPolylineVertex
 10
81.72499999999997
 20
-14.8423
 30
0.0
 70
    32
  0
VERTEX
  5
46F4
330
429B
100
AcDbEntity
  8
242
  6
Continuous
100
AcDbVertex
100
AcDb3dPolylineVertex
 10
81.8865
 20
-14.7148
 30
0.0
 70
    32
  0
VERTEX
  5
46F5
330
429B
100
AcDbEntity
  8
242
  6
Continuous
100
AcDbVertex
100
AcDb3dPolylineVertex
 10
82.0603
 20
-14.5914
 30
0.0
 70
    32
  0
VERTEX
  5
46F6
330
429B
100
AcDbEntity
  8
242
  6
Continuous
100
AcDbVertex
100
AcDb3dPolylineVertex
 10
82.246
 20
-14.4724
 30
0.0
 70
    32
  0
VERTEX
  5
46F7
330
429B
100
AcDbEntity
  8
242
  6
Continuous
100
AcDbVertex
100
AcDb3dPolylineVertex
 10
82.4431
 20
-14.3582
 30
0.0
 70
    32
  0
VERTEX
  5
46F8
330
429B
100
AcDbEntity
  8
242
  6
Continuous
100
AcDbVertex
100
AcDb3dPolylineVertex
 10
82.6513
 20
-14.2489
 30
0.0
 70
    32
  0
VERTEX
  5
46F9
330
429B
100
AcDbEntity
  8
242
  6
Continuous
100
AcDbVertex
100
AcDb3dPolylineVertex
 10
82.86990000000001
 20
-14.1448
 30
0.0
 70
    32
  0
VERTEX
  5
46FA
330
429B
100
AcDbEntity
  8
242
  6
Continuous
100
AcDbVertex
100
AcDb3dPolylineVertex
 10
83.0985
 20
-14.0462
 30
0.0
 70
    32
  0
VERTEX
  5
46FB
330
429B
100
AcDbEntity
  8
242
  6
Continuous
100
AcDbVertex
100
AcDb3dPolylineVertex
 10
83.3364
 20
-13.9533
 30
0.0
 70
    32
  0
VERTEX
  5
46FC
330
429B
100
AcDbEntity
  8
242
  6
Continuous
100
AcDbVertex
100
AcDb3dPolylineVertex
 10
83.5832
 20
-13.8664
 30
0.0
 70
    32
  0
VERTEX
  5
46FD
330
429B
100
AcDbEntity
  8
242
  6
Continuous
100
AcDbVertex
100
AcDb3dPolylineVertex
 10
83.83830000000001
 20
-13.7857
 30
0.0
 70
    32
  0
VERTEX
  5
46FE
330
429B
100
AcDbEntity
  8
242
  6
Continuous
100
AcDbVertex
100
AcDb3dPolylineVertex
 10
84.1009
 20
-13.7113
 30
0.0
 70
    32
  0
VERTEX
  5
46FF
330
429B
100
AcDbEntity
  8
242
  6
Continuous
100
AcDbVertex
100
AcDb3dPolylineVertex
 10
84.37050000000002
 20
-13.6434
 30
0.0
 70
    32
  0
VERTEX
  5
4700
330
429B
100
AcDbEntity
  8
242
  6
Continuous
100
AcDbVertex
100
AcDb3dPolylineVertex
 10
84.6465
 20
-13.5823
 30
0.0
 70
    32
  0
VERTEX
  5
4701
330
429B
100
AcDbEntity
  8
242
  6
Continuous
100
AcDbVertex
100
AcDb3dPolylineVertex
 10
84.9281
 20
-13.528
 30
0.0
 70
    32
  0
VERTEX
  5
4702
330
429B
100
AcDbEntity
  8
242
  6
Continuous
100
AcDbVertex
100
AcDb3dPolylineVertex
 10
85.21469999999998
 20
-13.4806
 30
0.0
 70
    32
  0
VERTEX
  5
4703
330
429B
100
AcDbEntity
  8
242
  6
Continuous
100
AcDbVertex
100
AcDb3dPolylineVertex
 10
85.5057
 20
-13.4404
 30
0.0
 70
    32
  0
VERTEX
  5
4704
330
429B
100
AcDbEntity
  8
242
  6
Continuous
100
AcDbVertex
100
AcDb3dPolylineVertex
 10
85.80020000000002
 20
-13.4073
 30
0.0
 70
    32
  0
VERTEX
  5
4705
330
429B
100
AcDbEntity
  8
242
  6
Continuous
100
AcDbVertex
100
AcDb3dPolylineVertex
 10
86.09759999999999
 20
-13.3815
 30
0.0
 70
    32
  0
VERTEX
  5
4706
330
429B
100
AcDbEntity
  8
242
  6
Continuous
100
AcDbVertex
100
AcDb3dPolylineVertex
 10
86.3972
 20
-13.363
 30
0.0
 70
    32
  0
VERTEX
  5
4707
330
429B
100
AcDbEntity
  8
242
  6
Continuous
100
AcDbVertex
100
AcDb3dPolylineVertex
 10
86.69819999999999
 20
-13.3519
 30
0.0
 70
    32
  0
VERTEX
  5
4708
330
429B
100
AcDbEntity
  8
242
  6
Continuous
100
AcDbVertex
100
AcDb3dPolylineVertex
 10
87.0
 20
-13.3482
 30
0.0
 70
    32
  0
VERTEX
  5
4709
330
429B
100
AcDbEntity
  8
242
  6
Continuous
100
AcDbVertex
100
AcDb3dPolylineVertex
 10
87.3018
 20
-13.3519
 30
0.0
 70
    32
  0
VERTEX
  5
470A
330
429B
100
AcDbEntity
  8
242
  6
Continuous
100
AcDbVertex
100
AcDb3dPolylineVertex
 10
87.60279999999999
 20
-13.363
 30
0.0
 70
    32
  0
VERTEX
  5
470B
330
429B
100
AcDbEntity
  8
242
  6
Continuous
100
AcDbVertex
100
AcDb3dPolylineVertex
 10
87.9024
 20
-13.3815
 30
0.0
 70
    32
  0
VERTEX
  5
470C
330
429B
100
AcDbEntity
  8
242
  6
Continuous
100
AcDbVertex
100
AcDb3dPolylineVertex
 10
88.19979999999999
 20
-13.4073
 30
0.0
 70
    32
  0
VERTEX
  5
470D
330
429B
100
AcDbEntity
  8
242
  6
Continuous
100
AcDbVertex
100
AcDb3dPolylineVertex
 10
88.49429999999998
 20
-13.4404
 30
0.0
 70
    32
  0
VERTEX
  5
470E
330
429B
100
AcDbEntity
  8
242
  6
Continuous
100
AcDbVertex
100
AcDb3dPolylineVertex
 10
88.78519999999998
 20
-13.4806
 30
0.0
 70
    32
  0
VERTEX
  5
470F
330
429B
100
AcDbEntity
  8
242
  6
Continuous
100
AcDbVertex
100
AcDb3dPolylineVertex
 10
89.07189999999998
 20
-13.528
 30
0.0
 70
    32
  0
VERTEX
  5
4710
330
429B
100
AcDbEntity
  8
242
  6
Continuous
100
AcDbVertex
100
AcDb3dPolylineVertex
 10
89.35349999999997
 20
-13.5823
 30
0.0
 70
    32
  0
VERTEX
  5
4711
330
429B
100
AcDbEntity
  8
242
  6
Continuous
100
AcDbVertex
100
AcDb3dPolylineVertex
 10
89.62949999999997
 20
-13.6434
 30
0.0
 70
    32
  0
VERTEX
  5
4712
330
429B
100
AcDbEntity
  8
242
  6
Continuous
100
AcDbVertex
100
AcDb3dPolylineVertex
 10
89.8991
 20
-13.7113
 30
0.0
 70
    32
  0
VERTEX
  5
4713
330
429B
100
AcDbEntity
  8
242
  6
Continuous
100
AcDbVertex
100
AcDb3dPolylineVertex
 10
90.1617
 20
-13.7857
 30
0.0
 70
    32
  0
VERTEX
  5
4714
330
429B
100
AcDbEntity
  8
242
  6
Continuous
100
AcDbVertex
100
AcDb3dPolylineVertex
 10
90.41679999999999
 20
-13.8664
 30
0.0
 70
    32
  0
VERTEX
  5
4715
330
429B
100
AcDbEntity
  8
242
  6
Continuous
100
AcDbVertex
100
AcDb3dPolylineVertex
 10
90.66349999999999
 20
-13.9533
 30
0.0
 70
    32
  0
VERTEX
  5
4716
330
429B
100
AcDbEntity
  8
242
  6
Continuous
100
AcDbVertex
100
AcDb3dPolylineVertex
 10
90.90149999999999
 20
-14.0462
 30
0.0
 70
    32
  0
VERTEX
  5
4717
330
429B
100
AcDbEntity
  8
242
  6
Continuous
100
AcDbVertex
100
AcDb3dPolylineVertex
 10
91.1301
 20
-14.1448
 30
0.0
 70
    32
  0
VERTEX
  5
4718
330
429B
100
AcDbEntity
  8
242
  6
Continuous
100
AcDbVertex
100
AcDb3dPolylineVertex
 10
91.34869999999999
 20
-14.2489
 30
0.0
 70
    32
  0
VERTEX
  5
4719
330
429B
100
AcDbEntity
  8
242
  6
Continuous
100
AcDbVertex
100
AcDb3dPolylineVertex
 10
91.5568
 20
-14.3582
 30
0.0
 70
    32
  0
VERTEX
  5
471A
330
429B
100
AcDbEntity
  8
242
  6
Continuous
100
AcDbVertex
100
AcDb3dPolylineVertex
 10
91.75400000000001
 20
-14.4724
 30
0.0
 70
    32
  0
VERTEX
  5
471B
330
429B
100
AcDbEntity
  8
242
  6
Continuous
100
AcDbVertex
100
AcDb3dPolylineVertex
 10
91.9397
 20
-14.5914
 30
0.0
 70
    32
  0
VERTEX
  5
471C
330
429B
100
AcDbEntity
  8
242
  6
Continuous
100
AcDbVertex
100
AcDb3dPolylineVertex
 10
92.11350000000001
 20
-14.7148
 30
0.0
 70
    32
  0
VERTEX
  5
471D
330
429B
100
AcDbEntity
  8
242
  6
Continuous
100
AcDbVertex
100
AcDb3dPolylineVertex
 10
92.275
 20
-14.8423
 30
0.0
 70
    32
  0
VERTEX
  5
471E
330
429B
100
AcDbEntity
  8
242
  6
Continuous
100
AcDbVertex
100
AcDb3dPolylineVertex
 10
92.4238
 20
-14.9737
 30
0.0
 70
    32
  0
VERTEX
  5
471F
330
429B
100
AcDbEntity
  8
242
  6
Continuous
100
AcDbVertex
100
AcDb3dPolylineVertex
 10
92.5595
 20
-15.1085
 30
0.0
 70
    32
  0
VERTEX
  5
4720
330
429B
100
AcDbEntity
  8
242
  6
Continuous
100
AcDbVertex
100
AcDb3dPolylineVertex
 10
92.6819
 20
-15.2465
 30
0.0
 70
    32
  0
VERTEX
  5
4721
330
429B
100
AcDbEntity
  8
242
  6
Continuous
100
AcDbVertex
100
AcDb3dPolylineVertex
 10
92.79049999999999
 20
-15.3873
 30
0.0
 70
    32
  0
VERTEX
  5
4722
330
429B
100
AcDbEntity
  8
242
  6
Continuous
100
AcDbVertex
100
AcDb3dPolylineVertex
 10
92.8852
 20
-15.5306
 30
0.0
 70
    32
  0
VERTEX
  5
4723
330
429B
100
AcDbEntity
  8
242
  6
Continuous
100
AcDbVertex
100
AcDb3dPolylineVertex
 10
92.9657
 20
-15.676
 30
0.0
 70
    32
  0
VERTEX
  5
4724
330
429B
100
AcDbEntity
  8
242
  6
Continuous
100
AcDbVertex
100
AcDb3dPolylineVertex
 10
93.03180000000001
 20
-15.8233
 30
0.0
 70
    32
  0
VERTEX
  5
4725
330
429B
100
AcDbEntity
  8
242
  6
Continuous
100
AcDbVertex
100
AcDb3dPolylineVertex
 10
93.08339999999999
 20
-15.972
 30
0.0
 70
    32
  0
VERTEX
  5
4726
330
429B
100
AcDbEntity
  8
242
  6
Continuous
100
AcDbVertex
100
AcDb3dPolylineVertex
 10
93.12040000000001
 20
-16.1218
 30
0.0
 70
    32
  0
VERTEX
  5
4727
330
429B
100
AcDbEntity
  8
242
  6
Continuous
100
AcDbVertex
100
AcDb3dPolylineVertex
 10
93.1426
 20
-16.2723
 30
0.0
 70
    32
  0
VERTEX
  5
4728
330
429B
100
AcDbEntity
  8
242
  6
Continuous
100
AcDbVertex
100
AcDb3dPolylineVertex
 10
93.15000000000001
 20
-16.4232
 30
0.0
 70
    32
  0
VERTEX
  5
4729
330
429B
100
AcDbEntity
  8
242
  6
Continuous
100
AcDbVertex
100
AcDb3dPolylineVertex
 10
93.1426
 20
-16.5741
 30
0.0
 70
    32
  0
VERTEX
  5
472A
330
429B
100
AcDbEntity
  8
242
  6
Continuous
100
AcDbVertex
100
AcDb3dPolylineVertex
 10
93.12040000000001
 20
-16.7246
 30
0.0
 70
    32
  0
VERTEX
  5
472B
330
429B
100
AcDbEntity
  8
242
  6
Continuous
100
AcDbVertex
100
AcDb3dPolylineVertex
 10
93.08339999999999
 20
-16.8744
 30
0.0
 70
    32
  0
VERTEX
  5
472C
330
429B
100
AcDbEntity
  8
242
  6
Continuous
100
AcDbVertex
100
AcDb3dPolylineVertex
 10
93.03180000000001
 20
-17.0231
 30
0.0
 70
    32
  0
VERTEX
  5
472D
330
429B
100
AcDbEntity
  8
242
  6
Continuous
100
AcDbVertex
100
AcDb3dPolylineVertex
 10
92.9657
 20
-17.1704
 30
0.0
 70
    32
  0
VERTEX
  5
472E
330
429B
100
AcDbEntity
  8
242
  6
Continuous
100
AcDbVertex
100
AcDb3dPolylineVertex
 10
92.8852
 20
-17.3158
 30
0.0
 70
    32
  0
VERTEX
  5
472F
330
429B
100
AcDbEntity
  8
242
  6
Continuous
100
AcDbVertex
100
AcDb3dPolylineVertex
 10
92.79049999999999
 20
-17.4591
 30
0.0
 70
    32
  0
VERTEX
  5
4730
330
429B
100
AcDbEntity
  8
242
  6
Continuous
100
AcDbVertex
100
AcDb3dPolylineVertex
 10
92.6819
 20
-17.6
 30
0.0
 70
    32
  0
VERTEX
  5
4731
330
429B
100
AcDbEntity
  8
242
  6
Continuous
100
AcDbVertex
100
AcDb3dPolylineVertex
 10
92.5595
 20
-17.7379
 30
0.0
 70
    32
  0
VERTEX
  5
4732
330
429B
100
AcDbEntity
  8
242
  6
Continuous
100
AcDbVertex
100
AcDb3dPolylineVertex
 10
92.4238
 20
-17.8728
 30
0.0
 70
    32
  0
VERTEX
  5
4733
330
429B
100
AcDbEntity
  8
242
  6
Continuous
100
AcDbVertex
100
AcDb3dPolylineVertex
 10
92.275
 20
-18.0041
 30
0.0
 70
    32
  0
VERTEX
  5
4734
330
429B
100
AcDbEntity
  8
242
  6
Continuous
100
AcDbVertex
100
AcDb3dPolylineVertex
 10
92.11350000000001
 20
-18.1316
 30
0.0
 70
    32
  0
VERTEX
  5
4735
330
429B
100
AcDbEntity
  8
242
  6
Continuous
100
AcDbVertex
100
AcDb3dPolylineVertex
 10
91.9397
 20
-18.255
 30
0.0
 70
    32
  0
VERTEX
  5
4736
330
429B
100
AcDbEntity
  8
242
  6
Continuous
100
AcDbVertex
100
AcDb3dPolylineVertex
 10
91.75400000000001
 20
-18.374
 30
0.0
 70
    32
  0
VERTEX
  5
4737
330
429B
100
AcDbEntity
  8
242
  6
Continuous
100
AcDbVertex
100
AcDb3dPolylineVertex
 10
91.5568
 20
-18.4882
 30
0.0
 70
    32
  0
VERTEX
  5
4738
330
429B
100
AcDbEntity
  8
242
  6
Continuous
100
AcDbVertex
100
AcDb3dPolylineVertex
 10
91.34869999999999
 20
-18.5976
 30
0.0
 70
    32
  0
VERTEX
  5
4739
330
429B
100
AcDbEntity
  8
242
  6
Continuous
100
AcDbVertex
100
AcDb3dPolylineVertex
 10
91.1301
 20
-18.7016
 30
0.0
 70
    32
  0
VERTEX
  5
473A
330
429B
100
AcDbEntity
  8
242
  6
Continuous
100
AcDbVertex
100
AcDb3dPolylineVertex
 10
90.90149999999999
 20
-18.8002
 30
0.0
 70
    32
  0
VERTEX
  5
473B
330
429B
100
AcDbEntity
  8
242
  6
Continuous
100
AcDbVertex
100
AcDb3dPolylineVertex
 10
90.66349999999999
 20
-18.8931
 30
0.0
 70
    32
  0
VERTEX
  5
473C
330
429B
100
AcDbEntity
  8
242
  6
Continuous
100
AcDbVertex
100
AcDb3dPolylineVertex
 10
90.41679999999999
 20
-18.98
 30
0.0
 70
    32
  0
VERTEX
  5
473D
330
429B
100
AcDbEntity
  8
242
  6
Continuous
100
AcDbVertex
100
AcDb3dPolylineVertex
 10
90.1617
 20
-19.0607
 30
0.0
 70
    32
  0
VERTEX
  5
473E
330
429B
100
AcDbEntity
  8
242
  6
Continuous
100
AcDbVertex
100
AcDb3dPolylineVertex
 10
89.8991
 20
-19.1351
 30
0.0
 70
    32
  0
VERTEX
  5
473F
330
429B
100
AcDbEntity
  8
242
  6
Continuous
100
AcDbVertex
100
AcDb3dPolylineVertex
 10
89.62949999999997
 20
-19.203
 30
0.0
 70
    32
  0
VERTEX
  5
4740
330
429B
100
AcDbEntity
  8
242
  6
Continuous
100
AcDbVertex
100
AcDb3dPolylineVertex
 10
89.35349999999997
 20
-19.2641
 30
0.0
 70
    32
  0
VERTEX
  5
4741
330
429B
100
AcDbEntity
  8
242
  6
Continuous
100
AcDbVertex
100
AcDb3dPolylineVertex
 10
89.07189999999998
 20
-19.3185
 30
0.0
 70
    32
  0
VERTEX
  5
4742
330
429B
100
AcDbEntity
  8
242
  6
Continuous
100
AcDbVertex
100
AcDb3dPolylineVertex
 10
88.78519999999998
 20
-19.3658
 30
0.0
 70
    32
  0
VERTEX
  5
4743
330
429B
100
AcDbEntity
  8
242
  6
Continuous
100
AcDbVertex
100
AcDb3dPolylineVertex
 10
88.49429999999998
 20
-19.4061
 30
0.0
 70
    32
  0
VERTEX
  5
4744
330
429B
100
AcDbEntity
  8
242
  6
Continuous
100
AcDbVertex
100
AcDb3dPolylineVertex
 10
88.19979999999999
 20
-19.4391
 30
0.0
 70
    32
  0
VERTEX
  5
4745
330
429B
100
AcDbEntity
  8
242
  6
Continuous
100
AcDbVertex
100
AcDb3dPolylineVertex
 10
87.9024
 20
-19.4649
 30
0.0
 70
    32
  0
VERTEX
  5
4746
330
429B
100
AcDbEntity
  8
242
  6
Continuous
100
AcDbVertex
100
AcDb3dPolylineVertex
 10
87.60279999999999
 20
-19.4834
 30
0.0
 70
    32
  0
VERTEX
  5
4747
330
429B
100
AcDbEntity
  8
242
  6
Continuous
100
AcDbVertex
100
AcDb3dPolylineVertex
 10
87.3018
 20
-19.4945
 30
0.0
 70
    32
  0
VERTEX
  5
4748
330
429B
100
AcDbEntity
  8
242
  6
Continuous
100
AcDbVertex
100
AcDb3dPolylineVertex
 10
87.0
 20
-19.4982
 30
0.0
 70
    32
  0
VERTEX
  5
4749
330
429B
100
AcDbEntity
  8
242
  6
Continuous
100
AcDbVertex
100
AcDb3dPolylineVertex
 10
86.69819999999999
 20
-19.4945
 30
0.0
 70
    32
  0
VERTEX
  5
474A
330
429B
100
AcDbEntity
  8
242
  6
Continuous
100
AcDbVertex
100
AcDb3dPolylineVertex
 10
86.3972
 20
-19.4834
 30
0.0
 70
    32
  0
VERTEX
  5
474B
330
429B
100
AcDbEntity
  8
242
  6
Continuous
100
AcDbVertex
100
AcDb3dPolylineVertex
 10
86.09759999999999
 20
-19.4649
 30
0.0
 70
    32
  0
VERTEX
  5
474C
330
429B
100
AcDbEntity
  8
242
  6
Continuous
100
AcDbVertex
100
AcDb3dPolylineVertex
 10
85.80020000000002
 20
-19.4391
 30
0.0
 70
    32
  0
VERTEX
  5
474D
330
429B
100
AcDbEntity
  8
242
  6
Continuous
100
AcDbVertex
100
AcDb3dPolylineVertex
 10
85.5057
 20
-19.4061
 30
0.0
 70
    32
  0
VERTEX
  5
474E
330
429B
100
AcDbEntity
  8
242
  6
Continuous
100
AcDbVertex
100
AcDb3dPolylineVertex
 10
85.21469999999998
 20
-19.3658
 30
0.0
 70
    32
  0
VERTEX
  5
474F
330
429B
100
AcDbEntity
  8
242
  6
Continuous
100
AcDbVertex
100
AcDb3dPolylineVertex
 10
84.9281
 20
-19.3185
 30
0.0
 70
    32
  0
VERTEX
  5
4750
330
429B
100
AcDbEntity
  8
242
  6
Continuous
100
AcDbVertex
100
AcDb3dPolylineVertex
 10
84.6465
 20
-19.2641
 30
0.0
 70
    32
  0
VERTEX
  5
4751
330
429B
100
AcDbEntity
  8
242
  6
Continuous
100
AcDbVertex
100
AcDb3dPolylineVertex
 10
84.37050000000002
 20
-19.203
 30
0.0
 70
    32
  0
VERTEX
  5
4752
330
429B
100
AcDbEntity
  8
242
  6
Continuous
100
AcDbVertex
100
AcDb3dPolylineVertex
 10
84.1009
 20
-19.1351
 30
0.0
 70
    32
  0
VERTEX
  5
4753
330
429B
100
AcDbEntity
  8
242
  6
Continuous
100
AcDbVertex
100
AcDb3dPolylineVertex
 10
83.83830000000001
 20
-19.0607
 30
0.0
 70
    32
  0
VERTEX
  5
4754
330
429B
100
AcDbEntity
  8
242
  6
Continuous
100
AcDbVertex
100
AcDb3dPolylineVertex
 10
83.5832
 20
-18.98
 30
0.0
 70
    32
  0
VERTEX
  5
4755
330
429B
100
AcDbEntity
  8
242
  6
Continuous
100
AcDbVertex
100
AcDb3dPolylineVertex
 10
83.3364
 20
-18.8931
 30
0.0
 70
    32
  0
VERTEX
  5
4756
330
429B
100
AcDbEntity
  8
242
  6
Continuous
100
AcDbVertex
100
AcDb3dPolylineVertex
 10
83.0985
 20
-18.8002
 30
0.0
 70
    32
  0
VERTEX
  5
4757
330
429B
100
AcDbEntity
  8
242
  6
Continuous
100
AcDbVertex
100
AcDb3dPolylineVertex
 10
82.86990000000001
 20
-18.7016
 30
0.0
 70
    32
  0
VERTEX
  5
4758
330
429B
100
AcDbEntity
  8
242
  6
Continuous
100
AcDbVertex
100
AcDb3dPolylineVertex
 10
82.6513
 20
-18.5976
 30
0.0
 70
    32
  0
VERTEX
  5
4759
330
429B
100
AcDbEntity
  8
242
  6
Continuous
100
AcDbVertex
100
AcDb3dPolylineVertex
 10
82.4431
 20
-18.4882
 30
0.0
 70
    32
  0
VERTEX
  5
475A
330
429B
100
AcDbEntity
  8
242
  6
Continuous
100
AcDbVertex
100
AcDb3dPolylineVertex
 10
82.246
 20
-18.374
 30
0.0
 70
    32
  0
VERTEX
  5
475B
330
429B
100
AcDbEntity
  8
242
  6
Continuous
100
AcDbVertex
100
AcDb3dPolylineVertex
 10
82.0603
 20
-18.255
 30
0.0
 70
    32
  0
VERTEX
  5
475C
330
429B
100
AcDbEntity
  8
242
  6
Continuous
100
AcDbVertex
100
AcDb3dPolylineVertex
 10
81.8865
 20
-18.1316
 30
0.0
 70
    32
  0
VERTEX
  5
475D
330
429B
100
AcDbEntity
  8
242
  6
Continuous
100
AcDbVertex
100
AcDb3dPolylineVertex
 10
81.72499999999997
 20
-18.0041
 30
0.0
 70
    32
  0
VERTEX
  5
475E
330
429B
100
AcDbEntity
  8
242
  6
Continuous
100
AcDbVertex
100
AcDb3dPolylineVertex
 10
81.57619999999999
 20
-17.8728
 30
0.0
 70
    32
  0
VERTEX
  5
475F
330
429B
100
AcDbEntity
  8
242
  6
Continuous
100
AcDbVertex
100
AcDb3dPolylineVertex
 10
81.4405
 20
-17.7379
 30
0.0
 70
    32
  0
VERTEX
  5
4760
330
429B
100
AcDbEntity
  8
242
  6
Continuous
100
AcDbVertex
100
AcDb3dPolylineVertex
 10
81.31809999999999
 20
-17.6
 30
0.0
 70
    32
  0
VERTEX
  5
4761
330
429B
100
AcDbEntity
  8
242
  6
Continuous
100
AcDbVertex
100
AcDb3dPolylineVertex
 10
81.2095
 20
-17.4591
 30
0.0
 70
    32
  0
VERTEX
  5
4762
330
429B
100
AcDbEntity
  8
242
  6
Continuous
100
AcDbVertex
100
AcDb3dPolylineVertex
 10
81.1148
 20
-17.3158
 30
0.0
 70
    32
  0
VERTEX
  5
4763
330
429B
100
AcDbEntity
  8
242
  6
Continuous
100
AcDbVertex
100
AcDb3dPolylineVertex
 10
81.03430000000001
 20
-17.1704
 30
0.0
 70
    32
  0
VERTEX
  5
4764
330
429B
100
AcDbEntity
  8
242
  6
Continuous
100
AcDbVertex
100
AcDb3dPolylineVertex
 10
80.96819999999999
 20
-17.0231
 30
0.0
 70
    32
  0
VERTEX
  5
4765
330
429B
100
AcDbEntity
  8
242
  6
Continuous
100
AcDbVertex
100
AcDb3dPolylineVertex
 10
80.9166
 20
-16.8744
 30
0.0
 70
    32
  0
VERTEX
  5
4766
330
429B
100
AcDbEntity
  8
242
  6
Continuous
100
AcDbVertex
100
AcDb3dPolylineVertex
 10
80.8796
 20
-16.7246
 30
0.0
 70
    32
  0
VERTEX
  5
4767
330
429B
100
AcDbEntity
  8
242
  6
Continuous
100
AcDbVertex
100
AcDb3dPolylineVertex
 10
80.85739999999999
 20
-16.5741
 30
0.0
 70
    32
  0
VERTEX
  5
4768
330
429B
100
AcDbEntity
  8
242
  6
Continuous
100
AcDbVertex
100
AcDb3dPolylineVertex
 10
80.84999999999999
 20
-16.4232
 30
0.0
 70
    32
  0
SEQEND
  5
4769
330
429B
100
AcDbEntity
  8
242
  6
Continuous
  0
POLYLINE
  5
429C
330
4D0A
100
AcDbEntity
  8
242
  6
Continuous
100
AcDb3dPolyline
 66
     1
 10
0.0
 20
0.0
 30
0.0
 70
     8
  0
VERTEX
  5
476A
330
429C
100
AcDbEntity
  8
242
  6
Continuous
100
AcDbVertex
100
AcDb3dPolylineVertex
 10
105.85
 20
-16.4232
 30
0.0
 70
    32
  0
VERTEX
  5
476B
330
429C
100
AcDbEntity
  8
242
  6
Continuous
100
AcDbVertex
100
AcDb3dPolylineVertex
 10
105.857
 20
-16.2723
 30
0.0
 70
    32
  0
VERTEX
  5
476C
330
429C
100
AcDbEntity
  8
242
  6
Continuous
100
AcDbVertex
100
AcDb3dPolylineVertex
 10
105.88
 20
-16.1218
 30
0.0
 70
    32
  0
VERTEX
  5
476D
330
429C
100
AcDbEntity
  8
242
  6
Continuous
100
AcDbVertex
100
AcDb3dPolylineVertex
 10
105.917
 20
-15.972
 30
0.0
 70
    32
  0
VERTEX
  5
476E
330
429C
100
AcDbEntity
  8
242
  6
Continuous
100
AcDbVertex
100
AcDb3dPolylineVertex
 10
105.968
 20
-15.8233
 30
0.0
 70
    32
  0
VERTEX
  5
476F
330
429C
100
AcDbEntity
  8
242
  6
Continuous
100
AcDbVertex
100
AcDb3dPolylineVertex
 10
106.034
 20
-15.676
 30
0.0
 70
    32
  0
VERTEX
  5
4770
330
429C
100
AcDbEntity
  8
242
  6
Continuous
100
AcDbVertex
100
AcDb3dPolylineVertex
 10
106.115
 20
-15.5306
 30
0.0
 70
    32
  0
VERTEX
  5
4771
330
429C
100
AcDbEntity
  8
242
  6
Continuous
100
AcDbVertex
100
AcDb3dPolylineVertex
 10
106.21
 20
-15.3873
 30
0.0
 70
    32
  0
VERTEX
  5
4772
330
429C
100
AcDbEntity
  8
242
  6
Continuous
100
AcDbVertex
100
AcDb3dPolylineVertex
 10
106.318
 20
-15.2465
 30
0.0
 70
    32
  0
VERTEX
  5
4773
330
429C
100
AcDbEntity
  8
242
  6
Continuous
100
AcDbVertex
100
AcDb3dPolylineVertex
 10
106.44
 20
-15.1085
 30
0.0
 70
    32
  0
VERTEX
  5
4774
330
429C
100
AcDbEntity
  8
242
  6
Continuous
100
AcDbVertex
100
AcDb3dPolylineVertex
 10
106.576
 20
-14.9737
 30
0.0
 70
    32
  0
VERTEX
  5
4775
330
429C
100
AcDbEntity
  8
242
  6
Continuous
100
AcDbVertex
100
AcDb3dPolylineVertex
 10
106.725
 20
-14.8423
 30
0.0
 70
    32
  0
VERTEX
  5
4776
330
429C
100
AcDbEntity
  8
242
  6
Continuous
100
AcDbVertex
100
AcDb3dPolylineVertex
 10
106.886
 20
-14.7148
 30
0.0
 70
    32
  0
VERTEX
  5
4777
330
429C
100
AcDbEntity
  8
242
  6
Continuous
100
AcDbVertex
100
AcDb3dPolylineVertex
 10
107.06
 20
-14.5914
 30
0.0
 70
    32
  0
VERTEX
  5
4778
330
429C
100
AcDbEntity
  8
242
  6
Continuous
100
AcDbVertex
100
AcDb3dPolylineVertex
 10
107.246
 20
-14.4724
 30
0.0
 70
    32
  0
VERTEX
  5
4779
330
429C
100
AcDbEntity
  8
242
  6
Continuous
100
AcDbVertex
100
AcDb3dPolylineVertex
 10
107.443
 20
-14.3582
 30
0.0
 70
    32
  0
VERTEX
  5
477A
330
429C
100
AcDbEntity
  8
242
  6
Continuous
100
AcDbVertex
100
AcDb3dPolylineVertex
 10
107.651
 20
-14.2489
 30
0.0
 70
    32
  0
VERTEX
  5
477B
330
429C
100
AcDbEntity
  8
242
  6
Continuous
100
AcDbVertex
100
AcDb3dPolylineVertex
 10
107.87
 20
-14.1448
 30
0.0
 70
    32
  0
VERTEX
  5
477C
330
429C
100
AcDbEntity
  8
242
  6
Continuous
100
AcDbVertex
100
AcDb3dPolylineVertex
 10
108.098
 20
-14.0462
 30
0.0
 70
    32
  0
VERTEX
  5
477D
330
429C
100
AcDbEntity
  8
242
  6
Continuous
100
AcDbVertex
100
AcDb3dPolylineVertex
 10
108.336
 20
-13.9533
 30
0.0
 70
    32
  0
VERTEX
  5
477E
330
429C
100
AcDbEntity
  8
242
  6
Continuous
100
AcDbVertex
100
AcDb3dPolylineVertex
 10
108.583
 20
-13.8664
 30
0.0
 70
    32
  0
VERTEX
  5
477F
330
429C
100
AcDbEntity
  8
242
  6
Continuous
100
AcDbVertex
100
AcDb3dPolylineVertex
 10
108.838
 20
-13.7857
 30
0.0
 70
    32
  0
VERTEX
  5
4780
330
429C
100
AcDbEntity
  8
242
  6
Continuous
100
AcDbVertex
100
AcDb3dPolylineVertex
 10
109.101
 20
-13.7113
 30
0.0
 70
    32
  0
VERTEX
  5
4781
330
429C
100
AcDbEntity
  8
242
  6
Continuous
100
AcDbVertex
100
AcDb3dPolylineVertex
 10
109.371
 20
-13.6434
 30
0.0
 70
    32
  0
VERTEX
  5
4782
330
429C
100
AcDbEntity
  8
242
  6
Continuous
100
AcDbVertex
100
AcDb3dPolylineVertex
 10
109.646
 20
-13.5823
 30
0.0
 70
    32
  0
VERTEX
  5
4783
330
429C
100
AcDbEntity
  8
242
  6
Continuous
100
AcDbVertex
100
AcDb3dPolylineVertex
 10
109.928
 20
-13.528
 30
0.0
 70
    32
  0
VERTEX
  5
4784
330
429C
100
AcDbEntity
  8
242
  6
Continuous
100
AcDbVertex
100
AcDb3dPolylineVertex
 10
110.215
 20
-13.4806
 30
0.0
 70
    32
  0
VERTEX
  5
4785
330
429C
100
AcDbEntity
  8
242
  6
Continuous
100
AcDbVertex
100
AcDb3dPolylineVertex
 10
110.506
 20
-13.4404
 30
0.0
 70
    32
  0
VERTEX
  5
4786
330
429C
100
AcDbEntity
  8
242
  6
Continuous
100
AcDbVertex
100
AcDb3dPolylineVertex
 10
110.8
 20
-13.4073
 30
0.0
 70
    32
  0
VERTEX
  5
4787
330
429C
100
AcDbEntity
  8
242
  6
Continuous
100
AcDbVertex
100
AcDb3dPolylineVertex
 10
111.098
 20
-13.3815
 30
0.0
 70
    32
  0
VERTEX
  5
4788
330
429C
100
AcDbEntity
  8
242
  6
Continuous
100
AcDbVertex
100
AcDb3dPolylineVertex
 10
111.397
 20
-13.363
 30
0.0
 70
    32
  0
VERTEX
  5
4789
330
429C
100
AcDbEntity
  8
242
  6
Continuous
100
AcDbVertex
100
AcDb3dPolylineVertex
 10
111.698
 20
-13.3519
 30
0.0
 70
    32
  0
VERTEX
  5
478A
330
429C
100
AcDbEntity
  8
242
  6
Continuous
100
AcDbVertex
100
AcDb3dPolylineVertex
 10
112.0
 20
-13.3482
 30
0.0
 70
    32
  0
VERTEX
  5
478B
330
429C
100
AcDbEntity
  8
242
  6
Continuous
100
AcDbVertex
100
AcDb3dPolylineVertex
 10
112.302
 20
-13.3519
 30
0.0
 70
    32
  0
VERTEX
  5
478C
330
429C
100
AcDbEntity
  8
242
  6
Continuous
100
AcDbVertex
100
AcDb3dPolylineVertex
 10
112.603
 20
-13.363
 30
0.0
 70
    32
  0
VERTEX
  5
478D
330
429C
100
AcDbEntity
  8
242
  6
Continuous
100
AcDbVertex
100
AcDb3dPolylineVertex
 10
112.902
 20
-13.3815
 30
0.0
 70
    32
  0
VERTEX
  5
478E
330
429C
100
AcDbEntity
  8
242
  6
Continuous
100
AcDbVertex
100
AcDb3dPolylineVertex
 10
113.2
 20
-13.4073
 30
0.0
 70
    32
  0
VERTEX
  5
478F
330
429C
100
AcDbEntity
  8
242
  6
Continuous
100
AcDbVertex
100
AcDb3dPolylineVertex
 10
113.494
 20
-13.4404
 30
0.0
 70
    32
  0
VERTEX
  5
4790
330
429C
100
AcDbEntity
  8
242
  6
Continuous
100
AcDbVertex
100
AcDb3dPolylineVertex
 10
113.785
 20
-13.4806
 30
0.0
 70
    32
  0
VERTEX
  5
4791
330
429C
100
AcDbEntity
  8
242
  6
Continuous
100
AcDbVertex
100
AcDb3dPolylineVertex
 10
114.072
 20
-13.528
 30
0.0
 70
    32
  0
VERTEX
  5
4792
330
429C
100
AcDbEntity
  8
242
  6
Continuous
100
AcDbVertex
100
AcDb3dPolylineVertex
 10
114.354
 20
-13.5823
 30
0.0
 70
    32
  0
VERTEX
  5
4793
330
429C
100
AcDbEntity
  8
242
  6
Continuous
100
AcDbVertex
100
AcDb3dPolylineVertex
 10
114.629
 20
-13.6434
 30
0.0
 70
    32
  0
VERTEX
  5
4794
330
429C
100
AcDbEntity
  8
242
  6
Continuous
100
AcDbVertex
100
AcDb3dPolylineVertex
 10
114.899
 20
-13.7113
 30
0.0
 70
    32
  0
VERTEX
  5
4795
330
429C
100
AcDbEntity
  8
242
  6
Continuous
100
AcDbVertex
100
AcDb3dPolylineVertex
 10
115.162
 20
-13.7857
 30
0.0
 70
    32
  0
VERTEX
  5
4796
330
429C
100
AcDbEntity
  8
242
  6
Continuous
100
AcDbVertex
100
AcDb3dPolylineVertex
 10
115.417
 20
-13.8664
 30
0.0
 70
    32
  0
VERTEX
  5
4797
330
429C
100
AcDbEntity
  8
242
  6
Continuous
100
AcDbVertex
100
AcDb3dPolylineVertex
 10
115.664
 20
-13.9533
 30
0.0
 70
    32
  0
VERTEX
  5
4798
330
429C
100
AcDbEntity
  8
242
  6
Continuous
100
AcDbVertex
100
AcDb3dPolylineVertex
 10
115.902
 20
-14.0462
 30
0.0
 70
    32
  0
VERTEX
  5
4799
330
429C
100
AcDbEntity
  8
242
  6
Continuous
100
AcDbVertex
100
AcDb3dPolylineVertex
 10
116.13
 20
-14.1448
 30
0.0
 70
    32
  0
VERTEX
  5
479A
330
429C
100
AcDbEntity
  8
242
  6
Continuous
100
AcDbVertex
100
AcDb3dPolylineVertex
 10
116.349
 20
-14.2489
 30
0.0
 70
    32
  0
VERTEX
  5
479B
330
429C
100
AcDbEntity
  8
242
  6
Continuous
100
AcDbVertex
100
AcDb3dPolylineVertex
 10
116.557
 20
-14.3582
 30
0.0
 70
    32
  0
VERTEX
  5
479C
330
429C
100
AcDbEntity
  8
242
  6
Continuous
100
AcDbVertex
100
AcDb3dPolylineVertex
 10
116.754
 20
-14.4724
 30
0.0
 70
    32
  0
VERTEX
  5
479D
330
429C
100
AcDbEntity
  8
242
  6
Continuous
100
AcDbVertex
100
AcDb3dPolylineVertex
 10
116.94
 20
-14.5914
 30
0.0
 70
    32
  0
VERTEX
  5
479E
330
429C
100
AcDbEntity
  8
242
  6
Continuous
100
AcDbVertex
100
AcDb3dPolylineVertex
 10
117.114
 20
-14.7148
 30
0.0
 70
    32
  0
VERTEX
  5
479F
330
429C
100
AcDbEntity
  8
242
  6
Continuous
100
AcDbVertex
100
AcDb3dPolylineVertex
 10
117.275
 20
-14.8423
 30
0.0
 70
    32
  0
VERTEX
  5
47A0
330
429C
100
AcDbEntity
  8
242
  6
Continuous
100
AcDbVertex
100
AcDb3dPolylineVertex
 10
117.424
 20
-14.9737
 30
0.0
 70
    32
  0
VERTEX
  5
47A1
330
429C
100
AcDbEntity
  8
242
  6
Continuous
100
AcDbVertex
100
AcDb3dPolylineVertex
 10
117.56
 20
-15.1085
 30
0.0
 70
    32
  0
VERTEX
  5
47A2
330
429C
100
AcDbEntity
  8
242
  6
Continuous
100
AcDbVertex
100
AcDb3dPolylineVertex
 10
117.682
 20
-15.2465
 30
0.0
 70
    32
  0
VERTEX
  5
47A3
330
429C
100
AcDbEntity
  8
242
  6
Continuous
100
AcDbVertex
100
AcDb3dPolylineVertex
 10
117.79
 20
-15.3873
 30
0.0
 70
    32
  0
VERTEX
  5
47A4
330
429C
100
AcDbEntity
  8
242
  6
Continuous
100
AcDbVertex
100
AcDb3dPolylineVertex
 10
117.885
 20
-15.5306
 30
0.0
 70
    32
  0
VERTEX
  5
47A5
330
429C
100
AcDbEntity
  8
242
  6
Continuous
100
AcDbVertex
100
AcDb3dPolylineVertex
 10
117.966
 20
-15.676
 30
0.0
 70
    32
  0
VERTEX
  5
47A6
330
429C
100
AcDbEntity
  8
242
  6
Continuous
100
AcDbVertex
100
AcDb3dPolylineVertex
 10
118.032
 20
-15.8233
 30
0.0
 70
    32
  0
VERTEX
  5
47A7
330
429C
100
AcDbEntity
  8
242
  6
Continuous
100
AcDbVertex
100
AcDb3dPolylineVertex
 10
118.083
 20
-15.972
 30
0.0
 70
    32
  0
VERTEX
  5
47A8
330
429C
100
AcDbEntity
  8
242
  6
Continuous
100
AcDbVertex
100
AcDb3dPolylineVertex
 10
118.12
 20
-16.1218
 30
0.0
 70
    32
  0
VERTEX
  5
47A9
330
429C
100
AcDbEntity
  8
242
  6
Continuous
100
AcDbVertex
100
AcDb3dPolylineVertex
 10
118.143
 20
-16.2723
 30
0.0
 70
    32
  0
VERTEX
  5
47AA
330
429C
100
AcDbEntity
  8
242
  6
Continuous
100
AcDbVertex
100
AcDb3dPolylineVertex
 10
118.15
 20
-16.4232
 30
0.0
 70
    32
  0
VERTEX
  5
47AB
330
429C
100
AcDbEntity
  8
242
  6
Continuous
100
AcDbVertex
100
AcDb3dPolylineVertex
 10
118.143
 20
-16.5741
 30
0.0
 70
    32
  0
VERTEX
  5
47AC
330
429C
100
AcDbEntity
  8
242
  6
Continuous
100
AcDbVertex
100
AcDb3dPolylineVertex
 10
118.12
 20
-16.7246
 30
0.0
 70
    32
  0
VERTEX
  5
47AD
330
429C
100
AcDbEntity
  8
242
  6
Continuous
100
AcDbVertex
100
AcDb3dPolylineVertex
 10
118.083
 20
-16.8744
 30
0.0
 70
    32
  0
VERTEX
  5
47AE
330
429C
100
AcDbEntity
  8
242
  6
Continuous
100
AcDbVertex
100
AcDb3dPolylineVertex
 10
118.032
 20
-17.0231
 30
0.0
 70
    32
  0
VERTEX
  5
47AF
330
429C
100
AcDbEntity
  8
242
  6
Continuous
100
AcDbVertex
100
AcDb3dPolylineVertex
 10
117.966
 20
-17.1704
 30
0.0
 70
    32
  0
VERTEX
  5
47B0
330
429C
100
AcDbEntity
  8
242
  6
Continuous
100
AcDbVertex
100
AcDb3dPolylineVertex
 10
117.885
 20
-17.3158
 30
0.0
 70
    32
  0
VERTEX
  5
47B1
330
429C
100
AcDbEntity
  8
242
  6
Continuous
100
AcDbVertex
100
AcDb3dPolylineVertex
 10
117.79
 20
-17.4591
 30
0.0
 70
    32
  0
VERTEX
  5
47B2
330
429C
100
AcDbEntity
  8
242
  6
Continuous
100
AcDbVertex
100
AcDb3dPolylineVertex
 10
117.682
 20
-17.6
 30
0.0
 70
    32
  0
VERTEX
  5
47B3
330
429C
100
AcDbEntity
  8
242
  6
Continuous
100
AcDbVertex
100
AcDb3dPolylineVertex
 10
117.56
 20
-17.7379
 30
0.0
 70
    32
  0
VERTEX
  5
47B4
330
429C
100
AcDbEntity
  8
242
  6
Continuous
100
AcDbVertex
100
AcDb3dPolylineVertex
 10
117.424
 20
-17.8728
 30
0.0
 70
    32
  0
VERTEX
  5
47B5
330
429C
100
AcDbEntity
  8
242
  6
Continuous
100
AcDbVertex
100
AcDb3dPolylineVertex
 10
117.275
 20
-18.0041
 30
0.0
 70
    32
  0
VERTEX
  5
47B6
330
429C
100
AcDbEntity
  8
242
  6
Continuous
100
AcDbVertex
100
AcDb3dPolylineVertex
 10
117.114
 20
-18.1316
 30
0.0
 70
    32
  0
VERTEX
  5
47B7
330
429C
100
AcDbEntity
  8
242
  6
Continuous
100
AcDbVertex
100
AcDb3dPolylineVertex
 10
116.94
 20
-18.255
 30
0.0
 70
    32
  0
VERTEX
  5
47B8
330
429C
100
AcDbEntity
  8
242
  6
Continuous
100
AcDbVertex
100
AcDb3dPolylineVertex
 10
116.754
 20
-18.374
 30
0.0
 70
    32
  0
VERTEX
  5
47B9
330
429C
100
AcDbEntity
  8
242
  6
Continuous
100
AcDbVertex
100
AcDb3dPolylineVertex
 10
116.557
 20
-18.4882
 30
0.0
 70
    32
  0
VERTEX
  5
47BA
330
429C
100
AcDbEntity
  8
242
  6
Continuous
100
AcDbVertex
100
AcDb3dPolylineVertex
 10
116.349
 20
-18.5976
 30
0.0
 70
    32
  0
VERTEX
  5
47BB
330
429C
100
AcDbEntity
  8
242
  6
Continuous
100
AcDbVertex
100
AcDb3dPolylineVertex
 10
116.13
 20
-18.7016
 30
0.0
 70
    32
  0
VERTEX
  5
47BC
330
429C
100
AcDbEntity
  8
242
  6
Continuous
100
AcDbVertex
100
AcDb3dPolylineVertex
 10
115.902
 20
-18.8002
 30
0.0
 70
    32
  0
VERTEX
  5
47BD
330
429C
100
AcDbEntity
  8
242
  6
Continuous
100
AcDbVertex
100
AcDb3dPolylineVertex
 10
115.664
 20
-18.8931
 30
0.0
 70
    32
  0
VERTEX
  5
47BE
330
429C
100
AcDbEntity
  8
242
  6
Continuous
100
AcDbVertex
100
AcDb3dPolylineVertex
 10
115.417
 20
-18.98
 30
0.0
 70
    32
  0
VERTEX
  5
47BF
330
429C
100
AcDbEntity
  8
242
  6
Continuous
100
AcDbVertex
100
AcDb3dPolylineVertex
 10
115.162
 20
-19.0607
 30
0.0
 70
    32
  0
VERTEX
  5
47C0
330
429C
100
AcDbEntity
  8
242
  6
Continuous
100
AcDbVertex
100
AcDb3dPolylineVertex
 10
114.899
 20
-19.1351
 30
0.0
 70
    32
  0
VERTEX
  5
47C1
330
429C
100
AcDbEntity
  8
242
  6
Continuous
100
AcDbVertex
100
AcDb3dPolylineVertex
 10
114.629
 20
-19.203
 30
0.0
 70
    32
  0
VERTEX
  5
47C2
330
429C
100
AcDbEntity
  8
242
  6
Continuous
100
AcDbVertex
100
AcDb3dPolylineVertex
 10
114.354
 20
-19.2641
 30
0.0
 70
    32
  0
VERTEX
  5
47C3
330
429C
100
AcDbEntity
  8
242
  6
Continuous
100
AcDbVertex
100
AcDb3dPolylineVertex
 10
114.072
 20
-19.3185
 30
0.0
 70
    32
  0
VERTEX
  5
47C4
330
429C
100
AcDbEntity
  8
242
  6
Continuous
100
AcDbVertex
100
AcDb3dPolylineVertex
 10
113.785
 20
-19.3658
 30
0.0
 70
    32
  0
VERTEX
  5
47C5
330
429C
100
AcDbEntity
  8
242
  6
Continuous
100
AcDbVertex
100
AcDb3dPolylineVertex
 10
113.494
 20
-19.4061
 30
0.0
 70
    32
  0
VERTEX
  5
47C6
330
429C
100
AcDbEntity
  8
242
  6
Continuous
100
AcDbVertex
100
AcDb3dPolylineVertex
 10
113.2
 20
-19.4391
 30
0.0
 70
    32
  0
VERTEX
  5
47C7
330
429C
100
AcDbEntity
  8
242
  6
Continuous
100
AcDbVertex
100
AcDb3dPolylineVertex
 10
112.902
 20
-19.4649
 30
0.0
 70
    32
  0
VERTEX
  5
47C8
330
429C
100
AcDbEntity
  8
242
  6
Continuous
100
AcDbVertex
100
AcDb3dPolylineVertex
 10
112.603
 20
-19.4834
 30
0.0
 70
    32
  0
VERTEX
  5
47C9
330
429C
100
AcDbEntity
  8
242
  6
Continuous
100
AcDbVertex
100
AcDb3dPolylineVertex
 10
112.302
 20
-19.4945
 30
0.0
 70
    32
  0
VERTEX
  5
47CA
330
429C
100
AcDbEntity
  8
242
  6
Continuous
100
AcDbVertex
100
AcDb3dPolylineVertex
 10
112.0
 20
-19.4982
 30
0.0
 70
    32
  0
VERTEX
  5
47CB
330
429C
100
AcDbEntity
  8
242
  6
Continuous
100
AcDbVertex
100
AcDb3dPolylineVertex
 10
111.698
 20
-19.4945
 30
0.0
 70
    32
  0
VERTEX
  5
47CC
330
429C
100
AcDbEntity
  8
242
  6
Continuous
100
AcDbVertex
100
AcDb3dPolylineVertex
 10
111.397
 20
-19.4834
 30
0.0
 70
    32
  0
VERTEX
  5
47CD
330
429C
100
AcDbEntity
  8
242
  6
Continuous
100
AcDbVertex
100
AcDb3dPolylineVertex
 10
111.098
 20
-19.4649
 30
0.0
 70
    32
  0
VERTEX
  5
47CE
330
429C
100
AcDbEntity
  8
242
  6
Continuous
100
AcDbVertex
100
AcDb3dPolylineVertex
 10
110.8
 20
-19.4391
 30
0.0
 70
    32
  0
VERTEX
  5
47CF
330
429C
100
AcDbEntity
  8
242
  6
Continuous
100
AcDbVertex
100
AcDb3dPolylineVertex
 10
110.506
 20
-19.4061
 30
0.0
 70
    32
  0
VERTEX
  5
47D0
330
429C
100
AcDbEntity
  8
242
  6
Continuous
100
AcDbVertex
100
AcDb3dPolylineVertex
 10
110.215
 20
-19.3658
 30
0.0
 70
    32
  0
VERTEX
  5
47D1
330
429C
100
AcDbEntity
  8
242
  6
Continuous
100
AcDbVertex
100
AcDb3dPolylineVertex
 10
109.928
 20
-19.3185
 30
0.0
 70
    32
  0
VERTEX
  5
47D2
330
429C
100
AcDbEntity
  8
242
  6
Continuous
100
AcDbVertex
100
AcDb3dPolylineVertex
 10
109.646
 20
-19.2641
 30
0.0
 70
    32
  0
VERTEX
  5
47D3
330
429C
100
AcDbEntity
  8
242
  6
Continuous
100
AcDbVertex
100
AcDb3dPolylineVertex
 10
109.371
 20
-19.203
 30
0.0
 70
    32
  0
VERTEX
  5
47D4
330
429C
100
AcDbEntity
  8
242
  6
Continuous
100
AcDbVertex
100
AcDb3dPolylineVertex
 10
109.101
 20
-19.1351
 30
0.0
 70
    32
  0
VERTEX
  5
47D5
330
429C
100
AcDbEntity
  8
242
  6
Continuous
100
AcDbVertex
100
AcDb3dPolylineVertex
 10
108.838
 20
-19.0607
 30
0.0
 70
    32
  0
VERTEX
  5
47D6
330
429C
100
AcDbEntity
  8
242
  6
Continuous
100
AcDbVertex
100
AcDb3dPolylineVertex
 10
108.583
 20
-18.98
 30
0.0
 70
    32
  0
VERTEX
  5
47D7
330
429C
100
AcDbEntity
  8
242
  6
Continuous
100
AcDbVertex
100
AcDb3dPolylineVertex
 10
108.336
 20
-18.8931
 30
0.0
 70
    32
  0
VERTEX
  5
47D8
330
429C
100
AcDbEntity
  8
242
  6
Continuous
100
AcDbVertex
100
AcDb3dPolylineVertex
 10
108.098
 20
-18.8002
 30
0.0
 70
    32
  0
VERTEX
  5
47D9
330
429C
100
AcDbEntity
  8
242
  6
Continuous
100
AcDbVertex
100
AcDb3dPolylineVertex
 10
107.87
 20
-18.7016
 30
0.0
 70
    32
  0
VERTEX
  5
47DA
330
429C
100
AcDbEntity
  8
242
  6
Continuous
100
AcDbVertex
100
AcDb3dPolylineVertex
 10
107.651
 20
-18.5976
 30
0.0
 70
    32
  0
VERTEX
  5
47DB
330
429C
100
AcDbEntity
  8
242
  6
Continuous
100
AcDbVertex
100
AcDb3dPolylineVertex
 10
107.443
 20
-18.4882
 30
0.0
 70
    32
  0
VERTEX
  5
47DC
330
429C
100
AcDbEntity
  8
242
  6
Continuous
100
AcDbVertex
100
AcDb3dPolylineVertex
 10
107.246
 20
-18.374
 30
0.0
 70
    32
  0
VERTEX
  5
47DD
330
429C
100
AcDbEntity
  8
242
  6
Continuous
100
AcDbVertex
100
AcDb3dPolylineVertex
 10
107.06
 20
-18.255
 30
0.0
 70
    32
  0
VERTEX
  5
47DE
330
429C
100
AcDbEntity
  8
242
  6
Continuous
100
AcDbVertex
100
AcDb3dPolylineVertex
 10
106.886
 20
-18.1316
 30
0.0
 70
    32
  0
VERTEX
  5
47DF
330
429C
100
AcDbEntity
  8
242
  6
Continuous
100
AcDbVertex
100
AcDb3dPolylineVertex
 10
106.725
 20
-18.0041
 30
0.0
 70
    32
  0
VERTEX
  5
47E0
330
429C
100
AcDbEntity
  8
242
  6
Continuous
100
AcDbVertex
100
AcDb3dPolylineVertex
 10
106.576
 20
-17.8728
 30
0.0
 70
    32
  0
VERTEX
  5
47E1
330
429C
100
AcDbEntity
  8
242
  6
Continuous
100
AcDbVertex
100
AcDb3dPolylineVertex
 10
106.44
 20
-17.7379
 30
0.0
 70
    32
  0
VERTEX
  5
47E2
330
429C
100
AcDbEntity
  8
242
  6
Continuous
100
AcDbVertex
100
AcDb3dPolylineVertex
 10
106.318
 20
-17.6
 30
0.0
 70
    32
  0
VERTEX
  5
47E3
330
429C
100
AcDbEntity
  8
242
  6
Continuous
100
AcDbVertex
100
AcDb3dPolylineVertex
 10
106.21
 20
-17.4591
 30
0.0
 70
    32
  0
VERTEX
  5
47E4
330
429C
100
AcDbEntity
  8
242
  6
Continuous
100
AcDbVertex
100
AcDb3dPolylineVertex
 10
106.115
 20
-17.3158
 30
0.0
 70
    32
  0
VERTEX
  5
47E5
330
429C
100
AcDbEntity
  8
242
  6
Continuous
100
AcDbVertex
100
AcDb3dPolylineVertex
 10
106.034
 20
-17.1704
 30
0.0
 70
    32
  0
VERTEX
  5
47E6
330
429C
100
AcDbEntity
  8
242
  6
Continuous
100
AcDbVertex
100
AcDb3dPolylineVertex
 10
105.968
 20
-17.0231
 30
0.0
 70
    32
  0
VERTEX
  5
47E7
330
429C
100
AcDbEntity
  8
242
  6
Continuous
100
AcDbVertex
100
AcDb3dPolylineVertex
 10
105.917
 20
-16.8744
 30
0.0
 70
    32
  0
VERTEX
  5
47E8
330
429C
100
AcDbEntity
  8
242
  6
Continuous
100
AcDbVertex
100
AcDb3dPolylineVertex
 10
105.88
 20
-16.7246
 30
0.0
 70
    32
  0
VERTEX
  5
47E9
330
429C
100
AcDbEntity
  8
242
  6
Continuous
100
AcDbVertex
100
AcDb3dPolylineVertex
 10
105.857
 20
-16.5741
 30
0.0
 70
    32
  0
VERTEX
  5
47EA
330
429C
100
AcDbEntity
  8
242
  6
Continuous
100
AcDbVertex
100
AcDb3dPolylineVertex
 10
105.85
 20
-16.4232
 30
0.0
 70
    32
  0
SEQEND
  5
47EB
330
429C
100
AcDbEntity
  8
242
  6
Continuous
  0
LINE
  5
429D
330
4D0A
100
AcDbEntity
  8
241
  6
Continuous
100
AcDbLine
 10
187.1794909036194
 20
11.65063582779385
 30
0.0
 11
199.6794913088671
 21
-9.999999032847288
 31
0.0
  0
CIRCLE
  5
429E
330
4D0A
100
AcDbEntity
  8
242
  6
PHANTOM2
100
AcDbCircle
 10
217.0000000000001
 20
0.0
 30
0.0
 40
55.0
  0
LINE
  5
429F
330
4D0A
100
AcDbEntity
  8
241
  6
Continuous
100
AcDbLine
 10
217.000002452839
 20
20.00000004941451
 30
0.0
 11
217.0000000000001
 21
45.00000061793723
 31
0.0
  0
LINE
  5
42A0
330
4D0A
100
AcDbEntity
  8
241
  6
Continuous
100
AcDbLine
 10
242.0000011453021
 20
20.00000051735424
 30
0.0
 11
241.9999989945349
 21
45.00000154306323
 31
0.0
  0
ARC
  5
42A1
330
4D0A
100
AcDbEntity
  8
240
  6
Continuous
100
AcDbCircle
 10
243.4575112586436
 20
30.00000014966599
 30
0.0
 40
15.00000216919549
100
AcDbArc
 50
48.59037709706674
 51
90.01777751831978
  0
LINE
  5
42A2
330
4D0A
100
AcDbEntity
  8
240
  6
Continuous
100
AcDbLine
 10
200.3012701892219
 20
45.0
 30
0.0
 11
243.4528571146324
 21
45.00000159682634
 31
0.0
  0
POLYLINE
  5
42A4
330
4D0A
100
AcDbEntity
  8
241
  6
Continuous
100
AcDb3dPolyline
 66
     1
 10
0.0
 20
0.0
 30
0.0
 70
     8
  0
VERTEX
  5
47EC
330
42A4
100
AcDbEntity
  8
241
  6
Continuous
100
AcDbVertex
100
AcDb3dPolylineVertex
 10
244.704
 20
5.985159999999997
 30
0.0
 70
    32
  0
VERTEX
  5
47ED
330
42A4
100
AcDbEntity
  8
241
  6
Continuous
100
AcDbVertex
100
AcDb3dPolylineVertex
 10
244.822
 20
5.856099999999997
 30
0.0
 70
    32
  0
VERTEX
  5
47EE
330
42A4
100
AcDbEntity
  8
241
  6
Continuous
100
AcDbVertex
100
AcDb3dPolylineVertex
 10
244.937
 20
5.725249999999999
 30
0.0
 70
    32
  0
VERTEX
  5
47EF
330
42A4
100
AcDbEntity
  8
241
  6
Continuous
100
AcDbVertex
100
AcDb3dPolylineVertex
 10
245.05
 20
5.59267
 30
0.0
 70
    32
  0
VERTEX
  5
47F0
330
42A4
100
AcDbEntity
  8
241
  6
Continuous
100
AcDbVertex
100
AcDb3dPolylineVertex
 10
245.16
 20
5.4584
 30
0.0
 70
    32
  0
VERTEX
  5
47F1
330
42A4
100
AcDbEntity
  8
241
  6
Continuous
100
AcDbVertex
100
AcDb3dPolylineVertex
 10
245.268
 20
5.32249
 30
0.0
 70
    32
  0
VERTEX
  5
47F2
330
42A4
100
AcDbEntity
  8
241
  6
Continuous
100
AcDbVertex
100
AcDb3dPolylineVertex
 10
245.373
 20
5.184989999999999
 30
0.0
 70
    32
  0
VERTEX
  5
47F3
330
42A4
100
AcDbEntity
  8
241
  6
Continuous
100
AcDbVertex
100
AcDb3dPolylineVertex
 10
245.475
 20
5.04596
 30
0.0
 70
    32
  0
VERTEX
  5
47F4
330
42A4
100
AcDbEntity
  8
241
  6
Continuous
100
AcDbVertex
100
AcDb3dPolylineVertex
 10
245.575
 20
4.90544
 30
0.0
 70
    32
  0
VERTEX
  5
47F5
330
42A4
100
AcDbEntity
  8
241
  6
Continuous
100
AcDbVertex
100
AcDb3dPolylineVertex
 10
245.672
 20
4.76348
 30
0.0
 70
    32
  0
VERTEX
  5
47F6
330
42A4
100
AcDbEntity
  8
241
  6
Continuous
100
AcDbVertex
100
AcDb3dPolylineVertex
 10
245.767
 20
4.62014
 30
0.0
 70
    32
  0
VERTEX
  5
47F7
330
42A4
100
AcDbEntity
  8
241
  6
Continuous
100
AcDbVertex
100
AcDb3dPolylineVertex
 10
245.859
 20
4.47548
 30
0.0
 70
    32
  0
VERTEX
  5
47F8
330
42A4
100
AcDbEntity
  8
241
  6
Continuous
100
AcDbVertex
100
AcDb3dPolylineVertex
 10
245.947
 20
4.32953
 30
0.0
 70
    32
  0
VERTEX
  5
47F9
330
42A4
100
AcDbEntity
  8
241
  6
Continuous
100
AcDbVertex
100
AcDb3dPolylineVertex
 10
246.033
 20
4.18236
 30
0.0
 70
    32
  0
VERTEX
  5
47FA
330
42A4
100
AcDbEntity
  8
241
  6
Continuous
100
AcDbVertex
100
AcDb3dPolylineVertex
 10
246.117
 20
4.03403
 30
0.0
 70
    32
  0
VERTEX
  5
47FB
330
42A4
100
AcDbEntity
  8
241
  6
Continuous
100
AcDbVertex
100
AcDb3dPolylineVertex
 10
246.197
 20
3.88458
 30
0.0
 70
    32
  0
VERTEX
  5
47FC
330
42A4
100
AcDbEntity
  8
241
  6
Continuous
100
AcDbVertex
100
AcDb3dPolylineVertex
 10
246.274
 20
3.734069999999998
 30
0.0
 70
    32
  0
VERTEX
  5
47FD
330
42A4
100
AcDbEntity
  8
241
  6
Continuous
100
AcDbVertex
100
AcDb3dPolylineVertex
 10
246.348
 20
3.582559999999998
 30
0.0
 70
    32
  0
VERTEX
  5
47FE
330
42A4
100
AcDbEntity
  8
241
  6
Continuous
100
AcDbVertex
100
AcDb3dPolylineVertex
 10
246.42
 20
3.430099999999998
 30
0.0
 70
    32
  0
VERTEX
  5
47FF
330
42A4
100
AcDbEntity
  8
241
  6
Continuous
100
AcDbVertex
100
AcDb3dPolylineVertex
 10
246.488
 20
3.276749999999998
 30
0.0
 70
    32
  0
VERTEX
  5
4800
330
42A4
100
AcDbEntity
  8
241
  6
Continuous
100
AcDbVertex
100
AcDb3dPolylineVertex
 10
246.553
 20
3.12257
 30
0.0
 70
    32
  0
VERTEX
  5
4801
330
42A4
100
AcDbEntity
  8
241
  6
Continuous
100
AcDbVertex
100
AcDb3dPolylineVertex
 10
246.616
 20
2.967609999999998
 30
0.0
 70
    32
  0
VERTEX
  5
4802
330
42A4
100
AcDbEntity
  8
241
  6
Continuous
100
AcDbVertex
100
AcDb3dPolylineVertex
 10
246.675
 20
2.81192
 30
0.0
 70
    32
  0
VERTEX
  5
4803
330
42A4
100
AcDbEntity
  8
241
  6
Continuous
100
AcDbVertex
100
AcDb3dPolylineVertex
 10
246.731
 20
2.65558
 30
0.0
 70
    32
  0
VERTEX
  5
4804
330
42A4
100
AcDbEntity
  8
241
  6
Continuous
100
AcDbVertex
100
AcDb3dPolylineVertex
 10
246.784
 20
2.49862
 30
0.0
 70
    32
  0
VERTEX
  5
4805
330
42A4
100
AcDbEntity
  8
241
  6
Continuous
100
AcDbVertex
100
AcDb3dPolylineVertex
 10
246.834
 20
2.34112
 30
0.0
 70
    32
  0
VERTEX
  5
4806
330
42A4
100
AcDbEntity
  8
241
  6
Continuous
100
AcDbVertex
100
AcDb3dPolylineVertex
 10
246.88
 20
2.183129999999998
 30
0.0
 70
    32
  0
VERTEX
  5
4807
330
42A4
100
AcDbEntity
  8
241
  6
Continuous
100
AcDbVertex
100
AcDb3dPolylineVertex
 10
246.924
 20
2.024709999999998
 30
0.0
 70
    32
  0
VERTEX
  5
4808
330
42A4
100
AcDbEntity
  8
241
  6
Continuous
100
AcDbVertex
100
AcDb3dPolylineVertex
 10
246.964
 20
1.865909999999999
 30
0.0
 70
    32
  0
VERTEX
  5
4809
330
42A4
100
AcDbEntity
  8
241
  6
Continuous
100
AcDbVertex
100
AcDb3dPolylineVertex
 10
247.001
 20
1.7068
 30
0.0
 70
    32
  0
VERTEX
  5
480A
330
42A4
100
AcDbEntity
  8
241
  6
Continuous
100
AcDbVertex
100
AcDb3dPolylineVertex
 10
247.035
 20
1.547429999999999
 30
0.0
 70
    32
  0
VERTEX
  5
480B
330
42A4
100
AcDbEntity
  8
241
  6
Continuous
100
AcDbVertex
100
AcDb3dPolylineVertex
 10
247.066
 20
1.38786
 30
0.0
 70
    32
  0
VERTEX
  5
480C
330
42A4
100
AcDbEntity
  8
241
  6
Continuous
100
AcDbVertex
100
AcDb3dPolylineVertex
 10
247.093
 20
1.22816
 30
0.0
 70
    32
  0
VERTEX
  5
480D
330
42A4
100
AcDbEntity
  8
241
  6
Continuous
100
AcDbVertex
100
AcDb3dPolylineVertex
 10
247.117
 20
1.06837
 30
0.0
 70
    32
  0
VERTEX
  5
480E
330
42A4
100
AcDbEntity
  8
241
  6
Continuous
100
AcDbVertex
100
AcDb3dPolylineVertex
 10
247.138
 20
0.908567
 30
0.0
 70
    32
  0
VERTEX
  5
480F
330
42A4
100
AcDbEntity
  8
241
  6
Continuous
100
AcDbVertex
100
AcDb3dPolylineVertex
 10
247.156
 20
0.7487970000000001
 30
0.0
 70
    32
  0
VERTEX
  5
4810
330
42A4
100
AcDbEntity
  8
241
  6
Continuous
100
AcDbVertex
100
AcDb3dPolylineVertex
 10
247.17
 20
0.589124
 30
0.0
 70
    32
  0
VERTEX
  5
4811
330
42A4
100
AcDbEntity
  8
241
  6
Continuous
100
AcDbVertex
100
AcDb3dPolylineVertex
 10
247.181
 20
0.4296060000000001
 30
0.0
 70
    32
  0
VERTEX
  5
4812
330
42A4
100
AcDbEntity
  8
241
  6
Continuous
100
AcDbVertex
100
AcDb3dPolylineVertex
 10
247.189
 20
0.270302
 30
0.0
 70
    32
  0
VERTEX
  5
4813
330
42A4
100
AcDbEntity
  8
241
  6
Continuous
100
AcDbVertex
100
AcDb3dPolylineVertex
 10
247.193
 20
0.11127
 30
0.0
 70
    32
  0
VERTEX
  5
4814
330
42A4
100
AcDbEntity
  8
241
  6
Continuous
100
AcDbVertex
100
AcDb3dPolylineVertex
 10
247.194
 20
-0.04743
 30
0.0
 70
    32
  0
VERTEX
  5
4815
330
42A4
100
AcDbEntity
  8
241
  6
Continuous
100
AcDbVertex
100
AcDb3dPolylineVertex
 10
247.192
 20
-0.205741
 30
0.0
 70
    32
  0
VERTEX
  5
4816
330
42A4
100
AcDbEntity
  8
241
  6
Continuous
100
AcDbVertex
100
AcDb3dPolylineVertex
 10
247.187
 20
-0.363604
 30
0.0
 70
    32
  0
VERTEX
  5
4817
330
42A4
100
AcDbEntity
  8
241
  6
Continuous
100
AcDbVertex
100
AcDb3dPolylineVertex
 10
247.178
 20
-0.5209600000000001
 30
0.0
 70
    32
  0
VERTEX
  5
4818
330
42A4
100
AcDbEntity
  8
241
  6
Continuous
100
AcDbVertex
100
AcDb3dPolylineVertex
 10
247.166
 20
-0.677753
 30
0.0
 70
    32
  0
VERTEX
  5
4819
330
42A4
100
AcDbEntity
  8
241
  6
Continuous
100
AcDbVertex
100
AcDb3dPolylineVertex
 10
247.15
 20
-0.833924
 30
0.0
 70
    32
  0
VERTEX
  5
481A
330
42A4
100
AcDbEntity
  8
241
  6
Continuous
100
AcDbVertex
100
AcDb3dPolylineVertex
 10
247.132
 20
-0.9894149999999999
 30
0.0
 70
    32
  0
VERTEX
  5
481B
330
42A4
100
AcDbEntity
  8
241
  6
Continuous
100
AcDbVertex
100
AcDb3dPolylineVertex
 10
247.11
 20
-1.14417
 30
0.0
 70
    32
  0
VERTEX
  5
481C
330
42A4
100
AcDbEntity
  8
241
  6
Continuous
100
AcDbVertex
100
AcDb3dPolylineVertex
 10
247.085
 20
-1.29813
 30
0.0
 70
    32
  0
VERTEX
  5
481D
330
42A4
100
AcDbEntity
  8
241
  6
Continuous
100
AcDbVertex
100
AcDb3dPolylineVertex
 10
247.056
 20
-1.451239999999999
 30
0.0
 70
    32
  0
VERTEX
  5
481E
330
42A4
100
AcDbEntity
  8
241
  6
Continuous
100
AcDbVertex
100
AcDb3dPolylineVertex
 10
247.025
 20
-1.60345
 30
0.0
 70
    32
  0
VERTEX
  5
481F
330
42A4
100
AcDbEntity
  8
241
  6
Continuous
100
AcDbVertex
100
AcDb3dPolylineVertex
 10
246.99
 20
-1.75469
 30
0.0
 70
    32
  0
VERTEX
  5
4820
330
42A4
100
AcDbEntity
  8
241
  6
Continuous
100
AcDbVertex
100
AcDb3dPolylineVertex
 10
246.952
 20
-1.904909999999999
 30
0.0
 70
    32
  0
VERTEX
  5
4821
330
42A4
100
AcDbEntity
  8
241
  6
Continuous
100
AcDbVertex
100
AcDb3dPolylineVertex
 10
246.911
 20
-2.054059999999997
 30
0.0
 70
    32
  0
VERTEX
  5
4822
330
42A4
100
AcDbEntity
  8
241
  6
Continuous
100
AcDbVertex
100
AcDb3dPolylineVertex
 10
246.866
 20
-2.20208
 30
0.0
 70
    32
  0
VERTEX
  5
4823
330
42A4
100
AcDbEntity
  8
241
  6
Continuous
100
AcDbVertex
100
AcDb3dPolylineVertex
 10
246.818
 20
-2.34892
 30
0.0
 70
    32
  0
VERTEX
  5
4824
330
42A4
100
AcDbEntity
  8
241
  6
Continuous
100
AcDbVertex
100
AcDb3dPolylineVertex
 10
246.768
 20
-2.49452
 30
0.0
 70
    32
  0
VERTEX
  5
4825
330
42A4
100
AcDbEntity
  8
241
  6
Continuous
100
AcDbVertex
100
AcDb3dPolylineVertex
 10
246.714
 20
-2.63883
 30
0.0
 70
    32
  0
VERTEX
  5
4826
330
42A4
100
AcDbEntity
  8
241
  6
Continuous
100
AcDbVertex
100
AcDb3dPolylineVertex
 10
246.657
 20
-2.781789999999998
 30
0.0
 70
    32
  0
VERTEX
  5
4827
330
42A4
100
AcDbEntity
  8
241
  6
Continuous
100
AcDbVertex
100
AcDb3dPolylineVertex
 10
246.596
 20
-2.923359999999998
 30
0.0
 70
    32
  0
VERTEX
  5
4828
330
42A4
100
AcDbEntity
  8
241
  6
Continuous
100
AcDbVertex
100
AcDb3dPolylineVertex
 10
246.533
 20
-3.063479999999998
 30
0.0
 70
    32
  0
VERTEX
  5
4829
330
42A4
100
AcDbEntity
  8
241
  6
Continuous
100
AcDbVertex
100
AcDb3dPolylineVertex
 10
246.467
 20
-3.2021
 30
0.0
 70
    32
  0
VERTEX
  5
482A
330
42A4
100
AcDbEntity
  8
241
  6
Continuous
100
AcDbVertex
100
AcDb3dPolylineVertex
 10
246.398
 20
-3.339159999999998
 30
0.0
 70
    32
  0
VERTEX
  5
482B
330
42A4
100
AcDbEntity
  8
241
  6
Continuous
100
AcDbVertex
100
AcDb3dPolylineVertex
 10
246.325
 20
-3.47463
 30
0.0
 70
    32
  0
VERTEX
  5
482C
330
42A4
100
AcDbEntity
  8
241
  6
Continuous
100
AcDbVertex
100
AcDb3dPolylineVertex
 10
246.25
 20
-3.60844
 30
0.0
 70
    32
  0
VERTEX
  5
482D
330
42A4
100
AcDbEntity
  8
241
  6
Continuous
100
AcDbVertex
100
AcDb3dPolylineVertex
 10
246.172
 20
-3.740549999999998
 30
0.0
 70
    32
  0
VERTEX
  5
482E
330
42A4
100
AcDbEntity
  8
241
  6
Continuous
100
AcDbVertex
100
AcDb3dPolylineVertex
 10
246.091
 20
-3.870909999999998
 30
0.0
 70
    32
  0
VERTEX
  5
482F
330
42A4
100
AcDbEntity
  8
241
  6
Continuous
100
AcDbVertex
100
AcDb3dPolylineVertex
 10
246.007
 20
-3.999469999999998
 30
0.0
 70
    32
  0
VERTEX
  5
4830
330
42A4
100
AcDbEntity
  8
241
  6
Continuous
100
AcDbVertex
100
AcDb3dPolylineVertex
 10
245.92
 20
-4.12619
 30
0.0
 70
    32
  0
VERTEX
  5
4831
330
42A4
100
AcDbEntity
  8
241
  6
Continuous
100
AcDbVertex
100
AcDb3dPolylineVertex
 10
245.83
 20
-4.251019999999997
 30
0.0
 70
    32
  0
VERTEX
  5
4832
330
42A4
100
AcDbEntity
  8
241
  6
Continuous
100
AcDbVertex
100
AcDb3dPolylineVertex
 10
245.737
 20
-4.373909999999998
 30
0.0
 70
    32
  0
VERTEX
  5
4833
330
42A4
100
AcDbEntity
  8
241
  6
Continuous
100
AcDbVertex
100
AcDb3dPolylineVertex
 10
245.642
 20
-4.49481
 30
0.0
 70
    32
  0
VERTEX
  5
4834
330
42A4
100
AcDbEntity
  8
241
  6
Continuous
100
AcDbVertex
100
AcDb3dPolylineVertex
 10
245.544
 20
-4.61369
 30
0.0
 70
    32
  0
VERTEX
  5
4835
330
42A4
100
AcDbEntity
  8
241
  6
Continuous
100
AcDbVertex
100
AcDb3dPolylineVertex
 10
245.443
 20
-4.73049
 30
0.0
 70
    32
  0
VERTEX
  5
4836
330
42A4
100
AcDbEntity
  8
241
  6
Continuous
100
AcDbVertex
100
AcDb3dPolylineVertex
 10
245.34
 20
-4.84518
 30
0.0
 70
    32
  0
VERTEX
  5
4837
330
42A4
100
AcDbEntity
  8
241
  6
Continuous
100
AcDbVertex
100
AcDb3dPolylineVertex
 10
245.234
 20
-4.95772
 30
0.0
 70
    32
  0
VERTEX
  5
4838
330
42A4
100
AcDbEntity
  8
241
  6
Continuous
100
AcDbVertex
100
AcDb3dPolylineVertex
 10
245.126
 20
-5.06805
 30
0.0
 70
    32
  0
VERTEX
  5
4839
330
42A4
100
AcDbEntity
  8
241
  6
Continuous
100
AcDbVertex
100
AcDb3dPolylineVertex
 10
245.015
 20
-5.176149999999998
 30
0.0
 70
    32
  0
VERTEX
  5
483A
330
42A4
100
AcDbEntity
  8
241
  6
Continuous
100
AcDbVertex
100
AcDb3dPolylineVertex
 10
244.901
 20
-5.281969999999998
 30
0.0
 70
    32
  0
VERTEX
  5
483B
330
42A4
100
AcDbEntity
  8
241
  6
Continuous
100
AcDbVertex
100
AcDb3dPolylineVertex
 10
244.785
 20
-5.385469999999997
 30
0.0
 70
    32
  0
VERTEX
  5
483C
330
42A4
100
AcDbEntity
  8
241
  6
Continuous
100
AcDbVertex
100
AcDb3dPolylineVertex
 10
244.667
 20
-5.486609999999997
 30
0.0
 70
    32
  0
VERTEX
  5
483D
330
42A4
100
AcDbEntity
  8
241
  6
Continuous
100
AcDbVertex
100
AcDb3dPolylineVertex
 10
244.546
 20
-5.585359999999997
 30
0.0
 70
    32
  0
VERTEX
  5
483E
330
42A4
100
AcDbEntity
  8
241
  6
Continuous
100
AcDbVertex
100
AcDb3dPolylineVertex
 10
244.423
 20
-5.68168
 30
0.0
 70
    32
  0
VERTEX
  5
483F
330
42A4
100
AcDbEntity
  8
241
  6
Continuous
100
AcDbVertex
100
AcDb3dPolylineVertex
 10
244.297
 20
-5.77554
 30
0.0
 70
    32
  0
VERTEX
  5
4840
330
42A4
100
AcDbEntity
  8
241
  6
Continuous
100
AcDbVertex
100
AcDb3dPolylineVertex
 10
244.17
 20
-5.8669
 30
0.0
 70
    32
  0
VERTEX
  5
4841
330
42A4
100
AcDbEntity
  8
241
  6
Continuous
100
AcDbVertex
100
AcDb3dPolylineVertex
 10
244.04
 20
-5.955719999999997
 30
0.0
 70
    32
  0
VERTEX
  5
4842
330
42A4
100
AcDbEntity
  8
241
  6
Continuous
100
AcDbVertex
100
AcDb3dPolylineVertex
 10
243.908
 20
-6.04198
 30
0.0
 70
    32
  0
VERTEX
  5
4843
330
42A4
100
AcDbEntity
  8
241
  6
Continuous
100
AcDbVertex
100
AcDb3dPolylineVertex
 10
243.774
 20
-6.125639999999997
 30
0.0
 70
    32
  0
VERTEX
  5
4844
330
42A4
100
AcDbEntity
  8
241
  6
Continuous
100
AcDbVertex
100
AcDb3dPolylineVertex
 10
243.638
 20
-6.206669999999999
 30
0.0
 70
    32
  0
VERTEX
  5
4845
330
42A4
100
AcDbEntity
  8
241
  6
Continuous
100
AcDbVertex
100
AcDb3dPolylineVertex
 10
243.5
 20
-6.28505
 30
0.0
 70
    32
  0
VERTEX
  5
4846
330
42A4
100
AcDbEntity
  8
241
  6
Continuous
100
AcDbVertex
100
AcDb3dPolylineVertex
 10
243.36
 20
-6.36073
 30
0.0
 70
    32
  0
VERTEX
  5
4847
330
42A4
100
AcDbEntity
  8
241
  6
Continuous
100
AcDbVertex
100
AcDb3dPolylineVertex
 10
243.218
 20
-6.433699999999999
 30
0.0
 70
    32
  0
VERTEX
  5
4848
330
42A4
100
AcDbEntity
  8
241
  6
Continuous
100
AcDbVertex
100
AcDb3dPolylineVertex
 10
243.075
 20
-6.50393
 30
0.0
 70
    32
  0
VERTEX
  5
4849
330
42A4
100
AcDbEntity
  8
241
  6
Continuous
100
AcDbVertex
100
AcDb3dPolylineVertex
 10
242.929
 20
-6.571389999999999
 30
0.0
 70
    32
  0
VERTEX
  5
484A
330
42A4
100
AcDbEntity
  8
241
  6
Continuous
100
AcDbVertex
100
AcDb3dPolylineVertex
 10
242.782
 20
-6.63606
 30
0.0
 70
    32
  0
VERTEX
  5
484B
330
42A4
100
AcDbEntity
  8
241
  6
Continuous
100
AcDbVertex
100
AcDb3dPolylineVertex
 10
242.633
 20
-6.69791
 30
0.0
 70
    32
  0
VERTEX
  5
484C
330
42A4
100
AcDbEntity
  8
241
  6
Continuous
100
AcDbVertex
100
AcDb3dPolylineVertex
 10
242.483
 20
-6.75693
 30
0.0
 70
    32
  0
VERTEX
  5
484D
330
42A4
100
AcDbEntity
  8
241
  6
Continuous
100
AcDbVertex
100
AcDb3dPolylineVertex
 10
242.331
 20
-6.81308
 30
0.0
 70
    32
  0
VERTEX
  5
484E
330
42A4
100
AcDbEntity
  8
241
  6
Continuous
100
AcDbVertex
100
AcDb3dPolylineVertex
 10
242.177
 20
-6.866349999999997
 30
0.0
 70
    32
  0
VERTEX
  5
484F
330
42A4
100
AcDbEntity
  8
241
  6
Continuous
100
AcDbVertex
100
AcDb3dPolylineVertex
 10
242.023
 20
-6.916719999999997
 30
0.0
 70
    32
  0
VERTEX
  5
4850
330
42A4
100
AcDbEntity
  8
241
  6
Continuous
100
AcDbVertex
100
AcDb3dPolylineVertex
 10
241.866
 20
-6.964169999999997
 30
0.0
 70
    32
  0
VERTEX
  5
4851
330
42A4
100
AcDbEntity
  8
241
  6
Continuous
100
AcDbVertex
100
AcDb3dPolylineVertex
 10
241.709
 20
-7.00868
 30
0.0
 70
    32
  0
VERTEX
  5
4852
330
42A4
100
AcDbEntity
  8
241
  6
Continuous
100
AcDbVertex
100
AcDb3dPolylineVertex
 10
241.55
 20
-7.050239999999997
 30
0.0
 70
    32
  0
VERTEX
  5
4853
330
42A4
100
AcDbEntity
  8
241
  6
Continuous
100
AcDbVertex
100
AcDb3dPolylineVertex
 10
241.389
 20
-7.08882
 30
0.0
 70
    32
  0
VERTEX
  5
4854
330
42A4
100
AcDbEntity
  8
241
  6
Continuous
100
AcDbVertex
100
AcDb3dPolylineVertex
 10
241.228
 20
-7.12443
 30
0.0
 70
    32
  0
VERTEX
  5
4855
330
42A4
100
AcDbEntity
  8
241
  6
Continuous
100
AcDbVertex
100
AcDb3dPolylineVertex
 10
241.066
 20
-7.157039999999997
 30
0.0
 70
    32
  0
VERTEX
  5
4856
330
42A4
100
AcDbEntity
  8
241
  6
Continuous
100
AcDbVertex
100
AcDb3dPolylineVertex
 10
240.902
 20
-7.186639999999997
 30
0.0
 70
    32
  0
VERTEX
  5
4857
330
42A4
100
AcDbEntity
  8
241
  6
Continuous
100
AcDbVertex
100
AcDb3dPolylineVertex
 10
240.738
 20
-7.213219999999997
 30
0.0
 70
    32
  0
VERTEX
  5
4858
330
42A4
100
AcDbEntity
  8
241
  6
Continuous
100
AcDbVertex
100
AcDb3dPolylineVertex
 10
240.573
 20
-7.236769999999999
 30
0.0
 70
    32
  0
VERTEX
  5
4859
330
42A4
100
AcDbEntity
  8
241
  6
Continuous
100
AcDbVertex
100
AcDb3dPolylineVertex
 10
240.406
 20
-7.257289999999997
 30
0.0
 70
    32
  0
VERTEX
  5
485A
330
42A4
100
AcDbEntity
  8
241
  6
Continuous
100
AcDbVertex
100
AcDb3dPolylineVertex
 10
240.239
 20
-7.27476
 30
0.0
 70
    32
  0
VERTEX
  5
485B
330
42A4
100
AcDbEntity
  8
241
  6
Continuous
100
AcDbVertex
100
AcDb3dPolylineVertex
 10
240.072
 20
-7.289169999999997
 30
0.0
 70
    32
  0
VERTEX
  5
485C
330
42A4
100
AcDbEntity
  8
241
  6
Continuous
100
AcDbVertex
100
AcDb3dPolylineVertex
 10
239.903
 20
-7.30053
 30
0.0
 70
    32
  0
VERTEX
  5
485D
330
42A4
100
AcDbEntity
  8
241
  6
Continuous
100
AcDbVertex
100
AcDb3dPolylineVertex
 10
239.734
 20
-7.30883
 30
0.0
 70
    32
  0
VERTEX
  5
485E
330
42A4
100
AcDbEntity
  8
241
  6
Continuous
100
AcDbVertex
100
AcDb3dPolylineVertex
 10
239.565
 20
-7.31407
 30
0.0
 70
    32
  0
VERTEX
  5
485F
330
42A4
100
AcDbEntity
  8
241
  6
Continuous
100
AcDbVertex
100
AcDb3dPolylineVertex
 10
239.395
 20
-7.316239999999997
 30
0.0
 70
    32
  0
VERTEX
  5
4860
330
42A4
100
AcDbEntity
  8
241
  6
Continuous
100
AcDbVertex
100
AcDb3dPolylineVertex
 10
239.224
 20
-7.315339999999999
 30
0.0
 70
    32
  0
VERTEX
  5
4861
330
42A4
100
AcDbEntity
  8
241
  6
Continuous
100
AcDbVertex
100
AcDb3dPolylineVertex
 10
239.053
 20
-7.31137
 30
0.0
 70
    32
  0
VERTEX
  5
4862
330
42A4
100
AcDbEntity
  8
241
  6
Continuous
100
AcDbVertex
100
AcDb3dPolylineVertex
 10
238.882
 20
-7.304339999999998
 30
0.0
 70
    32
  0
VERTEX
  5
4863
330
42A4
100
AcDbEntity
  8
241
  6
Continuous
100
AcDbVertex
100
AcDb3dPolylineVertex
 10
238.711
 20
-7.294249999999999
 30
0.0
 70
    32
  0
VERTEX
  5
4864
330
42A4
100
AcDbEntity
  8
241
  6
Continuous
100
AcDbVertex
100
AcDb3dPolylineVertex
 10
238.539
 20
-7.2811
 30
0.0
 70
    32
  0
VERTEX
  5
4865
330
42A4
100
AcDbEntity
  8
241
  6
Continuous
100
AcDbVertex
100
AcDb3dPolylineVertex
 10
238.368
 20
-7.264889999999997
 30
0.0
 70
    32
  0
VERTEX
  5
4866
330
42A4
100
AcDbEntity
  8
241
  6
Continuous
100
AcDbVertex
100
AcDb3dPolylineVertex
 10
238.196
 20
-7.24563
 30
0.0
 70
    32
  0
VERTEX
  5
4867
330
42A4
100
AcDbEntity
  8
241
  6
Continuous
100
AcDbVertex
100
AcDb3dPolylineVertex
 10
238.025
 20
-7.223339999999997
 30
0.0
 70
    32
  0
VERTEX
  5
4868
330
42A4
100
AcDbEntity
  8
241
  6
Continuous
100
AcDbVertex
100
AcDb3dPolylineVertex
 10
237.853
 20
-7.19801
 30
0.0
 70
    32
  0
VERTEX
  5
4869
330
42A4
100
AcDbEntity
  8
241
  6
Continuous
100
AcDbVertex
100
AcDb3dPolylineVertex
 10
237.682
 20
-7.16966
 30
0.0
 70
    32
  0
VERTEX
  5
486A
330
42A4
100
AcDbEntity
  8
241
  6
Continuous
100
AcDbVertex
100
AcDb3dPolylineVertex
 10
237.51
 20
-7.138289999999997
 30
0.0
 70
    32
  0
VERTEX
  5
486B
330
42A4
100
AcDbEntity
  8
241
  6
Continuous
100
AcDbVertex
100
AcDb3dPolylineVertex
 10
237.339
 20
-7.10393
 30
0.0
 70
    32
  0
VERTEX
  5
486C
330
42A4
100
AcDbEntity
  8
241
  6
Continuous
100
AcDbVertex
100
AcDb3dPolylineVertex
 10
237.169
 20
-7.066569999999997
 30
0.0
 70
    32
  0
SEQEND
  5
486D
330
42A4
100
AcDbEntity
  8
241
  6
Continuous
  0
ARC
  5
42A5
330
4D0A
100
AcDbEntity
  8
241
  6
Continuous
100
AcDbCircle
 10
238.9216333698688
 20
0.6225952641913182
 30
0.0
 40
7.886420890741129
100
AcDbArc
 50
42.84161043752662
 51
257.1583895624645
  0
ARC
  5
42A6
330
4D0A
100
AcDbEntity
  8
240
  6
Continuous
100
AcDbCircle
 10
247.0000000000001
 20
18.02775637731986
 30
0.0
 40
20.00000000000002
100
AcDbArc
 50
0.0
 51
31.00271913387149
  0
ARC
  5
42A7
330
4D0A
100
AcDbEntity
  8
240
  6
Continuous
100
AcDbCircle
 10
247.0000000000001
 20
1.96152422706609
 30
0.0
 40
20.0
100
AcDbArc
 50
330.011317776531
 51
0.0
  0
LINE
  5
42A8
330
4D0A
100
AcDbEntity
  8
241
  6
Continuous
100
AcDbLine
 10
242.0000011453021
 20
20.00000051735424
 30
0.0
 11
217.000002452839
 21
20.00000004941451
 31
0.0
  0
LWPOLYLINE
  5
42A9
330
4D0A
100
AcDbEntity
  8
241
  6
Continuous
100
AcDbPolyline
 90
       38
 70
   128
 43
0.0
 10
241.1303455223908
 20
-0.6526052916296976
 10
241.5726195799211
 20
0.262919691472689
 10
241.8727134111919
 20
1.226848609998567
 10
242.0219938630571
 20
2.211450983982786
 10
242.0161664087107
 20
3.188401595787127
 10
241.8553986934043
 20
4.129595355039098
 10
241.5443157115984
 20
5.007955830912576
 10
241.0918667542917
 20
5.798214191743339
 10
240.5110679542147
 20
6.477636143310062
 10
239.8186278353875
 20
7.026675953086622
 10
239.0344666393064
 20
7.429538745380112
 10
238.1811432558641
 20
7.674634891146753
 10
237.28320624516
 20
7.754913420517937
 10
236.3664876201224
 20
7.668064866366647
 10
235.4573597065281
 20
7.41658770347112
 10
234.5819764592064
 20
7.007716471944262
 10
233.7655210603762
 20
6.453213652687391
 10
233.0314814453455
 20
5.76903128222966
 10
232.400974597376
 20
4.974852041681513
 10
231.892139050523
 20
4.093523021834926
 10
231.5196130770348
 20
3.150398453959155
 10
231.2941135709122
 20
2.172610314729578
 10
231.2221277423808
 20
1.188287788657248
 10
231.3057264926628
 20
0.2257480426658276
 10
231.5425048379207
 20
-0.6873184072441063
 10
231.9256510962626
 20
-1.52464430172472
 10
232.4441428474286
 20
-2.262141299307128
 10
233.0830640277532
 20
-2.878592954128178
 10
233.8240340381595
 20
-3.356265074449651
 10
234.6457365205286
 20
-3.681415903065043
 10
235.5245325905127
 20
-3.844691442635961
 10
236.4351408851984
 20
-3.841394553163921
 10
237.351364861888
 20
-3.671620080156227
 10
238.2468464249369
 20
-3.340252126093898
 10
239.0958242001753
 20
-2.856823543695098
 10
239.8738746427396
 20
-2.235241693099168
 10
240.55861465799
 20
-1.493388352436794
 10
241.1303455223908
 20
-0.6526052916296976
  0
ARC
  5
42AA
330
4D0A
100
AcDbEntity
  8
240
  6
Continuous
100
AcDbCircle
 10
200.3012701892219
 20
25.0
 30
0.0
 40
20.0
100
AcDbArc
 50
90.00000000000005
 51
119.9999999999998
  0
LINE
  5
42AB
330
4D0A
100
AcDbEntity
  8
241
  6
Continuous
100
AcDbLine
 10
187.1794909036194
 20
11.65063582779385
 30
0.0
 11
165.5288567402997
 21
-0.8493661180166894
 31
0.0
  0
ARC
  5
42AC
330
4D0A
100
AcDbEntity
  8
241
  6
Continuous
100
AcDbCircle
 10
205.5000000000001
 20
18.67339375865936
 30
0.0
 40
7.886420890741088
100
AcDbArc
 50
162.8416104375332
 51
17.15838956246678
  0
LWPOLYLINE
  5
42AD
330
4D0A
100
AcDbEntity
  8
241
  6
Continuous
100
AcDbPolyline
 90
       38
 70
   128
 43
0.0
 10
205.5000000000001
 20
21.22379487030128
 10
204.4859950780689
 20
21.1490529480061
 10
203.5011612315477
 20
20.92697737014271
 10
202.5738303371182
 20
20.56395684675431
 10
201.7306800162262
 20
20.07043481734877
 10
200.9959661684837
 20
19.46060901215901
 10
200.3908251736001
 20
18.75202300929323
 10
199.9326658362209
 20
17.96506153793473
 10
199.6346685663139
 20
17.12236404679697
 10
199.5054062027718
 20
16.24817340840491
 10
199.5485973884468
 20
15.36763849579006
 10
199.7629995915645
 20
14.50609069520237
 10
200.1424448511027
 20
13.68831516824866
 10
200.6760172177985
 20
12.93783782791934
 10
201.3483667861348
 20
12.27624854090504
 10
202.1401512831745
 20
11.72258002644048
 10
203.0285925105362
 20
11.29276031962513
 10
203.9881316316893
 20
10.99915455085318
 10
204.9911644531471
 20
10.85020922352566
 10
206.0088355468532
 20
10.85020922352566
 10
207.0118683683108
 20
10.99915455085328
 10
207.9714074894641
 20
11.29276031962513
 10
208.8598487168257
 20
11.72258002644048
 10
209.6516332138654
 20
12.27624854090504
 10
210.3239827822017
 20
12.93783782791945
 10
210.8575551488975
 20
13.68831516824889
 10
211.2370004084356
 20
14.50609069520237
 10
211.4514026115533
 20
15.36763849579006
 10
211.4945937972281
 20
16.24817340840502
 10
211.3653314336861
 20
17.1223640467972
 10
211.0673341637791
 20
17.96506153793484
 10
210.6091748263998
 20
18.75202300929332
 10
210.0040338315163
 20
19.46060901215912
 10
209.2693199837739
 20
20.07043481734888
 10
208.4261696628817
 20
20.56395684675431
 10
207.4988387684522
 20
20.92697737014282
 10
206.5140049219311
 20
21.1490529480061
 10
205.5000000000001
 20
21.22379487030128
  0
POLYLINE
  5
42AE
330
4D0A
100
AcDbEntity
  8
241
  6
Continuous
100
AcDb3dPolyline
 66
     1
 10
0.0
 20
0.0
 30
0.0
 70
     8
  0
VERTEX
  5
486E
330
42AE
100
AcDbEntity
  8
241
  6
Continuous
100
AcDbVertex
100
AcDb3dPolylineVertex
 10
197.965
 20
21.0
 30
0.0
 70
    32
  0
VERTEX
  5
486F
330
42AE
100
AcDbEntity
  8
241
  6
Continuous
100
AcDbVertex
100
AcDb3dPolylineVertex
 10
198.018
 20
21.1664
 30
0.0
 70
    32
  0
VERTEX
  5
4870
330
42AE
100
AcDbEntity
  8
241
  6
Continuous
100
AcDbVertex
100
AcDb3dPolylineVertex
 10
198.073
 20
21.3316
 30
0.0
 70
    32
  0
VERTEX
  5
4871
330
42AE
100
AcDbEntity
  8
241
  6
Continuous
100
AcDbVertex
100
AcDb3dPolylineVertex
 10
198.132
 20
21.4956
 30
0.0
 70
    32
  0
VERTEX
  5
4872
330
42AE
100
AcDbEntity
  8
241
  6
Continuous
100
AcDbVertex
100
AcDb3dPolylineVertex
 10
198.193
 20
21.6582
 30
0.0
 70
    32
  0
VERTEX
  5
4873
330
42AE
100
AcDbEntity
  8
241
  6
Continuous
100
AcDbVertex
100
AcDb3dPolylineVertex
 10
198.257
 20
21.8194
 30
0.0
 70
    32
  0
VERTEX
  5
4874
330
42AE
100
AcDbEntity
  8
241
  6
Continuous
100
AcDbVertex
100
AcDb3dPolylineVertex
 10
198.323
 20
21.9792
 30
0.0
 70
    32
  0
VERTEX
  5
4875
330
42AE
100
AcDbEntity
  8
241
  6
Continuous
100
AcDbVertex
100
AcDb3dPolylineVertex
 10
198.392
 20
22.1375
 30
0.0
 70
    32
  0
VERTEX
  5
4876
330
42AE
100
AcDbEntity
  8
241
  6
Continuous
100
AcDbVertex
100
AcDb3dPolylineVertex
 10
198.464
 20
22.2942
 30
0.0
 70
    32
  0
VERTEX
  5
4877
330
42AE
100
AcDbEntity
  8
241
  6
Continuous
100
AcDbVertex
100
AcDb3dPolylineVertex
 10
198.538
 20
22.4494
 30
0.0
 70
    32
  0
VERTEX
  5
4878
330
42AE
100
AcDbEntity
  8
241
  6
Continuous
100
AcDbVertex
100
AcDb3dPolylineVertex
 10
198.615
 20
22.6028
 30
0.0
 70
    32
  0
VERTEX
  5
4879
330
42AE
100
AcDbEntity
  8
241
  6
Continuous
100
AcDbVertex
100
AcDb3dPolylineVertex
 10
198.695
 20
22.7545
 30
0.0
 70
    32
  0
VERTEX
  5
487A
330
42AE
100
AcDbEntity
  8
241
  6
Continuous
100
AcDbVertex
100
AcDb3dPolylineVertex
 10
198.777
 20
22.9044
 30
0.0
 70
    32
  0
VERTEX
  5
487B
330
42AE
100
AcDbEntity
  8
241
  6
Continuous
100
AcDbVertex
100
AcDb3dPolylineVertex
 10
198.861
 20
23.0525
 30
0.0
 70
    32
  0
VERTEX
  5
487C
330
42AE
100
AcDbEntity
  8
241
  6
Continuous
100
AcDbVertex
100
AcDb3dPolylineVertex
 10
198.948
 20
23.1986
 30
0.0
 70
    32
  0
VERTEX
  5
487D
330
42AE
100
AcDbEntity
  8
241
  6
Continuous
100
AcDbVertex
100
AcDb3dPolylineVertex
 10
199.037
 20
23.3428
 30
0.0
 70
    32
  0
VERTEX
  5
487E
330
42AE
100
AcDbEntity
  8
241
  6
Continuous
100
AcDbVertex
100
AcDb3dPolylineVertex
 10
199.129
 20
23.485
 30
0.0
 70
    32
  0
VERTEX
  5
487F
330
42AE
100
AcDbEntity
  8
241
  6
Continuous
100
AcDbVertex
100
AcDb3dPolylineVertex
 10
199.223
 20
23.6252
 30
0.0
 70
    32
  0
VERTEX
  5
4880
330
42AE
100
AcDbEntity
  8
241
  6
Continuous
100
AcDbVertex
100
AcDb3dPolylineVertex
 10
199.32
 20
23.7632
 30
0.0
 70
    32
  0
VERTEX
  5
4881
330
42AE
100
AcDbEntity
  8
241
  6
Continuous
100
AcDbVertex
100
AcDb3dPolylineVertex
 10
199.418
 20
23.8991
 30
0.0
 70
    32
  0
VERTEX
  5
4882
330
42AE
100
AcDbEntity
  8
241
  6
Continuous
100
AcDbVertex
100
AcDb3dPolylineVertex
 10
199.519
 20
24.0328
 30
0.0
 70
    32
  0
VERTEX
  5
4883
330
42AE
100
AcDbEntity
  8
241
  6
Continuous
100
AcDbVertex
100
AcDb3dPolylineVertex
 10
199.622
 20
24.1642
 30
0.0
 70
    32
  0
VERTEX
  5
4884
330
42AE
100
AcDbEntity
  8
241
  6
Continuous
100
AcDbVertex
100
AcDb3dPolylineVertex
 10
199.727
 20
24.2933
 30
0.0
 70
    32
  0
VERTEX
  5
4885
330
42AE
100
AcDbEntity
  8
241
  6
Continuous
100
AcDbVertex
100
AcDb3dPolylineVertex
 10
199.835
 20
24.42
 30
0.0
 70
    32
  0
VERTEX
  5
4886
330
42AE
100
AcDbEntity
  8
241
  6
Continuous
100
AcDbVertex
100
AcDb3dPolylineVertex
 10
199.944
 20
24.5444
 30
0.0
 70
    32
  0
VERTEX
  5
4887
330
42AE
100
AcDbEntity
  8
241
  6
Continuous
100
AcDbVertex
100
AcDb3dPolylineVertex
 10
200.056
 20
24.6663
 30
0.0
 70
    32
  0
VERTEX
  5
4888
330
42AE
100
AcDbEntity
  8
241
  6
Continuous
100
AcDbVertex
100
AcDb3dPolylineVertex
 10
200.169
 20
24.7857
 30
0.0
 70
    32
  0
VERTEX
  5
4889
330
42AE
100
AcDbEntity
  8
241
  6
Continuous
100
AcDbVertex
100
AcDb3dPolylineVertex
 10
200.285
 20
24.9026
 30
0.0
 70
    32
  0
VERTEX
  5
488A
330
42AE
100
AcDbEntity
  8
241
  6
Continuous
100
AcDbVertex
100
AcDb3dPolylineVertex
 10
200.402
 20
25.0168
 30
0.0
 70
    32
  0
VERTEX
  5
488B
330
42AE
100
AcDbEntity
  8
241
  6
Continuous
100
AcDbVertex
100
AcDb3dPolylineVertex
 10
200.521
 20
25.1285
 30
0.0
 70
    32
  0
VERTEX
  5
488C
330
42AE
100
AcDbEntity
  8
241
  6
Continuous
100
AcDbVertex
100
AcDb3dPolylineVertex
 10
200.642
 20
25.2375
 30
0.0
 70
    32
  0
VERTEX
  5
488D
330
42AE
100
AcDbEntity
  8
241
  6
Continuous
100
AcDbVertex
100
AcDb3dPolylineVertex
 10
200.765
 20
25.3438
 30
0.0
 70
    32
  0
VERTEX
  5
488E
330
42AE
100
AcDbEntity
  8
241
  6
Continuous
100
AcDbVertex
100
AcDb3dPolylineVertex
 10
200.89
 20
25.4474
 30
0.0
 70
    32
  0
VERTEX
  5
488F
330
42AE
100
AcDbEntity
  8
241
  6
Continuous
100
AcDbVertex
100
AcDb3dPolylineVertex
 10
201.016
 20
25.5481
 30
0.0
 70
    32
  0
VERTEX
  5
4890
330
42AE
100
AcDbEntity
  8
241
  6
Continuous
100
AcDbVertex
100
AcDb3dPolylineVertex
 10
201.144
 20
25.6461
 30
0.0
 70
    32
  0
VERTEX
  5
4891
330
42AE
100
AcDbEntity
  8
241
  6
Continuous
100
AcDbVertex
100
AcDb3dPolylineVertex
 10
201.274
 20
25.7412
 30
0.0
 70
    32
  0
VERTEX
  5
4892
330
42AE
100
AcDbEntity
  8
241
  6
Continuous
100
AcDbVertex
100
AcDb3dPolylineVertex
 10
201.405
 20
25.8334
 30
0.0
 70
    32
  0
VERTEX
  5
4893
330
42AE
100
AcDbEntity
  8
241
  6
Continuous
100
AcDbVertex
100
AcDb3dPolylineVertex
 10
201.537
 20
25.9227
 30
0.0
 70
    32
  0
VERTEX
  5
4894
330
42AE
100
AcDbEntity
  8
241
  6
Continuous
100
AcDbVertex
100
AcDb3dPolylineVertex
 10
201.672
 20
26.009
 30
0.0
 70
    32
  0
VERTEX
  5
4895
330
42AE
100
AcDbEntity
  8
241
  6
Continuous
100
AcDbVertex
100
AcDb3dPolylineVertex
 10
201.807
 20
26.0924
 30
0.0
 70
    32
  0
VERTEX
  5
4896
330
42AE
100
AcDbEntity
  8
241
  6
Continuous
100
AcDbVertex
100
AcDb3dPolylineVertex
 10
201.944
 20
26.1727
 30
0.0
 70
    32
  0
VERTEX
  5
4897
330
42AE
100
AcDbEntity
  8
241
  6
Continuous
100
AcDbVertex
100
AcDb3dPolylineVertex
 10
202.082
 20
26.25
 30
0.0
 70
    32
  0
VERTEX
  5
4898
330
42AE
100
AcDbEntity
  8
241
  6
Continuous
100
AcDbVertex
100
AcDb3dPolylineVertex
 10
202.222
 20
26.3242
 30
0.0
 70
    32
  0
VERTEX
  5
4899
330
42AE
100
AcDbEntity
  8
241
  6
Continuous
100
AcDbVertex
100
AcDb3dPolylineVertex
 10
202.362
 20
26.3953
 30
0.0
 70
    32
  0
VERTEX
  5
489A
330
42AE
100
AcDbEntity
  8
241
  6
Continuous
100
AcDbVertex
100
AcDb3dPolylineVertex
 10
202.504
 20
26.4632
 30
0.0
 70
    32
  0
VERTEX
  5
489B
330
42AE
100
AcDbEntity
  8
241
  6
Continuous
100
AcDbVertex
100
AcDb3dPolylineVertex
 10
202.647
 20
26.528
 30
0.0
 70
    32
  0
VERTEX
  5
489C
330
42AE
100
AcDbEntity
  8
241
  6
Continuous
100
AcDbVertex
100
AcDb3dPolylineVertex
 10
202.791
 20
26.5897
 30
0.0
 70
    32
  0
VERTEX
  5
489D
330
42AE
100
AcDbEntity
  8
241
  6
Continuous
100
AcDbVertex
100
AcDb3dPolylineVertex
 10
202.936
 20
26.6481
 30
0.0
 70
    32
  0
VERTEX
  5
489E
330
42AE
100
AcDbEntity
  8
241
  6
Continuous
100
AcDbVertex
100
AcDb3dPolylineVertex
 10
203.082
 20
26.7033
 30
0.0
 70
    32
  0
VERTEX
  5
489F
330
42AE
100
AcDbEntity
  8
241
  6
Continuous
100
AcDbVertex
100
AcDb3dPolylineVertex
 10
203.229
 20
26.7553
 30
0.0
 70
    32
  0
VERTEX
  5
48A0
330
42AE
100
AcDbEntity
  8
241
  6
Continuous
100
AcDbVertex
100
AcDb3dPolylineVertex
 10
203.376
 20
26.80400000000001
 30
0.0
 70
    32
  0
VERTEX
  5
48A1
330
42AE
100
AcDbEntity
  8
241
  6
Continuous
100
AcDbVertex
100
AcDb3dPolylineVertex
 10
203.525
 20
26.8494
 30
0.0
 70
    32
  0
VERTEX
  5
48A2
330
42AE
100
AcDbEntity
  8
241
  6
Continuous
100
AcDbVertex
100
AcDb3dPolylineVertex
 10
203.674
 20
26.8915
 30
0.0
 70
    32
  0
VERTEX
  5
48A3
330
42AE
100
AcDbEntity
  8
241
  6
Continuous
100
AcDbVertex
100
AcDb3dPolylineVertex
 10
203.824
 20
26.9304
 30
0.0
 70
    32
  0
VERTEX
  5
48A4
330
42AE
100
AcDbEntity
  8
241
  6
Continuous
100
AcDbVertex
100
AcDb3dPolylineVertex
 10
203.974
 20
26.9658
 30
0.0
 70
    32
  0
VERTEX
  5
48A5
330
42AE
100
AcDbEntity
  8
241
  6
Continuous
100
AcDbVertex
100
AcDb3dPolylineVertex
 10
204.125
 20
26.998
 30
0.0
 70
    32
  0
VERTEX
  5
48A6
330
42AE
100
AcDbEntity
  8
241
  6
Continuous
100
AcDbVertex
100
AcDb3dPolylineVertex
 10
204.276
 20
27.0268
 30
0.0
 70
    32
  0
VERTEX
  5
48A7
330
42AE
100
AcDbEntity
  8
241
  6
Continuous
100
AcDbVertex
100
AcDb3dPolylineVertex
 10
204.428
 20
27.0522
 30
0.0
 70
    32
  0
VERTEX
  5
48A8
330
42AE
100
AcDbEntity
  8
241
  6
Continuous
100
AcDbVertex
100
AcDb3dPolylineVertex
 10
204.581
 20
27.0743
 30
0.0
 70
    32
  0
VERTEX
  5
48A9
330
42AE
100
AcDbEntity
  8
241
  6
Continuous
100
AcDbVertex
100
AcDb3dPolylineVertex
 10
204.733
 20
27.09300000000001
 30
0.0
 70
    32
  0
VERTEX
  5
48AA
330
42AE
100
AcDbEntity
  8
241
  6
Continuous
100
AcDbVertex
100
AcDb3dPolylineVertex
 10
204.886
 20
27.1083
 30
0.0
 70
    32
  0
VERTEX
  5
48AB
330
42AE
100
AcDbEntity
  8
241
  6
Continuous
100
AcDbVertex
100
AcDb3dPolylineVertex
 10
205.04
 20
27.1202
 30
0.0
 70
    32
  0
VERTEX
  5
48AC
330
42AE
100
AcDbEntity
  8
241
  6
Continuous
100
AcDbVertex
100
AcDb3dPolylineVertex
 10
205.193
 20
27.1287
 30
0.0
 70
    32
  0
VERTEX
  5
48AD
330
42AE
100
AcDbEntity
  8
241
  6
Continuous
100
AcDbVertex
100
AcDb3dPolylineVertex
 10
205.346
 20
27.1338
 30
0.0
 70
    32
  0
VERTEX
  5
48AE
330
42AE
100
AcDbEntity
  8
241
  6
Continuous
100
AcDbVertex
100
AcDb3dPolylineVertex
 10
205.5
 20
27.1355
 30
0.0
 70
    32
  0
VERTEX
  5
48AF
330
42AE
100
AcDbEntity
  8
241
  6
Continuous
100
AcDbVertex
100
AcDb3dPolylineVertex
 10
205.654
 20
27.1338
 30
0.0
 70
    32
  0
VERTEX
  5
48B0
330
42AE
100
AcDbEntity
  8
241
  6
Continuous
100
AcDbVertex
100
AcDb3dPolylineVertex
 10
205.807
 20
27.1287
 30
0.0
 70
    32
  0
VERTEX
  5
48B1
330
42AE
100
AcDbEntity
  8
241
  6
Continuous
100
AcDbVertex
100
AcDb3dPolylineVertex
 10
205.96
 20
27.1202
 30
0.0
 70
    32
  0
VERTEX
  5
48B2
330
42AE
100
AcDbEntity
  8
241
  6
Continuous
100
AcDbVertex
100
AcDb3dPolylineVertex
 10
206.114
 20
27.1083
 30
0.0
 70
    32
  0
VERTEX
  5
48B3
330
42AE
100
AcDbEntity
  8
241
  6
Continuous
100
AcDbVertex
100
AcDb3dPolylineVertex
 10
206.267
 20
27.09300000000001
 30
0.0
 70
    32
  0
VERTEX
  5
48B4
330
42AE
100
AcDbEntity
  8
241
  6
Continuous
100
AcDbVertex
100
AcDb3dPolylineVertex
 10
206.419
 20
27.0743
 30
0.0
 70
    32
  0
VERTEX
  5
48B5
330
42AE
100
AcDbEntity
  8
241
  6
Continuous
100
AcDbVertex
100
AcDb3dPolylineVertex
 10
206.572
 20
27.0522
 30
0.0
 70
    32
  0
VERTEX
  5
48B6
330
42AE
100
AcDbEntity
  8
241
  6
Continuous
100
AcDbVertex
100
AcDb3dPolylineVertex
 10
206.724
 20
27.0268
 30
0.0
 70
    32
  0
VERTEX
  5
48B7
330
42AE
100
AcDbEntity
  8
241
  6
Continuous
100
AcDbVertex
100
AcDb3dPolylineVertex
 10
206.875
 20
26.998
 30
0.0
 70
    32
  0
VERTEX
  5
48B8
330
42AE
100
AcDbEntity
  8
241
  6
Continuous
100
AcDbVertex
100
AcDb3dPolylineVertex
 10
207.026
 20
26.9658
 30
0.0
 70
    32
  0
VERTEX
  5
48B9
330
42AE
100
AcDbEntity
  8
241
  6
Continuous
100
AcDbVertex
100
AcDb3dPolylineVertex
 10
207.176
 20
26.9304
 30
0.0
 70
    32
  0
VERTEX
  5
48BA
330
42AE
100
AcDbEntity
  8
241
  6
Continuous
100
AcDbVertex
100
AcDb3dPolylineVertex
 10
207.326
 20
26.8915
 30
0.0
 70
    32
  0
VERTEX
  5
48BB
330
42AE
100
AcDbEntity
  8
241
  6
Continuous
100
AcDbVertex
100
AcDb3dPolylineVertex
 10
207.475
 20
26.8494
 30
0.0
 70
    32
  0
VERTEX
  5
48BC
330
42AE
100
AcDbEntity
  8
241
  6
Continuous
100
AcDbVertex
100
AcDb3dPolylineVertex
 10
207.624
 20
26.80400000000001
 30
0.0
 70
    32
  0
VERTEX
  5
48BD
330
42AE
100
AcDbEntity
  8
241
  6
Continuous
100
AcDbVertex
100
AcDb3dPolylineVertex
 10
207.771
 20
26.7553
 30
0.0
 70
    32
  0
VERTEX
  5
48BE
330
42AE
100
AcDbEntity
  8
241
  6
Continuous
100
AcDbVertex
100
AcDb3dPolylineVertex
 10
207.918
 20
26.7033
 30
0.0
 70
    32
  0
VERTEX
  5
48BF
330
42AE
100
AcDbEntity
  8
241
  6
Continuous
100
AcDbVertex
100
AcDb3dPolylineVertex
 10
208.064
 20
26.6481
 30
0.0
 70
    32
  0
VERTEX
  5
48C0
330
42AE
100
AcDbEntity
  8
241
  6
Continuous
100
AcDbVertex
100
AcDb3dPolylineVertex
 10
208.209
 20
26.5897
 30
0.0
 70
    32
  0
VERTEX
  5
48C1
330
42AE
100
AcDbEntity
  8
241
  6
Continuous
100
AcDbVertex
100
AcDb3dPolylineVertex
 10
208.353
 20
26.528
 30
0.0
 70
    32
  0
VERTEX
  5
48C2
330
42AE
100
AcDbEntity
  8
241
  6
Continuous
100
AcDbVertex
100
AcDb3dPolylineVertex
 10
208.496
 20
26.4632
 30
0.0
 70
    32
  0
VERTEX
  5
48C3
330
42AE
100
AcDbEntity
  8
241
  6
Continuous
100
AcDbVertex
100
AcDb3dPolylineVertex
 10
208.638
 20
26.3953
 30
0.0
 70
    32
  0
VERTEX
  5
48C4
330
42AE
100
AcDbEntity
  8
241
  6
Continuous
100
AcDbVertex
100
AcDb3dPolylineVertex
 10
208.778
 20
26.3242
 30
0.0
 70
    32
  0
VERTEX
  5
48C5
330
42AE
100
AcDbEntity
  8
241
  6
Continuous
100
AcDbVertex
100
AcDb3dPolylineVertex
 10
208.918
 20
26.25
 30
0.0
 70
    32
  0
VERTEX
  5
48C6
330
42AE
100
AcDbEntity
  8
241
  6
Continuous
100
AcDbVertex
100
AcDb3dPolylineVertex
 10
209.056
 20
26.1727
 30
0.0
 70
    32
  0
VERTEX
  5
48C7
330
42AE
100
AcDbEntity
  8
241
  6
Continuous
100
AcDbVertex
100
AcDb3dPolylineVertex
 10
209.193
 20
26.0924
 30
0.0
 70
    32
  0
VERTEX
  5
48C8
330
42AE
100
AcDbEntity
  8
241
  6
Continuous
100
AcDbVertex
100
AcDb3dPolylineVertex
 10
209.328
 20
26.009
 30
0.0
 70
    32
  0
VERTEX
  5
48C9
330
42AE
100
AcDbEntity
  8
241
  6
Continuous
100
AcDbVertex
100
AcDb3dPolylineVertex
 10
209.463
 20
25.9227
 30
0.0
 70
    32
  0
VERTEX
  5
48CA
330
42AE
100
AcDbEntity
  8
241
  6
Continuous
100
AcDbVertex
100
AcDb3dPolylineVertex
 10
209.595
 20
25.8334
 30
0.0
 70
    32
  0
VERTEX
  5
48CB
330
42AE
100
AcDbEntity
  8
241
  6
Continuous
100
AcDbVertex
100
AcDb3dPolylineVertex
 10
209.726
 20
25.7412
 30
0.0
 70
    32
  0
VERTEX
  5
48CC
330
42AE
100
AcDbEntity
  8
241
  6
Continuous
100
AcDbVertex
100
AcDb3dPolylineVertex
 10
209.856
 20
25.6461
 30
0.0
 70
    32
  0
VERTEX
  5
48CD
330
42AE
100
AcDbEntity
  8
241
  6
Continuous
100
AcDbVertex
100
AcDb3dPolylineVertex
 10
209.984
 20
25.5481
 30
0.0
 70
    32
  0
VERTEX
  5
48CE
330
42AE
100
AcDbEntity
  8
241
  6
Continuous
100
AcDbVertex
100
AcDb3dPolylineVertex
 10
210.11
 20
25.4474
 30
0.0
 70
    32
  0
VERTEX
  5
48CF
330
42AE
100
AcDbEntity
  8
241
  6
Continuous
100
AcDbVertex
100
AcDb3dPolylineVertex
 10
210.235
 20
25.3438
 30
0.0
 70
    32
  0
VERTEX
  5
48D0
330
42AE
100
AcDbEntity
  8
241
  6
Continuous
100
AcDbVertex
100
AcDb3dPolylineVertex
 10
210.358
 20
25.2375
 30
0.0
 70
    32
  0
VERTEX
  5
48D1
330
42AE
100
AcDbEntity
  8
241
  6
Continuous
100
AcDbVertex
100
AcDb3dPolylineVertex
 10
210.479
 20
25.1285
 30
0.0
 70
    32
  0
VERTEX
  5
48D2
330
42AE
100
AcDbEntity
  8
241
  6
Continuous
100
AcDbVertex
100
AcDb3dPolylineVertex
 10
210.598
 20
25.0168
 30
0.0
 70
    32
  0
VERTEX
  5
48D3
330
42AE
100
AcDbEntity
  8
241
  6
Continuous
100
AcDbVertex
100
AcDb3dPolylineVertex
 10
210.715
 20
24.9026
 30
0.0
 70
    32
  0
VERTEX
  5
48D4
330
42AE
100
AcDbEntity
  8
241
  6
Continuous
100
AcDbVertex
100
AcDb3dPolylineVertex
 10
210.831
 20
24.7857
 30
0.0
 70
    32
  0
VERTEX
  5
48D5
330
42AE
100
AcDbEntity
  8
241
  6
Continuous
100
AcDbVertex
100
AcDb3dPolylineVertex
 10
210.944
 20
24.6663
 30
0.0
 70
    32
  0
VERTEX
  5
48D6
330
42AE
100
AcDbEntity
  8
241
  6
Continuous
100
AcDbVertex
100
AcDb3dPolylineVertex
 10
211.056
 20
24.5444
 30
0.0
 70
    32
  0
VERTEX
  5
48D7
330
42AE
100
AcDbEntity
  8
241
  6
Continuous
100
AcDbVertex
100
AcDb3dPolylineVertex
 10
211.165
 20
24.42
 30
0.0
 70
    32
  0
VERTEX
  5
48D8
330
42AE
100
AcDbEntity
  8
241
  6
Continuous
100
AcDbVertex
100
AcDb3dPolylineVertex
 10
211.273
 20
24.2933
 30
0.0
 70
    32
  0
VERTEX
  5
48D9
330
42AE
100
AcDbEntity
  8
241
  6
Continuous
100
AcDbVertex
100
AcDb3dPolylineVertex
 10
211.378
 20
24.1642
 30
0.0
 70
    32
  0
VERTEX
  5
48DA
330
42AE
100
AcDbEntity
  8
241
  6
Continuous
100
AcDbVertex
100
AcDb3dPolylineVertex
 10
211.481
 20
24.0328
 30
0.0
 70
    32
  0
VERTEX
  5
48DB
330
42AE
100
AcDbEntity
  8
241
  6
Continuous
100
AcDbVertex
100
AcDb3dPolylineVertex
 10
211.582
 20
23.8991
 30
0.0
 70
    32
  0
VERTEX
  5
48DC
330
42AE
100
AcDbEntity
  8
241
  6
Continuous
100
AcDbVertex
100
AcDb3dPolylineVertex
 10
211.68
 20
23.7632
 30
0.0
 70
    32
  0
VERTEX
  5
48DD
330
42AE
100
AcDbEntity
  8
241
  6
Continuous
100
AcDbVertex
100
AcDb3dPolylineVertex
 10
211.777
 20
23.6252
 30
0.0
 70
    32
  0
VERTEX
  5
48DE
330
42AE
100
AcDbEntity
  8
241
  6
Continuous
100
AcDbVertex
100
AcDb3dPolylineVertex
 10
211.871
 20
23.485
 30
0.0
 70
    32
  0
VERTEX
  5
48DF
330
42AE
100
AcDbEntity
  8
241
  6
Continuous
100
AcDbVertex
100
AcDb3dPolylineVertex
 10
211.963
 20
23.3428
 30
0.0
 70
    32
  0
VERTEX
  5
48E0
330
42AE
100
AcDbEntity
  8
241
  6
Continuous
100
AcDbVertex
100
AcDb3dPolylineVertex
 10
212.052
 20
23.1986
 30
0.0
 70
    32
  0
VERTEX
  5
48E1
330
42AE
100
AcDbEntity
  8
241
  6
Continuous
100
AcDbVertex
100
AcDb3dPolylineVertex
 10
212.139
 20
23.0525
 30
0.0
 70
    32
  0
VERTEX
  5
48E2
330
42AE
100
AcDbEntity
  8
241
  6
Continuous
100
AcDbVertex
100
AcDb3dPolylineVertex
 10
212.223
 20
22.9044
 30
0.0
 70
    32
  0
VERTEX
  5
48E3
330
42AE
100
AcDbEntity
  8
241
  6
Continuous
100
AcDbVertex
100
AcDb3dPolylineVertex
 10
212.305
 20
22.7545
 30
0.0
 70
    32
  0
VERTEX
  5
48E4
330
42AE
100
AcDbEntity
  8
241
  6
Continuous
100
AcDbVertex
100
AcDb3dPolylineVertex
 10
212.385
 20
22.6028
 30
0.0
 70
    32
  0
VERTEX
  5
48E5
330
42AE
100
AcDbEntity
  8
241
  6
Continuous
100
AcDbVertex
100
AcDb3dPolylineVertex
 10
212.462
 20
22.4494
 30
0.0
 70
    32
  0
VERTEX
  5
48E6
330
42AE
100
AcDbEntity
  8
241
  6
Continuous
100
AcDbVertex
100
AcDb3dPolylineVertex
 10
212.536
 20
22.2942
 30
0.0
 70
    32
  0
VERTEX
  5
48E7
330
42AE
100
AcDbEntity
  8
241
  6
Continuous
100
AcDbVertex
100
AcDb3dPolylineVertex
 10
212.608
 20
22.1375
 30
0.0
 70
    32
  0
VERTEX
  5
48E8
330
42AE
100
AcDbEntity
  8
241
  6
Continuous
100
AcDbVertex
100
AcDb3dPolylineVertex
 10
212.677
 20
21.9792
 30
0.0
 70
    32
  0
VERTEX
  5
48E9
330
42AE
100
AcDbEntity
  8
241
  6
Continuous
100
AcDbVertex
100
AcDb3dPolylineVertex
 10
212.743
 20
21.8194
 30
0.0
 70
    32
  0
VERTEX
  5
48EA
330
42AE
100
AcDbEntity
  8
241
  6
Continuous
100
AcDbVertex
100
AcDb3dPolylineVertex
 10
212.807
 20
21.6582
 30
0.0
 70
    32
  0
VERTEX
  5
48EB
330
42AE
100
AcDbEntity
  8
241
  6
Continuous
100
AcDbVertex
100
AcDb3dPolylineVertex
 10
212.868
 20
21.4956
 30
0.0
 70
    32
  0
VERTEX
  5
48EC
330
42AE
100
AcDbEntity
  8
241
  6
Continuous
100
AcDbVertex
100
AcDb3dPolylineVertex
 10
212.927
 20
21.3316
 30
0.0
 70
    32
  0
VERTEX
  5
48ED
330
42AE
100
AcDbEntity
  8
241
  6
Continuous
100
AcDbVertex
100
AcDb3dPolylineVertex
 10
212.982
 20
21.1664
 30
0.0
 70
    32
  0
VERTEX
  5
48EE
330
42AE
100
AcDbEntity
  8
241
  6
Continuous
100
AcDbVertex
100
AcDb3dPolylineVertex
 10
213.035
 20
21.0
 30
0.0
 70
    32
  0
SEQEND
  5
48EF
330
42AE
100
AcDbEntity
  8
241
  6
Continuous
  0
ARC
  5
42AF
330
4D0A
100
AcDbEntity
  8
240
  6
Continuous
100
AcDbCircle
 10
217.0
 20
-0.0000000000001137
 30
0.0
 40
54.99999999999998
100
AcDbArc
 50
151.0027138390073
 51
168.5903793711793
  0
LWPOLYLINE
  5
42B1
330
4D0A
100
AcDbEntity
  8
250
  6
Continuous
100
AcDbPolyline
 90
        5
 70
   128
 43
0.0
 10
168.8946520984173
 20
-26.66224539279927
 10
168.870895922184
 20
-26.61934122443188
 10
168.7263136804104
 20
-26.35637298226345
 10
168.6692273318768
 20
-26.25140734016884
 10
168.6784399747849
 20
-26.26826800405968
  0
LWPOLYLINE
  5
42B2
330
4D0A
100
AcDbEntity
  8
240
  6
Continuous
100
AcDbPolyline
 90
        3
 70
   128
 43
0.0
 10
164.800099849701
 20
0.4128784639760852
 10
164.7882571518421
 20
0.4334274563007058
 10
164.361096739769
 20
1.230690977536139
  0
LINE
  5
42B3
330
4D0A
100
AcDbEntity
  8
240
  6
Continuous
100
AcDbLine
 10
164.800099849701
 20
0.4128784639760852
 30
0.0
 11
165.5288560390473
 21
-0.8493649074807763
 31
0.0
  0
LWPOLYLINE
  5
42B5
330
4D0A
100
AcDbEntity
  8
241
  6
Continuous
100
AcDbPolyline
 90
       38
 70
   128
 43
0.0
 10
204.3696544776091
 20
-20.57118957867146
 10
204.9413853420099
 20
-21.41197263947879
 10
205.6261253572604
 20
-22.15382598014116
 10
206.4041757998246
 20
-22.77540783073709
 10
207.253153575063
 20
-23.25883641313589
 10
208.1486351381118
 20
-23.59020436719823
 10
209.0648591148015
 20
-23.75997884020581
 10
209.9754674094873
 20
-23.76327572967797
 10
210.8542634794714
 20
-23.60000019010704
 10
211.6759659618405
 20
-23.27484936149153
 10
212.4169359722467
 20
-22.79717724117018
 10
213.0558571525713
 20
-22.1807255863489
 10
213.5743489037373
 20
-21.44322858876649
 10
213.9574951620792
 20
-20.60590269428599
 10
214.1942735073371
 20
-19.69283624437594
 10
214.2778722576192
 20
-18.73029649838463
 10
214.2058864290877
 20
-17.7459739723124
 10
213.9803869229652
 20
-16.76818583308271
 10
213.607860949477
 20
-15.82506126520707
 10
213.099025402624
 20
-14.94373224536048
 10
212.4685185546545
 20
-14.14955300481222
 10
211.7344789396238
 20
-13.46537063435448
 10
210.9180235407936
 20
-12.91086781509761
 10
210.0426402934718
 20
-12.50199658357087
 10
209.1335123798776
 20
-12.25051942067534
 10
208.2167937548399
 20
-12.16367086652394
 10
207.3188567441359
 20
-12.24394939589524
 10
206.4655333606934
 20
-12.48904554166176
 10
205.6813721646124
 20
-12.89190833395525
 10
204.9889320457853
 20
-13.44094814373193
 10
204.4081332457082
 20
-14.12037009529865
 10
203.9556842884016
 20
-14.91062845612941
 10
203.6446013065956
 20
-15.78898893200278
 10
203.4838335912892
 20
-16.73018269125487
 10
203.4780061369429
 20
-17.70713330305909
 10
203.6272865888081
 20
-18.69173567704342
 10
203.9273804200789
 20
-19.65566459556929
 10
204.3696544776091
 20
-20.57118957867146
  0
ARC
  5
42B6
330
4D0A
100
AcDbEntity
  8
241
  6
Continuous
100
AcDbCircle
 10
206.5783666301312
 20
-19.29598902285056
 30
0.0
 40
7.886420890741081
100
AcDbArc
 50
282.8416104375323
 51
137.1583895624723
  0
ARC
  5
42B7
330
4D0A
100
AcDbEntity
  8
240
  6
Continuous
100
AcDbCircle
 10
217.6124949959959
 20
-34.99464030219315
 30
0.0
 40
20.00000000000003
100
AcDbArc
 50
240.0000000000002
 51
271.0027191338762
  0
ARC
  5
42B8
330
4D0A
100
AcDbEntity
  8
240
  6
Continuous
100
AcDbCircle
 10
217.0
 20
-0.0000000000001137
 30
0.0
 40
55.0
100
AcDbArc
 50
271.002719133873
 51
288.5903778907309
  0
LINE
  5
42B9
330
4D0A
100
AcDbEntity
  8
241
  6
Continuous
100
AcDbLine
 10
234.3205075458332
 20
-10.0000010165672
 30
0.0
 11
255.9711436717844
 21
-22.49999877971744
 31
0.0
  0
LINE
  5
42BA
330
4D0A
100
AcDbEntity
  8
241
  6
Continuous
100
AcDbLine
 10
221.8205079510808
 20
-31.65063634514809
 30
0.0
 11
243.4711437548662
 21
-44.15063427109834
 31
0.0
  0
LINE
  5
42BB
330
4D0A
100
AcDbEntity
  8
241
  6
Continuous
100
AcDbLine
 10
221.8205079510808
 20
-31.65063634514809
 30
0.0
 11
234.3205075458332
 21
-10.0000010165672
 31
0.0
  0
ARC
  5
42BC
330
4D0A
100
AcDbEntity
  8
240
  6
Continuous
100
AcDbCircle
 10
229.7520088650784
 20
-37.91287866161372
 30
0.0
 40
14.99999850402665
100
AcDbArc
 50
288.5903689326477
 51
326.4539912394283
  0
LINE
  5
42BD
330
4D0A
100
AcDbEntity
  8
240
  6
Continuous
100
AcDbLine
 10
243.3711436280324
 20
-44.32383957579417
 30
0.0
 11
242.7455696210518
 21
-45.40736556877638
 31
0.0
  0
LWPOLYLINE
  5
42BE
330
4D0A
100
AcDbEntity
  8
240
  6
Continuous
100
AcDbPolyline
 90
        3
 70
   128
 43
0.0
 10
242.7423873990774
 20
-45.41287943720817
 10
242.730511173606
 20
-45.43340951204299
 10
242.2536423504353
 20
-46.20197415351865
  0
LINE
  5
42BF
330
4D0A
100
AcDbEntity
  8
241
  6
Continuous
100
AcDbLine
 10
199.6794913088671
 20
-9.999999032847288
 30
0.0
 11
178.0288568864712
 21
-22.50000147703822
 31
0.0
  0
LINE
  5
42C0
330
4D0A
100
AcDbEntity
  8
240
  6
Continuous
100
AcDbLine
 10
164.800100069361
 20
0.4128774626206054
 30
0.0
 11
186.3782217800617
 21
-36.96152567863476
 31
0.0
  0
POLYLINE
  5
42C1
330
4D0A
100
AcDbEntity
  8
241
  6
Continuous
100
AcDb3dPolyline
 66
     1
 10
0.0
 20
0.0
 30
0.0
 70
     8
  0
VERTEX
  5
48F0
330
42C1
100
AcDbEntity
  8
241
  6
Continuous
100
AcDbVertex
100
AcDb3dPolylineVertex
 10
208.331
 20
-26.9852
 30
0.0
 70
    32
  0
VERTEX
  5
48F1
330
42C1
100
AcDbEntity
  8
241
  6
Continuous
100
AcDbVertex
100
AcDb3dPolylineVertex
 10
208.161
 20
-27.0225
 30
0.0
 70
    32
  0
VERTEX
  5
48F2
330
42C1
100
AcDbEntity
  8
241
  6
Continuous
100
AcDbVertex
100
AcDb3dPolylineVertex
 10
207.99
 20
-27.0569
 30
0.0
 70
    32
  0
VERTEX
  5
48F3
330
42C1
100
AcDbEntity
  8
241
  6
Continuous
100
AcDbVertex
100
AcDb3dPolylineVertex
 10
207.818
 20
-27.0882
 30
0.0
 70
    32
  0
VERTEX
  5
48F4
330
42C1
100
AcDbEntity
  8
241
  6
Continuous
100
AcDbVertex
100
AcDb3dPolylineVertex
 10
207.647
 20
-27.1166
 30
0.0
 70
    32
  0
VERTEX
  5
48F5
330
42C1
100
AcDbEntity
  8
241
  6
Continuous
100
AcDbVertex
100
AcDb3dPolylineVertex
 10
207.475
 20
-27.1419
 30
0.0
 70
    32
  0
VERTEX
  5
48F6
330
42C1
100
AcDbEntity
  8
241
  6
Continuous
100
AcDbVertex
100
AcDb3dPolylineVertex
 10
207.304
 20
-27.1642
 30
0.0
 70
    32
  0
VERTEX
  5
48F7
330
42C1
100
AcDbEntity
  8
241
  6
Continuous
100
AcDbVertex
100
AcDb3dPolylineVertex
 10
207.132
 20
-27.1835
 30
0.0
 70
    32
  0
VERTEX
  5
48F8
330
42C1
100
AcDbEntity
  8
241
  6
Continuous
100
AcDbVertex
100
AcDb3dPolylineVertex
 10
206.961
 20
-27.1997
 30
0.0
 70
    32
  0
VERTEX
  5
48F9
330
42C1
100
AcDbEntity
  8
241
  6
Continuous
100
AcDbVertex
100
AcDb3dPolylineVertex
 10
206.789
 20
-27.2128
 30
0.0
 70
    32
  0
VERTEX
  5
48FA
330
42C1
100
AcDbEntity
  8
241
  6
Continuous
100
AcDbVertex
100
AcDb3dPolylineVertex
 10
206.618
 20
-27.2229
 30
0.0
 70
    32
  0
VERTEX
  5
48FB
330
42C1
100
AcDbEntity
  8
241
  6
Continuous
100
AcDbVertex
100
AcDb3dPolylineVertex
 10
206.447
 20
-27.23
 30
0.0
 70
    32
  0
VERTEX
  5
48FC
330
42C1
100
AcDbEntity
  8
241
  6
Continuous
100
AcDbVertex
100
AcDb3dPolylineVertex
 10
206.276
 20
-27.2339
 30
0.0
 70
    32
  0
VERTEX
  5
48FD
330
42C1
100
AcDbEntity
  8
241
  6
Continuous
100
AcDbVertex
100
AcDb3dPolylineVertex
 10
206.105
 20
-27.2348
 30
0.0
 70
    32
  0
VERTEX
  5
48FE
330
42C1
100
AcDbEntity
  8
241
  6
Continuous
100
AcDbVertex
100
AcDb3dPolylineVertex
 10
205.935
 20
-27.2327
 30
0.0
 70
    32
  0
VERTEX
  5
48FF
330
42C1
100
AcDbEntity
  8
241
  6
Continuous
100
AcDbVertex
100
AcDb3dPolylineVertex
 10
205.766
 20
-27.2274
 30
0.0
 70
    32
  0
VERTEX
  5
4900
330
42C1
100
AcDbEntity
  8
241
  6
Continuous
100
AcDbVertex
100
AcDb3dPolylineVertex
 10
205.597
 20
-27.2191
 30
0.0
 70
    32
  0
VERTEX
  5
4901
330
42C1
100
AcDbEntity
  8
241
  6
Continuous
100
AcDbVertex
100
AcDb3dPolylineVertex
 10
205.428
 20
-27.2078
 30
0.0
 70
    32
  0
VERTEX
  5
4902
330
42C1
100
AcDbEntity
  8
241
  6
Continuous
100
AcDbVertex
100
AcDb3dPolylineVertex
 10
205.261
 20
-27.1933
 30
0.0
 70
    32
  0
VERTEX
  5
4903
330
42C1
100
AcDbEntity
  8
241
  6
Continuous
100
AcDbVertex
100
AcDb3dPolylineVertex
 10
205.094
 20
-27.1759
 30
0.0
 70
    32
  0
VERTEX
  5
4904
330
42C1
100
AcDbEntity
  8
241
  6
Continuous
100
AcDbVertex
100
AcDb3dPolylineVertex
 10
204.927
 20
-27.1554
 30
0.0
 70
    32
  0
VERTEX
  5
4905
330
42C1
100
AcDbEntity
  8
241
  6
Continuous
100
AcDbVertex
100
AcDb3dPolylineVertex
 10
204.762
 20
-27.1318
 30
0.0
 70
    32
  0
VERTEX
  5
4906
330
42C1
100
AcDbEntity
  8
241
  6
Continuous
100
AcDbVertex
100
AcDb3dPolylineVertex
 10
204.598
 20
-27.1052
 30
0.0
 70
    32
  0
VERTEX
  5
4907
330
42C1
100
AcDbEntity
  8
241
  6
Continuous
100
AcDbVertex
100
AcDb3dPolylineVertex
 10
204.434
 20
-27.0756
 30
0.0
 70
    32
  0
VERTEX
  5
4908
330
42C1
100
AcDbEntity
  8
241
  6
Continuous
100
AcDbVertex
100
AcDb3dPolylineVertex
 10
204.272
 20
-27.043
 30
0.0
 70
    32
  0
VERTEX
  5
4909
330
42C1
100
AcDbEntity
  8
241
  6
Continuous
100
AcDbVertex
100
AcDb3dPolylineVertex
 10
204.111
 20
-27.0074
 30
0.0
 70
    32
  0
VERTEX
  5
490A
330
42C1
100
AcDbEntity
  8
241
  6
Continuous
100
AcDbVertex
100
AcDb3dPolylineVertex
 10
203.95
 20
-26.9688
 30
0.0
 70
    32
  0
VERTEX
  5
490B
330
42C1
100
AcDbEntity
  8
241
  6
Continuous
100
AcDbVertex
100
AcDb3dPolylineVertex
 10
203.791
 20
-26.9273
 30
0.0
 70
    32
  0
VERTEX
  5
490C
330
42C1
100
AcDbEntity
  8
241
  6
Continuous
100
AcDbVertex
100
AcDb3dPolylineVertex
 10
203.634
 20
-26.8828
 30
0.0
 70
    32
  0
VERTEX
  5
490D
330
42C1
100
AcDbEntity
  8
241
  6
Continuous
100
AcDbVertex
100
AcDb3dPolylineVertex
 10
203.477
 20
-26.8353
 30
0.0
 70
    32
  0
VERTEX
  5
490E
330
42C1
100
AcDbEntity
  8
241
  6
Continuous
100
AcDbVertex
100
AcDb3dPolylineVertex
 10
203.323
 20
-26.7849
 30
0.0
 70
    32
  0
VERTEX
  5
490F
330
42C1
100
AcDbEntity
  8
241
  6
Continuous
100
AcDbVertex
100
AcDb3dPolylineVertex
 10
203.169
 20
-26.7317
 30
0.0
 70
    32
  0
VERTEX
  5
4910
330
42C1
100
AcDbEntity
  8
241
  6
Continuous
100
AcDbVertex
100
AcDb3dPolylineVertex
 10
203.017
 20
-26.6755
 30
0.0
 70
    32
  0
VERTEX
  5
4911
330
42C1
100
AcDbEntity
  8
241
  6
Continuous
100
AcDbVertex
100
AcDb3dPolylineVertex
 10
202.867
 20
-26.6165
 30
0.0
 70
    32
  0
VERTEX
  5
4912
330
42C1
100
AcDbEntity
  8
241
  6
Continuous
100
AcDbVertex
100
AcDb3dPolylineVertex
 10
202.718
 20
-26.5546
 30
0.0
 70
    32
  0
VERTEX
  5
4913
330
42C1
100
AcDbEntity
  8
241
  6
Continuous
100
AcDbVertex
100
AcDb3dPolylineVertex
 10
202.571
 20
-26.49
 30
0.0
 70
    32
  0
VERTEX
  5
4914
330
42C1
100
AcDbEntity
  8
241
  6
Continuous
100
AcDbVertex
100
AcDb3dPolylineVertex
 10
202.425
 20
-26.4225
 30
0.0
 70
    32
  0
VERTEX
  5
4915
330
42C1
100
AcDbEntity
  8
241
  6
Continuous
100
AcDbVertex
100
AcDb3dPolylineVertex
 10
202.282
 20
-26.3523
 30
0.0
 70
    32
  0
VERTEX
  5
4916
330
42C1
100
AcDbEntity
  8
241
  6
Continuous
100
AcDbVertex
100
AcDb3dPolylineVertex
 10
202.14
 20
-26.2793
 30
0.0
 70
    32
  0
VERTEX
  5
4917
330
42C1
100
AcDbEntity
  8
241
  6
Continuous
100
AcDbVertex
100
AcDb3dPolylineVertex
 10
202.0
 20
-26.2036
 30
0.0
 70
    32
  0
VERTEX
  5
4918
330
42C1
100
AcDbEntity
  8
241
  6
Continuous
100
AcDbVertex
100
AcDb3dPolylineVertex
 10
201.862
 20
-26.1253
 30
0.0
 70
    32
  0
VERTEX
  5
4919
330
42C1
100
AcDbEntity
  8
241
  6
Continuous
100
AcDbVertex
100
AcDb3dPolylineVertex
 10
201.726
 20
-26.0442
 30
0.0
 70
    32
  0
VERTEX
  5
491A
330
42C1
100
AcDbEntity
  8
241
  6
Continuous
100
AcDbVertex
100
AcDb3dPolylineVertex
 10
201.592
 20
-25.9606
 30
0.0
 70
    32
  0
VERTEX
  5
491B
330
42C1
100
AcDbEntity
  8
241
  6
Continuous
100
AcDbVertex
100
AcDb3dPolylineVertex
 10
201.46
 20
-25.8743
 30
0.0
 70
    32
  0
VERTEX
  5
491C
330
42C1
100
AcDbEntity
  8
241
  6
Continuous
100
AcDbVertex
100
AcDb3dPolylineVertex
 10
201.33
 20
-25.7855
 30
0.0
 70
    32
  0
VERTEX
  5
491D
330
42C1
100
AcDbEntity
  8
241
  6
Continuous
100
AcDbVertex
100
AcDb3dPolylineVertex
 10
201.203
 20
-25.6941
 30
0.0
 70
    32
  0
VERTEX
  5
491E
330
42C1
100
AcDbEntity
  8
241
  6
Continuous
100
AcDbVertex
100
AcDb3dPolylineVertex
 10
201.077
 20
-25.6003
 30
0.0
 70
    32
  0
VERTEX
  5
491F
330
42C1
100
AcDbEntity
  8
241
  6
Continuous
100
AcDbVertex
100
AcDb3dPolylineVertex
 10
200.954
 20
-25.5039
 30
0.0
 70
    32
  0
VERTEX
  5
4920
330
42C1
100
AcDbEntity
  8
241
  6
Continuous
100
AcDbVertex
100
AcDb3dPolylineVertex
 10
200.833
 20
-25.4052
 30
0.0
 70
    32
  0
VERTEX
  5
4921
330
42C1
100
AcDbEntity
  8
241
  6
Continuous
100
AcDbVertex
100
AcDb3dPolylineVertex
 10
200.715
 20
-25.3041
 30
0.0
 70
    32
  0
VERTEX
  5
4922
330
42C1
100
AcDbEntity
  8
241
  6
Continuous
100
AcDbVertex
100
AcDb3dPolylineVertex
 10
200.599
 20
-25.2006
 30
0.0
 70
    32
  0
VERTEX
  5
4923
330
42C1
100
AcDbEntity
  8
241
  6
Continuous
100
AcDbVertex
100
AcDb3dPolylineVertex
 10
200.485
 20
-25.0947
 30
0.0
 70
    32
  0
VERTEX
  5
4924
330
42C1
100
AcDbEntity
  8
241
  6
Continuous
100
AcDbVertex
100
AcDb3dPolylineVertex
 10
200.374
 20
-24.9866
 30
0.0
 70
    32
  0
VERTEX
  5
4925
330
42C1
100
AcDbEntity
  8
241
  6
Continuous
100
AcDbVertex
100
AcDb3dPolylineVertex
 10
200.266
 20
-24.8763
 30
0.0
 70
    32
  0
VERTEX
  5
4926
330
42C1
100
AcDbEntity
  8
241
  6
Continuous
100
AcDbVertex
100
AcDb3dPolylineVertex
 10
200.16
 20
-24.7638
 30
0.0
 70
    32
  0
VERTEX
  5
4927
330
42C1
100
AcDbEntity
  8
241
  6
Continuous
100
AcDbVertex
100
AcDb3dPolylineVertex
 10
200.057
 20
-24.6491
 30
0.0
 70
    32
  0
VERTEX
  5
4928
330
42C1
100
AcDbEntity
  8
241
  6
Continuous
100
AcDbVertex
100
AcDb3dPolylineVertex
 10
199.956
 20
-24.5323
 30
0.0
 70
    32
  0
VERTEX
  5
4929
330
42C1
100
AcDbEntity
  8
241
  6
Continuous
100
AcDbVertex
100
AcDb3dPolylineVertex
 10
199.858
 20
-24.4134
 30
0.0
 70
    32
  0
VERTEX
  5
492A
330
42C1
100
AcDbEntity
  8
241
  6
Continuous
100
AcDbVertex
100
AcDb3dPolylineVertex
 10
199.763
 20
-24.2925
 30
0.0
 70
    32
  0
VERTEX
  5
492B
330
42C1
100
AcDbEntity
  8
241
  6
Continuous
100
AcDbVertex
100
AcDb3dPolylineVertex
 10
199.67
 20
-24.1696
 30
0.0
 70
    32
  0
VERTEX
  5
492C
330
42C1
100
AcDbEntity
  8
241
  6
Continuous
100
AcDbVertex
100
AcDb3dPolylineVertex
 10
199.58
 20
-24.0448
 30
0.0
 70
    32
  0
VERTEX
  5
492D
330
42C1
100
AcDbEntity
  8
241
  6
Continuous
100
AcDbVertex
100
AcDb3dPolylineVertex
 10
199.493
 20
-23.9181
 30
0.0
 70
    32
  0
VERTEX
  5
492E
330
42C1
100
AcDbEntity
  8
241
  6
Continuous
100
AcDbVertex
100
AcDb3dPolylineVertex
 10
199.409
 20
-23.7895
 30
0.0
 70
    32
  0
VERTEX
  5
492F
330
42C1
100
AcDbEntity
  8
241
  6
Continuous
100
AcDbVertex
100
AcDb3dPolylineVertex
 10
199.328
 20
-23.6591
 30
0.0
 70
    32
  0
VERTEX
  5
4930
330
42C1
100
AcDbEntity
  8
241
  6
Continuous
100
AcDbVertex
100
AcDb3dPolylineVertex
 10
199.25
 20
-23.527
 30
0.0
 70
    32
  0
VERTEX
  5
4931
330
42C1
100
AcDbEntity
  8
241
  6
Continuous
100
AcDbVertex
100
AcDb3dPolylineVertex
 10
199.175
 20
-23.3932
 30
0.0
 70
    32
  0
VERTEX
  5
4932
330
42C1
100
AcDbEntity
  8
241
  6
Continuous
100
AcDbVertex
100
AcDb3dPolylineVertex
 10
199.102
 20
-23.2577
 30
0.0
 70
    32
  0
VERTEX
  5
4933
330
42C1
100
AcDbEntity
  8
241
  6
Continuous
100
AcDbVertex
100
AcDb3dPolylineVertex
 10
199.033
 20
-23.1207
 30
0.0
 70
    32
  0
VERTEX
  5
4934
330
42C1
100
AcDbEntity
  8
241
  6
Continuous
100
AcDbVertex
100
AcDb3dPolylineVertex
 10
198.967
 20
-22.9821
 30
0.0
 70
    32
  0
VERTEX
  5
4935
330
42C1
100
AcDbEntity
  8
241
  6
Continuous
100
AcDbVertex
100
AcDb3dPolylineVertex
 10
198.904
 20
-22.8419
 30
0.0
 70
    32
  0
VERTEX
  5
4936
330
42C1
100
AcDbEntity
  8
241
  6
Continuous
100
AcDbVertex
100
AcDb3dPolylineVertex
 10
198.843
 20
-22.7004
 30
0.0
 70
    32
  0
VERTEX
  5
4937
330
42C1
100
AcDbEntity
  8
241
  6
Continuous
100
AcDbVertex
100
AcDb3dPolylineVertex
 10
198.7859999999999
 20
-22.5574
 30
0.0
 70
    32
  0
VERTEX
  5
4938
330
42C1
100
AcDbEntity
  8
241
  6
Continuous
100
AcDbVertex
100
AcDb3dPolylineVertex
 10
198.732
 20
-22.4131
 30
0.0
 70
    32
  0
VERTEX
  5
4939
330
42C1
100
AcDbEntity
  8
241
  6
Continuous
100
AcDbVertex
100
AcDb3dPolylineVertex
 10
198.682
 20
-22.2675
 30
0.0
 70
    32
  0
VERTEX
  5
493A
330
42C1
100
AcDbEntity
  8
241
  6
Continuous
100
AcDbVertex
100
AcDb3dPolylineVertex
 10
198.634
 20
-22.1207
 30
0.0
 70
    32
  0
VERTEX
  5
493B
330
42C1
100
AcDbEntity
  8
241
  6
Continuous
100
AcDbVertex
100
AcDb3dPolylineVertex
 10
198.589
 20
-21.9726
 30
0.0
 70
    32
  0
VERTEX
  5
493C
330
42C1
100
AcDbEntity
  8
241
  6
Continuous
100
AcDbVertex
100
AcDb3dPolylineVertex
 10
198.548
 20
-21.8235
 30
0.0
 70
    32
  0
VERTEX
  5
493D
330
42C1
100
AcDbEntity
  8
241
  6
Continuous
100
AcDbVertex
100
AcDb3dPolylineVertex
 10
198.51
 20
-21.6733
 30
0.0
 70
    32
  0
VERTEX
  5
493E
330
42C1
100
AcDbEntity
  8
241
  6
Continuous
100
AcDbVertex
100
AcDb3dPolylineVertex
 10
198.475
 20
-21.522
 30
0.0
 70
    32
  0
VERTEX
  5
493F
330
42C1
100
AcDbEntity
  8
241
  6
Continuous
100
AcDbVertex
100
AcDb3dPolylineVertex
 10
198.444
 20
-21.3698
 30
0.0
 70
    32
  0
VERTEX
  5
4940
330
42C1
100
AcDbEntity
  8
241
  6
Continuous
100
AcDbVertex
100
AcDb3dPolylineVertex
 10
198.4149999999999
 20
-21.2167
 30
0.0
 70
    32
  0
VERTEX
  5
4941
330
42C1
100
AcDbEntity
  8
241
  6
Continuous
100
AcDbVertex
100
AcDb3dPolylineVertex
 10
198.39
 20
-21.0628
 30
0.0
 70
    32
  0
VERTEX
  5
4942
330
42C1
100
AcDbEntity
  8
241
  6
Continuous
100
AcDbVertex
100
AcDb3dPolylineVertex
 10
198.368
 20
-20.908
 30
0.0
 70
    32
  0
VERTEX
  5
4943
330
42C1
100
AcDbEntity
  8
241
  6
Continuous
100
AcDbVertex
100
AcDb3dPolylineVertex
 10
198.35
 20
-20.7525
 30
0.0
 70
    32
  0
VERTEX
  5
4944
330
42C1
100
AcDbEntity
  8
241
  6
Continuous
100
AcDbVertex
100
AcDb3dPolylineVertex
 10
198.334
 20
-20.5963
 30
0.0
 70
    32
  0
VERTEX
  5
4945
330
42C1
100
AcDbEntity
  8
241
  6
Continuous
100
AcDbVertex
100
AcDb3dPolylineVertex
 10
198.322
 20
-20.4395
 30
0.0
 70
    32
  0
VERTEX
  5
4946
330
42C1
100
AcDbEntity
  8
241
  6
Continuous
100
AcDbVertex
100
AcDb3dPolylineVertex
 10
198.313
 20
-20.2822
 30
0.0
 70
    32
  0
VERTEX
  5
4947
330
42C1
100
AcDbEntity
  8
241
  6
Continuous
100
AcDbVertex
100
AcDb3dPolylineVertex
 10
198.308
 20
-20.1243
 30
0.0
 70
    32
  0
VERTEX
  5
4948
330
42C1
100
AcDbEntity
  8
241
  6
Continuous
100
AcDbVertex
100
AcDb3dPolylineVertex
 10
198.306
 20
-19.966
 30
0.0
 70
    32
  0
VERTEX
  5
4949
330
42C1
100
AcDbEntity
  8
241
  6
Continuous
100
AcDbVertex
100
AcDb3dPolylineVertex
 10
198.307
 20
-19.8073
 30
0.0
 70
    32
  0
VERTEX
  5
494A
330
42C1
100
AcDbEntity
  8
241
  6
Continuous
100
AcDbVertex
100
AcDb3dPolylineVertex
 10
198.311
 20
-19.6483
 30
0.0
 70
    32
  0
VERTEX
  5
494B
330
42C1
100
AcDbEntity
  8
241
  6
Continuous
100
AcDbVertex
100
AcDb3dPolylineVertex
 10
198.319
 20
-19.489
 30
0.0
 70
    32
  0
VERTEX
  5
494C
330
42C1
100
AcDbEntity
  8
241
  6
Continuous
100
AcDbVertex
100
AcDb3dPolylineVertex
 10
198.33
 20
-19.3295
 30
0.0
 70
    32
  0
VERTEX
  5
494D
330
42C1
100
AcDbEntity
  8
241
  6
Continuous
100
AcDbVertex
100
AcDb3dPolylineVertex
 10
198.344
 20
-19.1698
 30
0.0
 70
    32
  0
VERTEX
  5
494E
330
42C1
100
AcDbEntity
  8
241
  6
Continuous
100
AcDbVertex
100
AcDb3dPolylineVertex
 10
198.362
 20
-19.01
 30
0.0
 70
    32
  0
VERTEX
  5
494F
330
42C1
100
AcDbEntity
  8
241
  6
Continuous
100
AcDbVertex
100
AcDb3dPolylineVertex
 10
198.383
 20
-18.8502
 30
0.0
 70
    32
  0
VERTEX
  5
4950
330
42C1
100
AcDbEntity
  8
241
  6
Continuous
100
AcDbVertex
100
AcDb3dPolylineVertex
 10
198.407
 20
-18.6904
 30
0.0
 70
    32
  0
VERTEX
  5
4951
330
42C1
100
AcDbEntity
  8
241
  6
Continuous
100
AcDbVertex
100
AcDb3dPolylineVertex
 10
198.434
 20
-18.5307
 30
0.0
 70
    32
  0
VERTEX
  5
4952
330
42C1
100
AcDbEntity
  8
241
  6
Continuous
100
AcDbVertex
100
AcDb3dPolylineVertex
 10
198.465
 20
-18.3712
 30
0.0
 70
    32
  0
VERTEX
  5
4953
330
42C1
100
AcDbEntity
  8
241
  6
Continuous
100
AcDbVertex
100
AcDb3dPolylineVertex
 10
198.499
 20
-18.2118
 30
0.0
 70
    32
  0
VERTEX
  5
4954
330
42C1
100
AcDbEntity
  8
241
  6
Continuous
100
AcDbVertex
100
AcDb3dPolylineVertex
 10
198.536
 20
-18.0527
 30
0.0
 70
    32
  0
VERTEX
  5
4955
330
42C1
100
AcDbEntity
  8
241
  6
Continuous
100
AcDbVertex
100
AcDb3dPolylineVertex
 10
198.576
 20
-17.8939
 30
0.0
 70
    32
  0
VERTEX
  5
4956
330
42C1
100
AcDbEntity
  8
241
  6
Continuous
100
AcDbVertex
100
AcDb3dPolylineVertex
 10
198.62
 20
-17.7355
 30
0.0
 70
    32
  0
VERTEX
  5
4957
330
42C1
100
AcDbEntity
  8
241
  6
Continuous
100
AcDbVertex
100
AcDb3dPolylineVertex
 10
198.666
 20
-17.5775
 30
0.0
 70
    32
  0
VERTEX
  5
4958
330
42C1
100
AcDbEntity
  8
241
  6
Continuous
100
AcDbVertex
100
AcDb3dPolylineVertex
 10
198.716
 20
-17.42
 30
0.0
 70
    32
  0
VERTEX
  5
4959
330
42C1
100
AcDbEntity
  8
241
  6
Continuous
100
AcDbVertex
100
AcDb3dPolylineVertex
 10
198.769
 20
-17.263
 30
0.0
 70
    32
  0
VERTEX
  5
495A
330
42C1
100
AcDbEntity
  8
241
  6
Continuous
100
AcDbVertex
100
AcDb3dPolylineVertex
 10
198.825
 20
-17.1067
 30
0.0
 70
    32
  0
VERTEX
  5
495B
330
42C1
100
AcDbEntity
  8
241
  6
Continuous
100
AcDbVertex
100
AcDb3dPolylineVertex
 10
198.884
 20
-16.951
 30
0.0
 70
    32
  0
VERTEX
  5
495C
330
42C1
100
AcDbEntity
  8
241
  6
Continuous
100
AcDbVertex
100
AcDb3dPolylineVertex
 10
198.947
 20
-16.796
 30
0.0
 70
    32
  0
VERTEX
  5
495D
330
42C1
100
AcDbEntity
  8
241
  6
Continuous
100
AcDbVertex
100
AcDb3dPolylineVertex
 10
199.012
 20
-16.6418
 30
0.0
 70
    32
  0
VERTEX
  5
495E
330
42C1
100
AcDbEntity
  8
241
  6
Continuous
100
AcDbVertex
100
AcDb3dPolylineVertex
 10
199.08
 20
-16.4885
 30
0.0
 70
    32
  0
VERTEX
  5
495F
330
42C1
100
AcDbEntity
  8
241
  6
Continuous
100
AcDbVertex
100
AcDb3dPolylineVertex
 10
199.152
 20
-16.336
 30
0.0
 70
    32
  0
VERTEX
  5
4960
330
42C1
100
AcDbEntity
  8
241
  6
Continuous
100
AcDbVertex
100
AcDb3dPolylineVertex
 10
199.226
 20
-16.1845
 30
0.0
 70
    32
  0
VERTEX
  5
4961
330
42C1
100
AcDbEntity
  8
241
  6
Continuous
100
AcDbVertex
100
AcDb3dPolylineVertex
 10
199.303
 20
-16.034
 30
0.0
 70
    32
  0
VERTEX
  5
4962
330
42C1
100
AcDbEntity
  8
241
  6
Continuous
100
AcDbVertex
100
AcDb3dPolylineVertex
 10
199.3829999999999
 20
-15.8846
 30
0.0
 70
    32
  0
VERTEX
  5
4963
330
42C1
100
AcDbEntity
  8
241
  6
Continuous
100
AcDbVertex
100
AcDb3dPolylineVertex
 10
199.467
 20
-15.7362
 30
0.0
 70
    32
  0
VERTEX
  5
4964
330
42C1
100
AcDbEntity
  8
241
  6
Continuous
100
AcDbVertex
100
AcDb3dPolylineVertex
 10
199.553
 20
-15.5891
 30
0.0
 70
    32
  0
VERTEX
  5
4965
330
42C1
100
AcDbEntity
  8
241
  6
Continuous
100
AcDbVertex
100
AcDb3dPolylineVertex
 10
199.641
 20
-15.4431
 30
0.0
 70
    32
  0
VERTEX
  5
4966
330
42C1
100
AcDbEntity
  8
241
  6
Continuous
100
AcDbVertex
100
AcDb3dPolylineVertex
 10
199.733
 20
-15.2984
 30
0.0
 70
    32
  0
VERTEX
  5
4967
330
42C1
100
AcDbEntity
  8
241
  6
Continuous
100
AcDbVertex
100
AcDb3dPolylineVertex
 10
199.828
 20
-15.1551
 30
0.0
 70
    32
  0
VERTEX
  5
4968
330
42C1
100
AcDbEntity
  8
241
  6
Continuous
100
AcDbVertex
100
AcDb3dPolylineVertex
 10
199.925
 20
-15.0131
 30
0.0
 70
    32
  0
VERTEX
  5
4969
330
42C1
100
AcDbEntity
  8
241
  6
Continuous
100
AcDbVertex
100
AcDb3dPolylineVertex
 10
200.025
 20
-14.8726
 30
0.0
 70
    32
  0
VERTEX
  5
496A
330
42C1
100
AcDbEntity
  8
241
  6
Continuous
100
AcDbVertex
100
AcDb3dPolylineVertex
 10
200.127
 20
-14.7336
 30
0.0
 70
    32
  0
VERTEX
  5
496B
330
42C1
100
AcDbEntity
  8
241
  6
Continuous
100
AcDbVertex
100
AcDb3dPolylineVertex
 10
200.232
 20
-14.5961
 30
0.0
 70
    32
  0
VERTEX
  5
496C
330
42C1
100
AcDbEntity
  8
241
  6
Continuous
100
AcDbVertex
100
AcDb3dPolylineVertex
 10
200.34
 20
-14.4602
 30
0.0
 70
    32
  0
VERTEX
  5
496D
330
42C1
100
AcDbEntity
  8
241
  6
Continuous
100
AcDbVertex
100
AcDb3dPolylineVertex
 10
200.45
 20
-14.3259
 30
0.0
 70
    32
  0
VERTEX
  5
496E
330
42C1
100
AcDbEntity
  8
241
  6
Continuous
100
AcDbVertex
100
AcDb3dPolylineVertex
 10
200.563
 20
-14.1933
 30
0.0
 70
    32
  0
VERTEX
  5
496F
330
42C1
100
AcDbEntity
  8
241
  6
Continuous
100
AcDbVertex
100
AcDb3dPolylineVertex
 10
200.678
 20
-14.0625
 30
0.0
 70
    32
  0
VERTEX
  5
4970
330
42C1
100
AcDbEntity
  8
241
  6
Continuous
100
AcDbVertex
100
AcDb3dPolylineVertex
 10
200.796
 20
-13.9334
 30
0.0
 70
    32
  0
SEQEND
  5
4971
330
42C1
100
AcDbEntity
  8
241
  6
Continuous
  0
LINE
  5
42C2
330
4D0A
100
AcDbEntity
  8
240
  6
Continuous
100
AcDbLine
 10
193.6987301409244
 20
-44.28203403949749
 30
0.0
 11
207.6124947592616
 21
-52.3151494562627
 31
0.0
  0
ARC
  5
42C3
330
4D0A
100
AcDbEntity
  8
240
  6
Continuous
100
AcDbCircle
 10
203.6987298107781
 20
-26.96152422706632
 30
0.0
 40
20.00000000000001
100
AcDbArc
 50
210.000000000002
 51
240.0000000000002
  0
LINE
  5
42C4
330
4D0A
100
AcDbEntity
  8
240
  6
Continuous
100
AcDbLine
 10
243.3711436280497
 20
-44.32383957585829
 30
0.0
 11
264.3224026808141
 21
-8.035193502455342
 31
0.0
  0
LINE
  5
42C5
330
4D0A
100
AcDbEntity
  8
240
  6
Continuous
100
AcDbLine
 10
267.0
 20
1.96152329958272
 30
0.0
 11
267.0000000000001
 21
18.02775637731986
 31
0.0
  0
LINE
  5
42C6
330
4D0A
100
AcDbEntity
  8
240
  6
Continuous
100
AcDbLine
 10
190.3012720132206
 20
42.32050910833112
 30
0.0
 11
176.3875083871086
 21
34.28739587752494
 31
0.0
  0
ARC
  5
42C7
330
4D0A
100
AcDbEntity
  8
240
  6
Continuous
100
AcDbCircle
 10
217.0000828269215
 20
0.0000761573401746
 30
0.0
 40
54.99988809713705
100
AcDbArc
 50
31.36357935110049
 51
48.59727386130003
  0
LINE
  5
42C9
330
4D0A
100
AcDbEntity
  8
241
  6
Continuous
100
AcDbLine
 10
54.99899759888638
 20
-0.8493666956199239
 30
0.0
 11
124.9999999999999
 21
-0.8493666956201597
 31
0.0
  0
LINE
  5
42CB
330
4D0A
100
AcDbEntity
  8
241
  6
Continuous
100
AcDbLine
 10
54.9989975988863
 20
-22.67320632934556
 30
0.0
 11
124.9999999999998
 21
-22.67320632934581
 31
0.0
  0
LINE
  5
42CC
330
4D0A
100
AcDbEntity
  8
241
  6
Continuous
100
AcDbLine
 10
124.9999999999999
 20
-10.17320707440392
 30
0.0
 11
54.99899759888634
 21
-10.17320707440368
 31
0.0
  0
LWPOLYLINE
  5
42CD
330
4D0A
100
AcDbEntity
  8
241
  6
Continuous
100
AcDbPolyline
 90
       35
 70
   128
 43
0.0
 10
61.99999712407574
 20
-18.99820744991291
 10
62.94630654156193
 20
-18.95436264574517
 10
63.86039219796643
 20
-18.82432207465161
 10
64.71112184226497
 20
-18.61251510679711
 10
65.46952947974189
 20
-18.3261539041995
 10
66.10978581011281
 20
-17.97499127686014
 10
66.61008857190593
 20
-17.57098354399194
 10
66.95339828729615
 20
-17.12788820266714
 10
67.12802872061715
 20
-16.66079826652994
 10
67.12802872061715
 20
-16.18561513721933
 10
66.95339828729615
 20
-15.71852520108213
 10
66.61008857190593
 20
-15.27543079107995
 10
66.10978581011281
 20
-14.87142305821176
 10
65.46952947974192
 20
-14.52025856822724
 10
64.711121842265
 20
-14.23389736562962
 10
63.86039219796644
 20
-14.02209132909769
 10
62.94630654156193
 20
-13.89205075800413
 10
61.99999712407574
 20
-13.84820688515896
 10
61.05368770658956
 20
-13.89205075800413
 10
60.13960205018506
 20
-14.02209132909768
 10
59.28887054324135
 20
-14.2338973656296
 10
58.53046476840959
 20
-14.52025856822722
 10
57.89020843803868
 20
-14.87142305821173
 10
57.38990567624554
 20
-15.27543079107992
 10
57.0465940982102
 20
-15.7185252010821
 10
56.87196552753434
 20
-16.1856151372193
 10
56.87196552753434
 20
-16.6607982665299
 10
57.04659409821019
 20
-17.1278882026671
 10
57.38990567624554
 20
-17.57098354399191
 10
57.89020843803868
 20
-17.97499127686011
 10
58.53046476840958
 20
-18.32615390419947
 10
59.28887054324135
 20
-18.61251510679709
 10
60.13960205018506
 20
-18.8243220746516
 10
61.05368770658955
 20
-18.95436264574516
 10
61.99999712407574
 20
-18.99820744991291
  0
LINE
  5
42CE
330
4D0A
100
AcDbEntity
  8
240
  6
Continuous
100
AcDbLine
 10
43.74756433996267
 20
-54.99464079737657
 30
0.0
 11
120.9999999999997
 21
-54.99464079737694
 31
0.0
  0
LINE
  5
42CF
330
4D0A
100
AcDbEntity
  8
240
  6
Continuous
100
AcDbLine
 10
125.0
 20
44.99999999999967
 30
0.0
 11
36.99999999999992
 21
44.9999999999998
 31
0.0
  0
LINE
  5
42D2
330
4D0A
100
AcDbEntity
  8
241
  6
Continuous
100
AcDbLine
 10
44.99999713152628
 20
-22.58660450577719
 30
0.0
 11
44.99999713152635
 21
-0.9359692176801656
 31
0.0
  0
LINE
  5
42D4
330
4D0A
100
AcDbEntity
  8
241
  6
Continuous
100
AcDbLine
 10
54.99899759888634
 20
-10.17320707440368
 30
0.0
 11
54.9989975988863
 21
-22.67320632934556
 31
0.0
  0
ARC
  5
42D6
330
4D0A
100
AcDbEntity
  8
241
  6
Continuous
100
AcDbCircle
 10
49.99856672335592
 20
-1.546145148820031
 30
0.0
 40
5.140574651589075
100
AcDbArc
 50
22.40121889916748
 51
157.515278161514
  0
ARC
  5
42DA
330
4D0A
100
AcDbEntity
  8
241
  6
Continuous
100
AcDbCircle
 10
48.80270888539715
 20
-0.9409051637170019
 30
0.0
 40
3.803051729673311
100
AcDbArc
 50
159.1469414463048
 51
179.2338765547299
  0
ARC
  5
42DB
330
4D0A
100
AcDbEntity
  8
241
  6
Continuous
100
AcDbCircle
 10
51.19215878558094
 20
-0.9420836897914648
 30
0.0
 40
3.808261459203596
100
AcDbArc
 50
1.566160189215483
 51
20.84217562945342
  0
LWPOLYLINE
  5
42DC
330
4D0A
100
AcDbEntity
  8
241
  6
Continuous
100
AcDbPolyline
 90
       18
 70
   128
 43
0.0
 10
54.99899759888634
 20
-10.17320707440368
 10
54.89669740200028
 20
-10.96224311739198
 10
54.62975800037368
 20
-11.72183819115153
 10
54.20715175569043
 20
-12.42645170539609
 10
53.64308971911654
 20
-13.05239360779515
 10
52.9565373435615
 20
-13.57861693948498
 10
52.17057745903714
 20
-13.98742936551562
 10
51.31163727492078
 20
-14.26508456468572
 10
50.40859524160607
 20
-14.40224882215251
 10
49.49181526899321
 20
-14.39430836588134
 10
48.59212134033425
 20
-14.24153141677369
 10
47.73976467549784
 20
-13.94905328750599
 10
46.96340393275007
 20
-13.52670967578877
 10
46.28914082422836
 20
-12.9886995255946
 10
45.73964746668917
 20
-12.35311377793538
 10
45.33339850604519
 20
-11.64132069796312
 10
45.08405411615952
 20
-10.87725434452283
 10
44.99999713152631
 20
-10.08660431951273
  0
LWPOLYLINE
  5
42DE
330
4D0A
100
AcDbEntity
  8
241
  6
Continuous
100
AcDbPolyline
 90
       18
 70
   128
 43
0.0
 10
54.9989975988863
 20
-22.67320632934556
 10
54.89669740200024
 20
-23.46224330365644
 10
54.62975800037365
 20
-24.22183744609342
 10
54.20715175569036
 20
-24.92645189166055
 10
53.64308971911649
 20
-25.55239379405961
 10
52.95653734356145
 20
-26.07861712574945
 10
52.17057745903709
 20
-26.4874286204575
 10
51.31163727492072
 20
-26.76508568227276
 10
50.40859524160602
 20
-26.90224900841698
 10
49.49181526899316
 20
-26.8943085521458
 10
48.59212134033422
 20
-26.74153067171558
 10
47.73976467549778
 20
-26.44905254244788
 10
46.96340393275002
 20
-26.02670893073065
 10
46.28914082422832
 20
-25.48870064318164
 10
45.73964746668912
 20
-24.85311396419985
 10
45.33339850604515
 20
-24.14132088422757
 10
45.08405411615949
 20
-23.3772545307873
 10
44.99999713152628
 20
-22.58660450577719
  0
LINE
  5
42E2
330
4D0A
100
AcDbEntity
  8
240
  6
Continuous
100
AcDbLine
 10
124.9999999999997
 20
-50.99464079737696
 30
0.0
 11
125.0
 21
44.99999999999967
 31
0.0
  0
ARC
  5
42E3
330
4D0A
100
AcDbEntity
  8
240
  6
Continuous
100
AcDbCircle
 10
120.9999999999997
 20
-50.99464079737694
 30
0.0
 40
4.0
100
AcDbArc
 50
269.9999999999997
 51
359.9999999999998
  0
LINE
  5
42E4
330
4D0A
100
AcDbEntity
  8
245
  6
CENTER2
100
AcDbLine
 10
119.0003005199998
 20
32.49999631179097
 30
0.0
 11
55.00030052000035
 21
32.49999631179137
 31
0.0
  0
LINE
  5
42E5
330
4D0A
100
AcDbEntity
  8
245
  6
CENTER2
100
AcDbLine
 10
61.9999952681229
 20
25.49999821776479
 30
0.0
 11
61.9999952681229
 21
39.49999820223501
 31
0.0
  0
LINE
  5
42E6
330
4D0A
100
AcDbEntity
  8
245
  6
CENTER2
100
AcDbLine
 10
86.99999526812289
 20
25.49999821776463
 30
0.0
 11
86.99999526812289
 21
39.49999820223484
 31
0.0
  0
LINE
  5
42E7
330
4D0A
100
AcDbEntity
  8
245
  6
CENTER2
100
AcDbLine
 10
111.9999952681229
 20
39.49999820223471
 30
0.0
 11
111.9999952681229
 21
25.49999821776449
 31
0.0
  0
LWPOLYLINE
  5
42E8
330
4D0A
100
AcDbEntity
  8
241
  6
Continuous
100
AcDbPolyline
 90
       35
 70
   128
 43
0.0
 10
111.9999960064886
 20
-18.99820744991307
 10
112.9463091492651
 20
-18.95436264574533
 10
113.8603910803793
 20
-18.82432207465177
 10
114.7111207246779
 20
-18.61251510679728
 10
115.4695302247999
 20
-18.32615390419966
 10
116.109788417816
 20
-17.9749912768603
 10
116.6100874543188
 20
-17.57098354399211
 10
116.9534027576445
 20
-17.1278882026673
 10
117.1280294656752
 20
-16.6607982665301
 10
117.1280294656752
 20
-16.1856151372195
 10
116.9534027576445
 20
-15.7185252010823
 10
116.6100874543188
 20
-15.27543079108012
 10
116.109788417816
 20
-14.87142305821192
 10
115.4695302247999
 20
-14.52025856822741
 10
114.7111207246779
 20
-14.23389736562979
 10
113.8603910803793
 20
-14.02209132909786
 10
112.9463091492651
 20
-13.8920507580043
 10
111.9999960064886
 20
-13.84820688515912
 10
111.0536903142927
 20
-13.89205075800429
 10
110.139600932598
 20
-14.02209132909785
 10
109.2888712882994
 20
-14.23389736562977
 10
108.5304617881773
 20
-14.52025856822739
 10
107.8902110457419
 20
-14.8714230582119
 10
107.3899045586584
 20
-15.27543079108009
 10
107.0465967059134
 20
-15.71852520108226
 10
106.8719625473021
 20
-16.18561513721946
 10
106.8719625473021
 20
-16.66079826653007
 10
107.0465967059134
 20
-17.12788820266727
 10
107.3899045586584
 20
-17.57098354399208
 10
107.8902110457419
 20
-17.97499127686026
 10
108.5304617881773
 20
-18.32615390419964
 10
109.2888712882994
 20
-18.61251510679726
 10
110.139600932598
 20
-18.82432207465176
 10
111.0536903142927
 20
-18.95436264574533
 10
111.9999960064886
 20
-18.99820744991307
  0
LWPOLYLINE
  5
42E9
330
4D0A
100
AcDbEntity
  8
241
  6
Continuous
100
AcDbPolyline
 90
       35
 70
   128
 43
0.0
 10
86.99999749660475
 20
-18.99820744991299
 10
87.94630691409095
 20
-18.95436264574524
 10
88.86039257049544
 20
-18.82432207465169
 10
89.71112221479399
 20
-18.6125151067972
 10
90.46952798962577
 20
-18.32615390419957
 10
91.10978618264185
 20
-17.97499127686022
 10
91.61008894443495
 20
-17.57098354399203
 10
91.95340052247031
 20
-17.12788820266722
 10
92.12802723050105
 20
-16.66079826653002
 10
92.12802723050105
 20
-16.18561513721941
 10
91.95340052247031
 20
-15.71852520108221
 10
91.61008894443495
 20
-15.27543079108004
 10
91.10978618264185
 20
-14.87142305821184
 10
90.4695279896258
 20
-14.52025856822733
 10
89.71112221479403
 20
-14.23389736562971
 10
88.86039257049549
 20
-14.02209132909778
 10
87.94630691409098
 20
-13.89205075800422
 10
86.99999749660481
 20
-13.84820688515904
 10
86.0536880791186
 20
-13.89205075800421
 10
85.13960242271409
 20
-14.02209132909777
 10
84.28887277841555
 20
-14.23389736562969
 10
83.53046327829344
 20
-14.5202585682273
 10
82.89020881056769
 20
-14.87142305821181
 10
82.38990604877455
 20
-15.27543079108001
 10
82.04659447073922
 20
-15.71852520108218
 10
81.8719677627085
 20
-16.18561513721938
 10
81.8719677627085
 20
-16.66079826652999
 10
82.04659447073922
 20
-17.12788820266719
 10
82.38990604877455
 20
-17.57098354399199
 10
82.89020881056769
 20
-17.97499127686019
 10
83.53046327829344
 20
-18.32615390419956
 10
84.28887277841552
 20
-18.61251510679717
 10
85.13960242271409
 20
-18.82432207465168
 10
86.05368807911856
 20
-18.95436264574524
 10
86.99999749660475
 20
-18.99820744991299
  0
LINE
  5
42F0
330
4D0A
100
AcDbEntity
  8
240
  6
Continuous
100
AcDbLine
 10
24.71793876135464
 20
31.50000000000002
 30
0.0
 11
31.07863416699795
 21
34.18803058541401
 31
0.0
  0
LINE
  5
42F1
330
4D0A
100
AcDbEntity
  8
240
  6
Continuous
100
AcDbLine
 10
33.77468044530545
 20
36.93670111326287
 30
0.0
 11
36.99999999999992
 21
44.9999999999998
 31
0.0
  0
ARC
  5
42F2
330
4D0A
100
AcDbEntity
  8
240
  6
Continuous
100
AcDbCircle
 10
29.13229699087919
 20
38.79365449503348
 30
0.0
 40
5.0
100
AcDbArc
 50
292.9089247616913
 51
338.198590513644
  0
LINE
  5
42F3
330
4D0A
100
AcDbEntity
  8
240
  6
Continuous
100
AcDbLine
 10
31.0786341669979
 20
-34.18803058541437
 30
0.0
 11
24.71793876135454
 21
-31.49999999999999
 31
0.0
  0
LINE
  5
42F4
330
4D0A
100
AcDbEntity
  8
240
  6
Continuous
100
AcDbLine
 10
33.77468044530523
 20
-36.93670111326311
 30
0.0
 11
36.99999999999977
 21
-44.99999999999888
 31
0.0
  0
ARC
  5
42F5
330
4D0A
100
AcDbEntity
  8
240
  6
Continuous
100
AcDbCircle
 10
29.13229699087897
 20
-38.7936544950337
 30
0.0
 40
5.0
100
AcDbArc
 50
21.80140948635555
 51
67.09107523830454
  0
LINE
  5
42F6
330
4D0A
100
AcDbEntity
  8
241
  6
Continuous
100
AcDbLine
 10
37.0000000000001
 20
-45.00000000000295
 30
0.0
 11
37.00000000000041
 21
45.0000000000008
 31
0.0
  0
ARC
  5
42F7
330
4D0A
100
AcDbEntity
  8
240
  6
Continuous
100
AcDbCircle
 10
43.51612686420606
 20
-50.00000000000028
 30
0.0
 40
5.0
100
AcDbArc
 50
195.0000000000009
 51
272.6530260577651
  0
LINE
  5
42F8
330
4D0A
100
AcDbEntity
  8
240
  6
Continuous
100
AcDbLine
 10
38.68649773276074
 20
-51.29409522551284
 30
0.0
 11
37.0000000000001
 21
-45.00000000000295
 31
0.0
  0
LINE
  5
42F9
330
4D0A
100
AcDbEntity
  8
241
  6
Continuous
100
AcDbLine
 10
33.00000000000008
 20
-35.00000000000013
 30
0.0
 11
33.00000000000008
 21
35.62492076793752
 31
0.0
  0
LINE
  5
42FB
330
4D0A
100
AcDbEntity
  8
245
  6
CENTER2
100
AcDbLine
 10
161.0000000000001
 20
0.0000000000000136
 30
0.0
 11
273.0
 21
-0.0000000000000138
 31
0.0
  0
TEXT
  5
42FC
330
4D0A
100
AcDbEntity
  8
241
  6
Continuous
100
AcDbText
 10
-38.0
 20
84.00000000000002
 30
0.0
 40
5.0
  1
C6-180-3BH25R-125
  7
YOKO
 11
-38.0
 21
84.00000000000002
 31
0.0
100
AcDbText
 73
     1
  0
LINE
  5
4321
330
4D0A
100
AcDbEntity
  8
243
  6
HIDDEN2
100
AcDbLine
 10
45.00030272000006
 20
19.99999999999981
 30
0.0
 11
125.00030272
 21
19.99999999999953
 31
0.0
  0
LINE
  5
4333
330
4D0A
100
AcDbEntity
  8
243
  6
HIDDEN2
100
AcDbLine
 10
45.00030272000006
 20
19.99999999999981
 30
0.0
 11
45.00030350000015
 21
44.99999999999983
 31
0.0
  0
CIRCLE
  5
4345
330
4D0A
100
AcDbEntity
  8
241
  6
Continuous
100
AcDbCircle
 10
112.0003005200001
 20
32.4999982099996
 30
0.0
 40
6.0
  0
CIRCLE
  5
4346
330
4D0A
100
AcDbEntity
  8
242
  6
Continuous
100
AcDbCircle
 10
112.0003005200001
 20
32.4999982099996
 30
0.0
 40
5.149999999999976
  0
LINE
  5
4347
330
4D0A
100
AcDbEntity
  8
241
  6
Continuous
100
AcDbLine
 10
109.0002935000001
 20
30.7679473999996
 30
0.0
 11
112.0002935000001
 21
29.03589659999959
 31
0.0
  0
LINE
  5
4348
330
4D0A
100
AcDbEntity
  8
241
  6
Continuous
100
AcDbLine
 10
112.0002935000001
 20
29.03589659999959
 30
0.0
 11
115.0002935000001
 21
30.76794739999958
 31
0.0
  0
LINE
  5
4349
330
4D0A
100
AcDbEntity
  8
241
  6
Continuous
100
AcDbLine
 10
112.0002935000001
 20
35.9640998299996
 30
0.0
 11
109.0002935000001
 21
34.2320490199996
 31
0.0
  0
LINE
  5
434A
330
4D0A
100
AcDbEntity
  8
241
  6
Continuous
100
AcDbLine
 10
109.0002935000001
 20
34.2320490199996
 30
0.0
 11
109.0002935000001
 21
30.7679473999996
 31
0.0
  0
LINE
  5
434B
330
4D0A
100
AcDbEntity
  8
241
  6
Continuous
100
AcDbLine
 10
115.0002935000001
 20
34.23204901999959
 30
0.0
 11
112.0002935000001
 21
35.9640998299996
 31
0.0
  0
LINE
  5
434C
330
4D0A
100
AcDbEntity
  8
241
  6
Continuous
100
AcDbLine
 10
115.0002935000001
 20
30.76794739999958
 30
0.0
 11
115.0002935000001
 21
34.23204901999959
 31
0.0
  0
CIRCLE
  5
434D
330
4D0A
100
AcDbEntity
  8
241
  6
Continuous
100
AcDbCircle
 10
87.00030052000004
 20
32.49999820999973
 30
0.0
 40
6.0
  0
CIRCLE
  5
434E
330
4D0A
100
AcDbEntity
  8
242
  6
Continuous
100
AcDbCircle
 10
87.00030052000004
 20
32.49999820999973
 30
0.0
 40
5.149999999999976
  0
LINE
  5
434F
330
4D0A
100
AcDbEntity
  8
241
  6
Continuous
100
AcDbLine
 10
84.00029350000004
 20
30.76794739999975
 30
0.0
 11
87.00029350000004
 21
29.03589659999975
 31
0.0
  0
LINE
  5
4350
330
4D0A
100
AcDbEntity
  8
241
  6
Continuous
100
AcDbLine
 10
87.00029350000004
 20
29.03589659999975
 30
0.0
 11
90.00029350000003
 21
30.76794739999973
 31
0.0
  0
LINE
  5
4351
330
4D0A
100
AcDbEntity
  8
241
  6
Continuous
100
AcDbLine
 10
87.00029350000008
 20
35.96409982999976
 30
0.0
 11
84.00029350000009
 21
34.23204901999975
 31
0.0
  0
LINE
  5
4352
330
4D0A
100
AcDbEntity
  8
241
  6
Continuous
100
AcDbLine
 10
84.00029350000009
 20
34.23204901999975
 30
0.0
 11
84.00029350000004
 21
30.76794739999975
 31
0.0
  0
LINE
  5
4353
330
4D0A
100
AcDbEntity
  8
241
  6
Continuous
100
AcDbLine
 10
90.0002935000001
 20
34.23204901999973
 30
0.0
 11
87.00029350000008
 21
35.96409982999976
 31
0.0
  0
LINE
  5
4354
330
4D0A
100
AcDbEntity
  8
241
  6
Continuous
100
AcDbLine
 10
90.00029350000003
 20
30.76794739999973
 30
0.0
 11
90.0002935000001
 21
34.23204901999973
 31
0.0
  0
CIRCLE
  5
4355
330
4D0A
100
AcDbEntity
  8
241
  6
Continuous
100
AcDbCircle
 10
62.00030052000005
 20
32.4999982099999
 30
0.0
 40
6.0
  0
CIRCLE
  5
4356
330
4D0A
100
AcDbEntity
  8
242
  6
Continuous
100
AcDbCircle
 10
62.00030052000005
 20
32.4999982099999
 30
0.0
 40
5.149999999999976
  0
LINE
  5
4357
330
4D0A
100
AcDbEntity
  8
241
  6
Continuous
100
AcDbLine
 10
59.00029350000007
 20
30.7679473999999
 30
0.0
 11
62.00029350000004
 21
29.03589659999989
 31
0.0
  0
LINE
  5
4358
330
4D0A
100
AcDbEntity
  8
241
  6
Continuous
100
AcDbLine
 10
62.00029350000004
 20
29.03589659999989
 30
0.0
 11
65.00029350000007
 21
30.76794739999987
 31
0.0
  0
LINE
  5
4359
330
4D0A
100
AcDbEntity
  8
241
  6
Continuous
100
AcDbLine
 10
62.00029350000008
 20
35.9640998299999
 30
0.0
 11
59.00029350000007
 21
34.2320490199999
 31
0.0
  0
LINE
  5
435A
330
4D0A
100
AcDbEntity
  8
241
  6
Continuous
100
AcDbLine
 10
59.00029350000007
 20
34.2320490199999
 30
0.0
 11
59.00029350000007
 21
30.7679473999999
 31
0.0
  0
LINE
  5
435B
330
4D0A
100
AcDbEntity
  8
241
  6
Continuous
100
AcDbLine
 10
65.00029350000007
 20
34.23204901999988
 30
0.0
 11
62.00029350000008
 21
35.9640998299999
 31
0.0
  0
LINE
  5
435C
330
4D0A
100
AcDbEntity
  8
241
  6
Continuous
100
AcDbLine
 10
65.00029350000007
 20
30.76794739999987
 30
0.0
 11
65.00029350000007
 21
34.23204901999988
 31
0.0
  0
LINE
  5
4DAA
330
4D0A
100
AcDbEntity
  8
240
  6
Continuous
100
AcDbLine
 10
0.0000000000000036
 20
31.50000000000002
 30
0.0
 11
0.0000000000000036
 21
21.63061199114221
 31
0.0
  0
LINE
  5
4DAB
330
4D0A
100
AcDbEntity
  8
240
  6
Continuous
100
AcDbLine
 10
-38.0
 20
-20.680528494763
 30
0.0
 11
-38.0
 21
20.68052849476316
 31
0.0
  0
LINE
  5
4DAC
330
4D0A
100
AcDbEntity
  8
243
  6
HIDDEN2
100
AcDbLine
 10
-38.0
 20
-3.594499999999991
 30
0.0
 11
-31.80000000000001
 21
-3.594499999999991
 31
0.0
  0
LINE
  5
4DAD
330
4D0A
100
AcDbEntity
  8
243
  6
HIDDEN2
100
AcDbLine
 10
-38.0
 20
3.594500000000024
 30
0.0
 11
-31.80000000000001
 21
3.594500000000024
 31
0.0
  0
LINE
  5
4DAE
330
4D0A
100
AcDbEntity
  8
243
  6
HIDDEN2
100
AcDbLine
 10
-31.80000000000001
 20
-3.594499999999991
 30
0.0
 11
-31.80000000000001
 21
3.594500000000024
 31
0.0
  0
LINE
  5
4DAF
330
4D0A
100
AcDbEntity
  8
241
  6
Continuous
100
AcDbLine
 10
22.00000000000001
 20
-31.49999999999999
 30
0.0
 11
22.00000000000001
 21
31.50000000000002
 31
0.0
  0
LINE
  5
4DB0
330
4D0A
100
AcDbEntity
  8
240
  6
Continuous
100
AcDbLine
 10
0.0000000000000036
 20
-31.49999999999999
 30
0.0
 11
0.0000000000000036
 21
-21.63061199114183
 31
0.0
  0
LINE
  5
4DB1
330
4D0A
100
AcDbEntity
  8
241
  6
Continuous
100
AcDbLine
 10
0.0000000000000036
 20
-21.63061199114183
 30
0.0
 11
0.0000000000000036
 21
21.63061199114221
 31
0.0
  0
LINE
  5
4DB2
330
4D0A
100
AcDbEntity
  8
250
  6
Continuous
100
AcDbLine
 10
-18.78586727632071
 20
-22.94225232523718
 30
0.0
 11
-17.34899450124752
 21
-21.19684900813122
 31
0.0
  0
LINE
  5
4DB3
330
4D0A
100
AcDbEntity
  8
250
  6
Continuous
100
AcDbLine
 10
-18.14212172617428
 20
-23.31391899190384
 30
0.0
 11
-17.34899450124752
 21
-21.19684900813122
 31
0.0
  0
LINE
  5
4DB4
330
4D0A
100
AcDbEntity
  8
250
  6
Continuous
100
AcDbLine
 10
-17.34899450124752
 20
-21.19684900813122
 30
0.0
 11
-18.46399450124753
 21
-23.12808565857052
 31
0.0
  0
LWPOLYLINE
  5
4DB5
330
4D0A
100
AcDbEntity
  8
250
  6
Continuous
100
AcDbPolyline
 90
        2
 70
     0
 43
0.0
 10
-18.46399450124753
 20
-23.12808565857052
 10
-23.84889586488545
 20
-32.45500841413838
  0
TEXT
  5
4DB6
330
4D0A
100
AcDbEntity
  8
250
  6
Continuous
100
AcDbText
 10
-31.71556253155213
 20
-31.45500841413837
 30
0.0
 40
2.799999999999998
  1
C6
  7
YOKO
100
AcDbText
1001
ITEMNAME
1000
LNSP3
  0
LINE
  5
4DB7
330
4D0A
100
AcDbEntity
  8
250
  6
Continuous
100
AcDbLine
 10
-23.84889586488545
 20
-32.45500841413838
 30
0.0
 11
-34.1155625315521
 21
-32.45500841413838
 31
0.0
1001
ITEMNAME
1000
LNSP2
  0
LINE
  5
4DB8
330
4D0A
100
AcDbEntity
  8
247
  6
Continuous
100
AcDbLine
 10
6.000000000000002
 20
-17.25000000006998
 30
0.0
 11
6.000000000000002
 21
-10.55769230802998
 31
0.0
  0
ARC
  5
4DB9
330
4D0A
100
AcDbEntity
  8
247
  6
Continuous
100
AcDbCircle
 10
4.250000000069976
 20
-17.25000000006998
 30
0.0
 40
1.749999999929999
100
AcDbArc
 50
180.0
 51
0.0
  0
ARC
  5
4DBA
330
4D0A
100
AcDbEntity
  8
247
  6
Continuous
100
AcDbCircle
 10
4.250000000069976
 20
-10.55769230802998
 30
0.0
 40
1.749999999929999
100
AcDbArc
 50
0.0
 51
180.0
  0
LINE
  5
4DBB
330
4D0A
100
AcDbEntity
  8
247
  6
Continuous
100
AcDbLine
 10
2.500000000140005
 20
-16.38461538471998
 30
0.0
 11
5.500000000020007
 21
-17.244851541962
 31
0.0
  0
LINE
  5
4DBC
330
4D0A
100
AcDbEntity
  8
247
  6
Continuous
100
AcDbLine
 10
3.923076923160011
 20
-15.4849838183358
 30
0.0
 11
3.923076923160011
 21
-16.7926761259758
 31
0.0
  0
ARC
  5
4DBD
330
4D0A
100
AcDbEntity
  8
247
  6
Continuous
100
AcDbCircle
 10
3.049598667702983
 20
-15.14514381608976
 30
0.0
 40
0.5538165441895348
100
AcDbArc
 50
72.99788967529178
 51
172.924166218512
  0
ARC
  5
4DBE
330
4D0A
100
AcDbEntity
  8
247
  6
Continuous
100
AcDbCircle
 10
2.936033044465776
 20
-15.56687832302877
 30
0.0
 40
0.9904354236226808
100
AcDbArc
 50
4.742936852202211
 51
73.8492262732663
1001
GENIUS_GENOBJ-N-FIL_13
1002
{
1000
OWNER
1000
GEN
1002
}
1001
GENIUS_GENODEF_13
1002
{
1000
HIER
1070
     0
1002
}
1002
{
1000
MANEDIT
1070
     0
1002
}
1002
{
1000
NOSEL
1070
     0
1002
}
1002
{
1000
BEHIND
1070
     0
1002
}
1002
{
1000
OTHER
1070
     0
1002
}
1002
{
1000
REACTOR
1002
}
  0
LINE
  5
4DBF
330
4D0A
100
AcDbEntity
  8
247
  6
Continuous
100
AcDbLine
 10
5.500000000020007
 20
-15.93715923432197
 30
0.0
 11
5.500000000020007
 21
-17.244851541962
 31
0.0
  0
LINE
  5
4DC0
330
4D0A
100
AcDbEntity
  8
247
  6
Continuous
100
AcDbLine
 10
2.500000000140005
 20
-16.38461538471998
 30
0.0
 11
2.500000000140005
 21
-15.07692307707996
 31
0.0
  0
ARC
  5
4DC1
330
4D0A
100
AcDbEntity
  8
247
  6
Continuous
100
AcDbCircle
 10
4.482024232665538
 20
-15.56091963654695
 30
0.0
 40
0.5640818586791229
100
AcDbArc
 50
65.99094165252889
 51
172.2634434590691
  0
ARC
  5
4DC2
330
4D0A
100
AcDbEntity
  8
247
  6
Continuous
100
AcDbCircle
 10
4.487429039186566
 20
-16.03826268534704
 30
0.0
 40
1.017605944623098
100
AcDbArc
 50
5.701985164258084
 51
77.27733843682237
1001
GENIUS_GENOBJ-N-FIL_13
1002
{
1000
OWNER
1000
GEN
1002
}
1001
GENIUS_GENODEF_13
1002
{
1000
HIER
1070
     0
1002
}
1002
{
1000
MANEDIT
1070
     0
1002
}
1002
{
1000
NOSEL
1070
     0
1002
}
1002
{
1000
BEHIND
1070
     0
1002
}
1002
{
1000
OTHER
1070
     0
1002
}
1002
{
1000
REACTOR
1002
}
  0
LINE
  5
4DC3
330
4D0A
100
AcDbEntity
  8
247
  6
Continuous
100
AcDbLine
 10
5.500000000020007
 20
-14.28331308054198
 30
0.0
 11
2.500000000140005
 21
-13.42307692329999
 31
0.0
  0
LINE
  5
4DC4
330
4D0A
100
AcDbEntity
  8
247
  6
Continuous
100
AcDbLine
 10
2.500000000140005
 20
-11.00000000031998
 30
0.0
 11
2.500000000140005
 21
-11.56573661945658
 31
0.0
  0
LINE
  5
4DC5
330
4D0A
100
AcDbEntity
  8
247
  6
Continuous
100
AcDbLine
 10
5.500000000020007
 20
-12.46153846179997
 30
0.0
 11
5.500000000020007
 21
-11.84615384643999
 31
0.0
  0
ARC
  5
4DC6
330
4D0A
100
AcDbEntity
  8
247
  6
Continuous
100
AcDbCircle
 10
4.58328513597337
 20
-10.70879120912284
 30
0.0
 40
2.25265008234221
100
AcDbArc
 50
202.3594881415256
 51
254.9932485428461
  0
ARC
  5
4DC7
330
4D0A
100
AcDbEntity
  8
247
  6
Continuous
100
AcDbCircle
 10
3.308312655194527
 20
-11.37406947921321
 30
0.0
 40
0.8906723995727782
100
AcDbArc
 50
94.99458931907531
 51
155.1663289573039
1001
GENIUS_GENOBJ-N-FIL_13
1002
{
1000
OWNER
1000
GEN
1002
}
1001
GENIUS_GENODEF_13
1002
{
1000
HIER
1070
     0
1002
}
1002
{
1000
MANEDIT
1070
     0
1002
}
1002
{
1000
NOSEL
1070
     0
1002
}
1002
{
1000
BEHIND
1070
     0
1002
}
1002
{
1000
OTHER
1070
     0
1002
}
1002
{
1000
REACTOR
1002
}
  0
ARC
  5
4DC8
330
4D0A
100
AcDbEntity
  8
247
  6
Continuous
100
AcDbCircle
 10
4.160145888667783
 20
-12.22645888621256
 30
0.0
 40
1.392781735586712
100
AcDbArc
 50
15.84609655577923
 51
82.32513700416907
  0
ARC
  5
4DC9
330
4D0A
100
AcDbEntity
  8
247
  6
Continuous
100
AcDbCircle
 10
4.459243431527284
 20
-11.64221272584033
 30
0.0
 40
1.324563662670287
100
AcDbArc
 50
249.7136016704969
 51
321.7887456564093
1001
GENIUS_GENOBJ-N-FIL_13
1002
{
1000
OWNER
1000
GEN
1002
}
1001
GENIUS_GENODEF_13
1002
{
1000
HIER
1070
     0
1002
}
1002
{
1000
MANEDIT
1070
     0
1002
}
1002
{
1000
NOSEL
1070
     0
1002
}
1002
{
1000
BEHIND
1070
     0
1002
}
1002
{
1000
OTHER
1070
     0
1002
}
1002
{
1000
REACTOR
1002
}
  0
LINE
  5
4DCA
330
4D0A
100
AcDbEntity
  8
247
  6
Continuous
100
AcDbLine
 10
4.346153846219977
 20
-11.53846153875998
 30
0.0
 11
4.346153846219977
 21
-10.84615384647998
 31
0.0
  0
LINE
  5
4DCB
330
4D0A
100
AcDbEntity
  8
247
  6
Continuous
100
AcDbLine
 10
2.500000000139979
 20
-17.25000000006998
 30
0.0
 11
2.500000000139979
 21
-16.57692307701999
 31
0.0
  0
LINE
  5
4DCC
330
4D0A
100
AcDbEntity
  8
240
  6
Continuous
100
AcDbLine
 10
0.0000000000000036
 20
21.63061199114221
 30
0.0
 11
-38.0
 21
20.68052849476313
 31
0.0
1001
GRPNAME
1000
PASTMD35
  0
LINE
  5
4DCD
330
4D0A
100
AcDbEntity
  8
240
  6
Continuous
100
AcDbLine
 10
0.0000000000000036
 20
-21.63061199114183
 30
0.0
 11
-38.0
 21
-20.680528494763
 31
0.0
1001
GRPNAME
1000
PASTMD35
  0
LINE
  5
4DCE
330
4D0A
100
AcDbEntity
  8
240
  6
Continuous
100
AcDbLine
 10
0.0000000000000036
 20
31.50000000000002
 30
0.0
 11
24.71793876135464
 21
31.50000000000002
 31
0.0
  0
LINE
  5
4DCF
330
4D0A
100
AcDbEntity
  8
240
  6
Continuous
100
AcDbLine
 10
0.0000000000000036
 20
-31.49999999999999
 30
0.0
 11
24.71793876135454
 21
-31.49999999999999
 31
0.0
  0
LINE
  5
4DD0
330
4D0A
100
AcDbEntity
  8
241
  6
Continuous
100
AcDbLine
 10
9.94999999999999
 20
8.992341421163491
 30
0.0
 11
9.94999999999999
 21
30.18137425657127
 31
0.0
1001
GRPNAME
1000
PASTMD30
  0
LINE
  5
4DD1
330
4D0A
100
AcDbEntity
  8
241
  6
Continuous
100
AcDbLine
 10
9.94999999999999
 20
30.18137425657127
 30
0.0
 11
14.05000000000001
 21
30.18137425657127
 31
0.0
1001
GRPNAME
1000
PASTMD30
  0
LINE
  5
4DD2
330
4D0A
100
AcDbEntity
  8
241
  6
Continuous
100
AcDbLine
 10
14.05000000000055
 20
8.992341421163491
 30
0.0
 11
14.05000000000001
 21
30.18137425657127
 31
0.0
1001
GRPNAME
1000
PASTMD30
  0
LINE
  5
4DD3
330
4D0A
100
AcDbEntity
  8
241
  6
Continuous
100
AcDbLine
 10
9.94999999999999
 20
8.992341421163491
 30
0.0
 11
14.05000000000055
 21
8.992341421163491
 31
0.0
1001
GRPNAME
1000
PASTMD30
  0
ARC
  5
4DD4
330
4D0A
100
AcDbEntity
  8
241
  6
Continuous
100
AcDbCircle
 10
-16.2288272569434
 20
19.5868578388666
 30
0.0
 40
32.07882725694369
100
AcDbArc
 50
340.7151345090209
 51
19.28486549098094
  0
ARC
  5
4DD5
330
4D0A
100
AcDbEntity
  8
241
  6
Continuous
100
AcDbCircle
 10
40.22882725694372
 20
19.58685783886737
 30
0.0
 40
32.07882725694374
100
AcDbArc
 50
160.7151345090191
 51
199.2848654909804
  0
LINE
  5
4DD6
330
4D0A
100
AcDbEntity
  8
241
  6
Continuous
100
AcDbLine
 10
9.94999999999999
 20
-8.992341421163455
 30
0.0
 11
9.94999999999999
 21
-30.18137425657123
 31
0.0
1001
GRPNAME
1000
PASTMD30
  0
LINE
  5
4DD7
330
4D0A
100
AcDbEntity
  8
241
  6
Continuous
100
AcDbLine
 10
9.94999999999999
 20
-30.18137425657123
 30
0.0
 11
14.05000000000001
 21
-30.18137425657123
 31
0.0
1001
GRPNAME
1000
PASTMD30
  0
LINE
  5
4DD8
330
4D0A
100
AcDbEntity
  8
241
  6
Continuous
100
AcDbLine
 10
14.05000000000055
 20
-8.992341421163455
 30
0.0
 11
14.05000000000001
 21
-30.18137425657123
 31
0.0
1001
GRPNAME
1000
PASTMD30
  0
LINE
  5
4DD9
330
4D0A
100
AcDbEntity
  8
241
  6
Continuous
100
AcDbLine
 10
9.94999999999999
 20
-8.992341421163455
 30
0.0
 11
14.05000000000055
 21
-8.992341421163455
 31
0.0
1001
GRPNAME
1000
PASTMD30
  0
ARC
  5
4DDA
330
4D0A
100
AcDbEntity
  8
241
  6
Continuous
100
AcDbCircle
 10
-16.2288272569434
 20
-19.58685783886657
 30
0.0
 40
32.07882725694369
100
AcDbArc
 50
340.7151345090189
 51
19.28486549097912
  0
ARC
  5
4DDB
330
4D0A
100
AcDbEntity
  8
241
  6
Continuous
100
AcDbCircle
 10
40.22882725694372
 20
-19.58685783886734
 30
0.0
 40
32.07882725694374
100
AcDbArc
 50
160.7151345090191
 51
199.2848654909804
  0
ARC
  5
4DDC
330
4D0A
100
AcDbEntity
  8
243
  6
HIDDEN2
100
AcDbCircle
 10
-34.18660144659555
 20
0.0000000000000175
 30
0.0
 40
4.314660672045016
100
AcDbArc
 50
303.5825392047213
 51
56.41746079527869
  0
LINE
  5
4E0A
330
4D0A
100
AcDbEntity
  8
242
  6
PHANTOM2
100
AcDbLine
 10
39.67805593029677
 20
54.99464079737621
 30
0.0
 11
120.9999999999998
 21
54.99464079737635
 31
0.0
  0
ARC
  5
4E0B
330
4D0A
100
AcDbEntity
  8
242
  6
PHANTOM2
100
AcDbCircle
 10
120.9999999999998
 20
50.99464079737636
 30
0.0
 40
4.0
100
AcDbArc
 50
0.0000000000000509
 51
90.00000000000012
  0
LINE
  5
4E0C
330
4D0A
100
AcDbEntity
  8
242
  6
PHANTOM2
100
AcDbLine
 10
39.67805593029677
 20
54.99464079737621
 30
0.0
 11
38.0866431554084
 21
49.05540746568114
 31
0.0
  0
LINE
  5
4E7A
330
4D0A
100
AcDbEntity
  8
241
  6
Continuous
100
AcDbLine
 10
37.00000000000012
 20
-41.60254217605379
 30
0.0
 11
124.9999999999997
 21
-41.60254217605379
 31
0.0
  0
LINE
  5
4E7C
330
4D0A
100
AcDbEntity
  8
241
  6
Continuous
100
AcDbLine
 10
39.67805593029676
 20
4.886126691621806
 30
0.0
 11
124.9999999999998
 21
4.886126691621806
 31
0.0
  0
ARC
  5
4E82
330
4D0A
100
AcDbEntity
  8
240
  6
Continuous
100
AcDbCircle
 10
177.7904811266851
 20
7.912877461654877
 30
0.0
 40
15.0
100
AcDbArc
 50
168.5903793711793
 51
209.9999999957405
  0
ARC
  5
4E8A
330
4D0A
100
AcDbEntity
  8
240
  6
Continuous
100
AcDbCircle
 10
186.3875065719623
 20
16.96688675386109
 30
0.0
 40
20.0
100
AcDbArc
 50
119.9999939955446
 51
151.0027138390073
  0
LINE
  5
4E92
330
4D0A
100
AcDbEntity
  8
241
  6
Continuous
100
AcDbLine
 10
39.67805593029676
 20
31.8448352143208
 30
0.0
 11
56.03617766336029
 21
31.84483521432079
 31
0.0
  0
LINE
  5
4E95
330
4D0A
100
AcDbEntity
  8
241
  6
Continuous
100
AcDbLine
 10
81.03617766336027
 20
31.8448352143208
 30
0.0
 11
67.9644233766398
 21
31.8448352143208
 31
0.0
  0
LINE
  5
4E98
330
4D0A
100
AcDbEntity
  8
241
  6
Continuous
100
AcDbLine
 10
92.96442337663981
 20
31.8448352143208
 30
0.0
 11
106.0361776633603
 21
31.84483521432079
 31
0.0
  0
LINE
  5
4E99
330
4D0A
100
AcDbEntity
  8
241
  6
Continuous
100
AcDbLine
 10
117.9644233766399
 20
31.84483521432079
 30
0.0
 11
124.9999999999999
 21
31.8448352143208
 31
0.0
  0
LINE
  5
4ED2
330
4D0A
100
AcDbEntity
  8
250
  6
Continuous
370
    -3
100
AcDbLine
 10
0.0000000000000035
 20
-31.99999999999998
 30
0.0
 11
0.0000000000000011
 21
-71.0
 31
0.0
  0
LINE
  5
4ED3
330
4D0A
100
AcDbEntity
  8
250
  6
Continuous
370
    -3
100
AcDbLine
 10
124.9999999999997
 20
-51.49464079737696
 30
0.0
 11
124.9999999999997
 21
-71.0
 31
0.0
  0
LINE
  5
4ED4
330
4D0A
100
AcDbEntity
  8
250
  6
Continuous
370
    -3
100
AcDbLine
 10
2.0
 20
-70.0
 30
0.0
 11
122.9999999999997
 21
-70.0
 31
0.0
  0
INSERT
  5
4ED5
330
4D0A
100
AcDbEntity
  8
250
  6
Continuous
370
    -3
100
AcDbBlockReference
  2
_OPEN
 10
0.0000000000000012
 20
-70.0
 30
0.0
 41
2.0
 42
2.0
 43
2.0
 50
180.0
  0
INSERT
  5
4ED6
330
4D0A
100
AcDbEntity
  8
250
  6
Continuous
370
    -3
100
AcDbBlockReference
  2
_OPEN
 10
124.9999999999997
 20
-70.0
 30
0.0
 41
2.0
 42
2.0
 43
2.0
  0
MTEXT
  5
4ED7
330
4D0A
100
AcDbEntity
  8
250
  6
Continuous
370
    -3
100
AcDbMText
 10
62.49999999999985
 20
-67.59999999999999
 30
0.0
 40
2.799999999999998
 41
0.0
 71
     5
 72
     1
  1
\A1;125
 73
     1
 44
1.0
1001
ACAD
1000
MTEXTBEGIN
1070
    73
1070
     1
1070
    44
1040
1.0
1070
    74
1070
     0
1000
MTEXTEND
  0
LINE
  5
4EDD
330
4D0A
100
AcDbEntity
  8
250
  6
Continuous
370
    -3
100
AcDbLine
 10
217.0000000000001
 20
56.50000000000001
 30
0.0
 11
217.0000000000001
 21
71.0
 31
0.0
  0
LINE
  5
4EDE
330
4D0A
100
AcDbEntity
  8
250
  6
Continuous
370
    -3
100
AcDbLine
 10
241.9999989945349
 20
45.50000154306323
 30
0.0
 11
241.9999989945349
 21
71.0
 31
0.0
  0
LINE
  5
4EDF
330
4D0A
100
AcDbEntity
  8
250
  6
Continuous
370
    -3
100
AcDbLine
 10
219.0000000000001
 20
70.0
 30
0.0
 11
239.9999989945349
 21
70.0
 31
0.0
  0
INSERT
  5
4EE0
330
4D0A
100
AcDbEntity
  8
250
  6
Continuous
370
    -3
100
AcDbBlockReference
  2
_OPEN
 10
217.0000000000001
 20
70.0
 30
0.0
 41
2.0
 42
2.0
 43
2.0
 50
180.0
  0
INSERT
  5
4EE1
330
4D0A
100
AcDbEntity
  8
250
  6
Continuous
370
    -3
100
AcDbBlockReference
  2
_OPEN
 10
241.9999989945349
 20
70.0
 30
0.0
 41
2.0
 42
2.0
 43
2.0
  0
MTEXT
  5
4EE2
330
4D0A
100
AcDbEntity
  8
250
  6
Continuous
370
    -3
100
AcDbMText
 10
229.4999994972675
 20
72.40000000000001
 30
0.0
 40
2.799999999999998
 41
0.0
 71
     5
 72
     1
  1
\A1;□25
 73
     1
 44
1.0
1001
ACAD
1000
MTEXTBEGIN
1070
    73
1070
     1
1070
    44
1040
1.0
1070
    74
1070
     0
1000
MTEXTEND
  0
LINE
  5
4F5A
330
4D0A
100
AcDbEntity
  8
250
  6
Continuous
370
    -3
100
AcDbLine
 10
126.4999999999998
 20
-0.0000000000002924
 30
0.0
 11
141.0
 21
-0.0000000000002965
 31
0.0
  0
LINE
  5
4F5B
330
4D0A
100
AcDbEntity
  8
250
  6
Continuous
370
    -3
100
AcDbLine
 10
125.5
 20
44.99999999999967
 30
0.0
 11
141.0
 21
44.99999999999967
 31
0.0
  0
LINE
  5
4F5C
330
4D0A
100
AcDbEntity
  8
250
  6
Continuous
370
    -3
100
AcDbLine
 10
140.0
 20
1.999999999999703
 30
0.0
 11
140.0
 21
42.99999999999967
 31
0.0
  0
INSERT
  5
4F5D
330
4D0A
100
AcDbEntity
  8
250
  6
Continuous
370
    -3
100
AcDbBlockReference
  2
_OPEN
 10
140.0
 20
-0.0000000000002963
 30
0.0
 41
2.0
 42
2.0
 43
2.0
 50
270.0
  0
INSERT
  5
4F5E
330
4D0A
100
AcDbEntity
  8
250
  6
Continuous
370
    -3
100
AcDbBlockReference
  2
_OPEN
 10
140.0
 20
44.99999999999967
 30
0.0
 41
2.0
 42
2.0
 43
2.0
 50
90.0
  0
MTEXT
  5
4F5F
330
4D0A
100
AcDbEntity
  8
250
  6
Continuous
370
    -3
100
AcDbMText
 10
137.6
 20
22.49999999999971
 30
0.0
 40
2.799999999999998
 41
0.0
 71
     5
 72
     1
  1
\A1;45
 11
0.0000000000000001
 21
1.0
 31
0.0
 73
     1
 44
1.0
1001
ACAD
1000
MTEXTBEGIN
1070
    73
1070
     1
1070
    44
1040
1.0
1070
    74
1070
     0
1000
MTEXTEND
  0
LINE
  5
4FAA
330
4D0A
100
AcDbEntity
  8
241
  6
Continuous
100
AcDbLine
 10
39.67805593029676
 20
4.886126691621806
 30
0.0
 11
39.67805593029676
 21
31.8448352143208
 31
0.0
  0
SPLINE
  5
4FD2
330
4D0A
100
AcDbEntity
  8
241
  6
Continuous
100
AcDbSpline
210
0.0
220
0.0
230
1.0
 70
  1288
 71
     3
 72
     9
 73
     5
 74
     0
 42
0.000000001
 43
0.0000000001
 40
0.0
 40
0.0
 40
0.0
 40
0.0
 40
7.661307172161061
 40
18.41343122094323
 40
18.41343122094323
 40
18.41343122094323
 40
18.41343122094323
 10
39.67805593029676
 20
4.886126691621806
 30
0.0
 10
39.06064237264068
 20
2.404463405970207
 30
0.0
 10
37.57673083857657
 20
-3.560045678058076
 30
0.0
 10
37.1522817078145
 20
-9.711431334724512
 30
0.0
 10
37.00011413627255
 20
-13.29588095627708
 30
0.0
  0
SPLINE
  5
4FDA
330
4D0A
100
AcDbEntity
  8
241
  6
Continuous
100
AcDbSpline
210
0.0
220
0.0
230
1.0
 70
  1288
 71
     3
 72
    11
 73
     7
 74
     0
 42
0.000000001
 43
0.0000000001
 40
0.0
 40
0.0
 40
0.0
 40
0.0
 40
1.116335709670266
 40
3.769608040355377
 40
8.425826393906131
 40
13.60425031735789
 40
13.60425031735789
 40
13.60425031735789
 40
13.60425031735789
 10
37.42704699709156
 20
44.99999999999979
 30
0.0
 10
37.73162208632367
 20
44.76628658911403
 30
0.0
 10
38.76010186647913
 20
43.97709034180055
 30
0.0
 10
38.72337566967114
 20
40.83439331947128
 30
0.0
 10
38.41959957580039
 20
36.83625860616532
 30
0.0
 10
39.2439793462245
 20
33.56651591293933
 30
0.0
 10
39.67805593029676
 20
31.8448352143208
 30
0.0
  0
LINE
  5
5014
330
4D0A
100
AcDbEntity
  8
250
  6
Continuous
370
    -3
100
AcDbLine
 10
174.453699975305
 20
-31.60361736972598
 30
0.0
 11
259.5464656785379
 21
31.60376968440644
 31
0.0
  0
INSERT
  5
5015
330
4D0A
100
AcDbEntity
  8
250
  6
Continuous
370
    -3
100
AcDbBlockReference
  2
_OPEN
 10
172.8481727042422
 20
-32.79621209630894
 30
0.0
 41
1.999999999999999
 42
1.999999999999999
 43
1.999999999999999
 50
216.6051735475777
  0
INSERT
  5
5016
330
4D0A
100
AcDbEntity
  8
250
  6
Continuous
370
    -3
100
AcDbBlockReference
  2
_OPEN
 10
261.1519929496008
 20
32.79636441098933
 30
0.0
 41
2.0
 42
2.0
 43
2.0
 50
36.60517354757766
  0
MTEXT
  5
5017
330
4D0A
100
AcDbEntity
  8
250
  6
Continuous
370
    -3
100
AcDbMText
 10
226.5286787799718
 20
10.06764310352299
 30
0.0
 40
2.799999999999999
 41
0.0
 71
     5
 72
     1
  1
\A1;（\U+03C6110）
 11
0.8027636355314252
 21
0.5962973632914781
 31
0.0
 73
     1
 44
1.0
1001
ACAD
1000
MTEXTBEGIN
1070
    73
1070
     1
1070
    44
1040
1.0
1070
    74
1070
     0
1000
MTEXTEND
  0
VIEWPORT
  5
22
102
{ACAD_XDICTIONARY
360
505E
102
}
330
4D06
100
AcDbEntity
 67
     1
  8
0
100
AcDbViewport
 10
261.5176991150442
 20
148.5
 30
0.0
 40
523.0353982300885
 41
297.0
 68
     1
 69
     1
 12
261.5176991150442
 22
148.5
 13
0.0
 23
0.0
 14
1.0
 24
1.0
 15
10.0
 25
10.0
 16
0.0
 26
0.0
 36
1.0
 17
0.0
 27
0.0
 37
0.0
 42
50.0
 43
0.0
 44
0.0
 45
297.0
 50
0.0
 51
0.0
 72
   100
 90
    32800
  1

281
     0
 71
     0
 74
     0
110
0.0
120
0.0
130
0.0
111
1.0
121
0.0
131
0.0
112
0.0
122
1.0
132
0.0
 79
     0
146
0.0
1001
GENIUS_GENODEF_13
1002
{
1000
HIER
1070
     0
1002
}
1002
{
1000
MANEDIT
1070
     0
1002
}
1002
{
1000
NOSEL
1070
     0
1002
}
1002
{
1000
BEHIND
1070
     0
1002
}
1002
{
1000
OTHER
1070
     0
1002
}
1002
{
1000
REACTOR
1002
}
1001
GENIUS_GENOBJ-N-SDF_13
1002
{
1000
OWNER
1000
GEN
1002
}
1001
GENIUS_GENSCREG_15
1000
PF
1040
1.0
1000
DF
1040
1.0
1000
MIN
1011
0.0
1021
0.0
1031
0.0
1000
MAX
1011
523.0353982300885
1021
297.0
1031
0.0
1000
FLAGS
1070
     4
  0
ENDSEC
  0
SECTION
  2
OBJECTS
  0
DICTIONARY
  5
4CA7
330
0
100
AcDbDictionary
281
     1
  3
ACAD_CIP_PREVIOUS_PRODUCT_INFO
350
4D71
  3
ACAD_COLOR
350
4CFD
  3
ACAD_DETAILVIEWSTYLE
350
4D04
  3
ACAD_GROUP
350
4CA8
  3
ACAD_LAYOUT
350
4CFC
  3
ACAD_MATERIAL
350
4CAB
  3
ACAD_MLEADERSTYLE
350
4D00
  3
ACAD_MLINESTYLE
350
4CF9
  3
ACAD_PLOTSETTINGS
350
4CFB
  3
ACAD_PLOTSTYLENAME
350
4CA9
  3
ACAD_SCALELIST
350
4CDD
  3
ACAD_SECTIONVIEWSTYLE
350
4D02
  3
ACAD_TABLESTYLE
350
4CFE
  3
ACAD_VISUALSTYLE
350
4CC4
  3
ACDB_RECOMPOSE_DATA
350
505C
  3
AcDbVariableDictionary
350
4EF3
  3
DWGPROPS
350
505D
  0
DICTIONARY
  5
4E63
330
4C9D
100
AcDbDictionary
280
     1
281
     1
  3
ACAD_LAYERSTATES
360
4E64
  0
DICTIONARY
  5
4EE3
330
4CEF
100
AcDbDictionary
280
     1
281
     1
  3
ADSK_XREC_LAYER_RECONCILED
360
4EE4
  0
DICTIONARY
  5
4EE5
330
4D0E
100
AcDbDictionary
280
     1
281
     1
  3
ADSK_XREC_LAYER_RECONCILED
360
4EE6
  0
DICTIONARY
  5
4EE7
330
4D1C
100
AcDbDictionary
280
     1
281
     1
  3
ADSK_XREC_LAYER_RECONCILED
360
4EE8
  0
DICTIONARY
  5
4EE9
330
4D1D
100
AcDbDictionary
280
     1
281
     1
  3
ADSK_XREC_LAYER_RECONCILED
360
4EEA
  0
DICTIONARY
  5
4EEB
330
4D1E
100
AcDbDictionary
280
     1
281
     1
  3
ADSK_XREC_LAYER_RECONCILED
360
4EEC
  0
DICTIONARY
  5
4EED
330
4D1F
100
AcDbDictionary
280
     1
281
     1
  3
ADSK_XREC_LAYER_RECONCILED
360
4EEE
  0
DICTIONARY
  5
4EEF
330
4D21
100
AcDbDictionary
280
     1
281
     1
  3
ADSK_XREC_LAYER_RECONCILED
360
4EF0
  0
DICTIONARY
  5
4EF1
330
4D72
100
AcDbDictionary
280
     1
281
     1
  3
ADSK_XREC_LAYER_RECONCILED
360
4EF2
  0
DICTIONARY
  5
4E75
330
4D0A
100
AcDbDictionary
280
     1
281
     1
  3
ACAD_SORTENTS
360
4E76
  0
DICTIONARY
  5
505E
330
22
100
AcDbDictionary
280
     1
281
     1
  3
ACAD_XREC_ROUNDTRIP
360
505F
  0
XRECORD
  5
4D71
102
{ACAD_REACTORS
330
4CA7
102
}
330
4CA7
100
AcDbXrecord
280
     1
300
ACD
300
2014
300
ACD_F_S
  0
DICTIONARY
  5
4CFD
102
{ACAD_REACTORS
330
4CA7
102
}
330
4CA7
100
AcDbDictionary
281
     1
  0
DICTIONARY
  5
4D04
102
{ACAD_REACTORS
330
4CA7
102
}
330
4CA7
100
AcDbDictionary
281
     1
  3
Imperial24
350
4D05
  3
Metric50
350
4E66
  0
DICTIONARY
  5
4CA8
102
{ACAD_REACTORS
330
4CA7
102
}
330
4CA7
100
AcDbDictionary
281
     1
  0
DICTIONARY
  5
4CFC
102
{ACAD_REACTORS
330
4CA7
102
}
330
4CA7
100
AcDbDictionary
281
     1
  3
Model
350
4D0D
  3
レイアウト1
350
4D09
  0
DICTIONARY
  5
4CAB
102
{ACAD_REACTORS
330
4CA7
102
}
330
4CA7
100
AcDbDictionary
281
     1
  3
ByBlock
350
4CB4
  3
ByLayer
350
4CAC
  3
Global
350
4CBC
  0
DICTIONARY
  5
4D00
102
{ACAD_REACTORS
330
4CA7
102
}
330
4CA7
100
AcDbDictionary
281
     1
  3
Standard
350
4D01
  0
DICTIONARY
  5
4CF9
102
{ACAD_REACTORS
330
4CA7
102
}
330
4CA7
100
AcDbDictionary
281
     1
  3
Standard
350
4CFA
  0
DICTIONARY
  5
4CFB
102
{ACAD_REACTORS
330
4CA7
102
}
330
4CA7
100
AcDbDictionary
281
     1
  0
ACDBDICTIONARYWDFLT
  5
4CA9
102
{ACAD_REACTORS
330
4CA7
102
}
330
4CA7
100
AcDbDictionary
281
     1
  3
Normal
350
4CAA
100
AcDbDictionaryWithDefault
340
4CAA
  0
DICTIONARY
  5
4CDD
102
{ACAD_REACTORS
330
4CA7
102
}
330
4CA7
100
AcDbDictionary
281
     1
  3
A0
350
4CDE
  3
A1
350
4CDF
  3
A2
350
4CE0
  3
A3
350
4CE1
  3
A4
350
4CE2
  3
A5
350
4CE3
  3
A6
350
4CE4
  3
A7
350
4CE5
  3
A8
350
4CE6
  3
A9
350
4CE7
  3
B0
350
4CE8
  3
B1
350
4CE9
  3
B2
350
4CEA
  3
B3
350
4CEB
  3
B4
350
4CEC
  3
B5
350
4CED
  3
B6
350
4CEE
  0
DICTIONARY
  5
4D02
102
{ACAD_REACTORS
330
4CA7
102
}
330
4CA7
100
AcDbDictionary
281
     1
  3
Imperial24
350
4D03
  3
Metric50
350
4E65
  0
DICTIONARY
  5
4CFE
102
{ACAD_REACTORS
330
4CA7
102
}
330
4CA7
100
AcDbDictionary
281
     1
  3
Standard
350
4CFF
  0
DICTIONARY
  5
4CC4
102
{ACAD_REACTORS
330
4CA7
102
}
330
4CA7
100
AcDbDictionary
281
     1
  3
2dWireframe
350
4CCA
  3
Basic
350
4CC9
  3
Brighten
350
4CD0
  3
ColorChange
350
4CD4
  3
Conceptual
350
4CCD
  3
Dim
350
4CCF
  3
EdgeColorOff
350
4CDC
  3
Facepattern
350
4CD3
  3
Flat
350
4CC5
  3
FlatWithEdges
350
4CC6
  3
Gouraud
350
4CC7
  3
GouraudWithEdges
350
4CC8
  3
Hidden
350
4CCC
  3
JitterOff
350
4CDA
  3
Linepattern
350
4CD2
  3
OverhangOff
350
4CDB
  3
Realistic
350
4CCE
  3
Shaded
350
4CD9
  3
Shaded with edges
350
4CD8
  3
Shades of Gray
350
4CD5
  3
Sketchy
350
4CD6
  3
Thicken
350
4CD1
  3
Wireframe
350
4CCB
  3
X-Ray
350
4CD7
  0
XRECORD
  5
505C
102
{ACAD_REACTORS
330
4CA7
102
}
330
4CA7
100
AcDbXrecord
280
     1
 90
        1
330
4CFF
  0
DICTIONARY
  5
4EF3
102
{ACAD_REACTORS
330
4CA7
102
}
330
4CA7
100
AcDbDictionary
281
     1
  3
CANNOSCALE
350
4EF8
  3
CMLEADERSTYLE
350
4EF5
  3
CTABLESTYLE
350
4EF4
  3
CVIEWDETAILSTYLE
350
4EF6
  3
CVIEWSECTIONSTYLE
350
4EF7
  3
DIMASSOC
350
4EFB
  3
INDEXCTL
350
4EFA
  3
SORTENTS
350
4EF9
  3
XCLIPFRAME
350
5018
  0
XRECORD
  5
505D
102
{ACAD_REACTORS
330
4CA7
102
}
330
4CA7
100
AcDbXrecord
280
     1
  1
DWGPROPS COOKIE
  2

  3

  4

  6

  7

  8
AWTEC
  9

300
=
301
=
302
=
303
=
304
=
305
=
306
=
307
=
308
=
309
=
 40
0.0484437268518519
 41
2457536.446005335
 42
2457869.654168195
  1

 90
        0
  0
DICTIONARY
  5
4E64
102
{ACAD_REACTORS
330
4E63
102
}
330
4E63
100
AcDbDictionary
281
     1
  0
XRECORD
  5
4EE4
102
{ACAD_REACTORS
330
4EE3
102
}
330
4EE3
100
AcDbXrecord
280
     1
290
     1
  0
XRECORD
  5
4EE6
102
{ACAD_REACTORS
330
4EE5
102
}
330
4EE5
100
AcDbXrecord
280
     1
290
     1
  0
XRECORD
  5
4EE8
102
{ACAD_REACTORS
330
4EE7
102
}
330
4EE7
100
AcDbXrecord
280
     1
290
     1
  0
XRECORD
  5
4EEA
102
{ACAD_REACTORS
330
4EE9
102
}
330
4EE9
100
AcDbXrecord
280
     1
290
     1
  0
XRECORD
  5
4EEC
102
{ACAD_REACTORS
330
4EEB
102
}
330
4EEB
100
AcDbXrecord
280
     1
290
     1
  0
XRECORD
  5
4EEE
102
{ACAD_REACTORS
330
4EED
102
}
330
4EED
100
AcDbXrecord
280
     1
290
     1
  0
XRECORD
  5
4EF0
102
{ACAD_REACTORS
330
4EEF
102
}
330
4EEF
100
AcDbXrecord
280
     1
290
     1
  0
XRECORD
  5
4EF2
102
{ACAD_REACTORS
330
4EF1
102
}
330
4EF1
100
AcDbXrecord
280
     1
290
     1
  0
SORTENTSTABLE
  5
4E76
102
{ACAD_REACTORS
330
4E75
102
}
330
4E75
100
AcDbSortentsTable
330
4D0A
331
4DB5
  5
4DB7
331
4DB1
  5
4DB3
331
4DD9
  5
4DDB
331
4DD5
  5
4DD7
331
4DD1
  5
4DD3
331
4E7A
  5
4ED7
331
4DAD
  5
4DAF
331
42F6
  5
42F8
331
42F2
  5
42F4
331
4359
  5
435B
331
4DCD
  5
4DCF
331
42C7
  5
42CB
331
4DC9
  5
4DCB
331
4DC5
  5
4DC7
331
42C3
  5
42C5
331
4DC1
  5
4DC3
331
4E98
  5
4EDB
331
4F5C
  5
4F5C
331
4EE1
  5
4E84
331
5017
  5
5017
331
4355
  5
4357
331
42E6
  5
42E8
331
4351
  5
4353
331
42E2
  5
42E4
331
42DE
  5
42E3
331
434D
  5
434F
331
42DA
  5
42DC
331
4349
  5
434B
331
42BF
  5
42C1
331
42BB
  5
42BD
331
4DBD
  5
4DBF
331
42B7
  5
42B9
331
4DB9
  5
4DBB
331
42B3
  5
42B6
331
42A7
  5
42A7
331
42AD
  5
42AD
331
42A9
  5
42A9
331
4ED4
  5
4EDF
331
42D6
  5
42DB
331
4345
  5
4347
331
42D2
  5
42D6
331
42CE
  5
42D2
331
429C
  5
429C
331
4298
  5
4298
331
4E0C
  5
4E26
331
4321
  5
4345
331
4DB4
  5
4DB6
331
42F9
  5
42FC
331
4DB0
  5
4DB2
331
4DDC
  5
4E0B
331
4DD8
  5
4DDA
331
4DD4
  5
4DD6
331
4DD0
  5
4DD2
331
4DAC
  5
4DAE
331
42F5
  5
42F7
331
42F1
  5
42F3
331
435C
  5
4DAB
331
42E9
  5
42F1
331
4358
  5
435A
331
4DCC
  5
4DCE
331
4DC8
  5
4DCA
331
42C6
  5
42C9
331
4DC4
  5
4DC6
331
42C2
  5
42C4
331
4DC0
  5
4DC2
331
4F5F
  5
4F5F
331
4F5B
  5
4F5B
331
4EE0
  5
4E82
331
5016
  5
5016
331
4354
  5
4356
331
42E5
  5
42E7
331
4350
  5
4352
331
434C
  5
434E
331
4348
  5
434A
331
42BE
  5
42C0
331
42BA
  5
42BC
331
4DBC
  5
4DBE
331
42B6
  5
42B8
331
4DB8
  5
4DBA
331
42B2
  5
42B5
331
42A6
  5
42A6
331
42AC
  5
42AC
331
42A2
  5
42A2
331
4EDF
  5
4E7C
331
42A8
  5
42A8
331
4ED7
  5
4EE2
331
4ED3
  5
4EDE
331
42CD
  5
42CF
331
429F
  5
429F
331
42C9
  5
42CC
331
429B
  5
429B
331
4E0B
  5
4E18
331
4DB7
  5
4DB9
331
42FC
  5
4333
331
4DB3
  5
4DB5
331
42F8
  5
42FB
331
4DDB
  5
4E0A
331
4DD7
  5
4DD9
331
4DD3
  5
4DD5
331
4E7C
  5
4ED8
331
4DAF
  5
4DB1
331
4DAB
  5
4DAD
331
42F4
  5
42F6
331
42F0
  5
42F2
331
435B
  5
4DAA
331
42E8
  5
42F0
331
4DCF
  5
4DD1
331
4DCB
  5
4DCD
331
4DC7
  5
4DC9
331
42C5
  5
42C7
331
4DC3
  5
4DC5
331
42C1
  5
42C3
331
4F5E
  5
4F5E
331
4F5A
  5
4F5A
331
4FDA
  5
4FDA
331
4357
  5
4359
331
5015
  5
5015
331
4353
  5
4355
331
42E4
  5
42E6
331
4FD2
  5
4FD2
331
434F
  5
4351
331
42DC
  5
42E2
331
434B
  5
434D
331
42BD
  5
42BF
331
4DBF
  5
4DC1
331
4E92
  5
4ED9
331
42B9
  5
42BB
331
4DBB
  5
4DBD
331
42B5
  5
42B7
331
4E8A
  5
42B0
331
42B1
  5
42B3
331
42AF
  5
42AF
331
42A5
  5
42A5
331
42A1
  5
42A1
331
42AB
  5
42AB
331
4EDE
  5
4E7A
331
4ED6
  5
4EE1
331
4ED2
  5
4EDD
331
4347
  5
4349
331
42D4
  5
42DA
331
4FAA
  5
4FAA
331
42CC
  5
42CE
331
4333
  5
4346
331
429E
  5
429E
331
429A
  5
429A
331
4E82
  5
42B2
331
4E0A
  5
4E0C
331
4DB6
  5
4DB8
331
42FB
  5
4321
331
4DB2
  5
4DB4
331
4DDA
  5
4DDC
331
4DD6
  5
4DD8
331
4DD2
  5
4DD4
331
4DAE
  5
4DB0
331
42F7
  5
42F9
331
4DAA
  5
4DAC
331
42F3
  5
42F5
331
435A
  5
435C
331
4DCE
  5
4DD0
331
4DCA
  5
4DCC
331
4DC6
  5
4DC8
331
42C4
  5
42C6
331
4DC2
  5
4DC4
331
4E99
  5
4EDC
331
42C0
  5
42C2
331
4F5D
  5
4F5D
331
4EE2
  5
4E92
331
42E7
  5
42E9
331
4356
  5
4358
331
5014
  5
5014
331
4352
  5
4354
331
42E3
  5
42E5
331
434E
  5
4350
331
42DB
  5
42DE
331
434A
  5
434C
331
42BC
  5
42BE
331
4DBE
  5
4DC0
331
4E95
  5
4EDA
331
42B8
  5
42BA
331
4DBA
  5
4DBC
331
42AE
  5
42AE
331
42A4
  5
42A4
331
42A0
  5
42A0
331
42AA
  5
42AA
331
4EDD
  5
4E73
331
4ED5
  5
4EE0
331
4346
  5
4348
331
42CF
  5
42D4
331
42CB
  5
42CD
331
429D
  5
429D
331
4299
  5
4299
  0
XRECORD
  5
505F
102
{ACAD_REACTORS
330
505E
102
}
330
505E
100
AcDbXrecord
280
     1
102
SHADEPLOT
 70
     0
  0
ACDBDETAILVIEWSTYLE
  5
4D05
102
{ACAD_XDICTIONARY
360
5093
102
}
102
{ACAD_REACTORS
330
4D04
102
}
330
4D04
100
AcDbModelDocViewStyle
 70
     0
  3
Imperial24
290
     0
100
AcDbDetailViewStyle
 70
     0
 71
     0
 90
        3
 71
     1
340
4CF0
 40
0.24
340
0
 40
0.24
300

 40
0.36
280
     3
 71
     2
340
4CF7
 90
       25
 71
     3
340
4CF0
 40
0.24
 90
        1
 40
0.75
 90
        1
300
%<\AcVar ViewType \f "%tc1">% %<\AcVar ViewDetailId>%\PSCALE %<\AcVar ViewScale \f "%sn">%
 71
     4
340
4CF7
 90
       25
340
4CF7
 90
       25
280
     0
  0
ACDBDETAILVIEWSTYLE
  5
4E66
102
{ACAD_XDICTIONARY
360
509B
102
}
102
{ACAD_REACTORS
330
4D04
102
}
330
4D04
100
AcDbModelDocViewStyle
 70
     0
  3
Metric50
290
     0
100
AcDbDetailViewStyle
 70
     0
 71
     0
 90
        3
 71
     1
340
4CF0
 40
5.0
340
0
 40
5.0
300

 40
0.0
280
     1
 71
     2
340
4CF7
 90
       25
 71
     3
340
4CF0
 40
5.0
 90
        0
 40
15.0
 90
        1
300
%<\AcVar ViewDetailId>% (%<\AcVar ViewScale \f "%sn">%)
 71
     4
340
4CF7
 90
       25
340
4CF7
 90
       25
280
     0
  0
LAYOUT
  5
4D0D
102
{ACAD_XDICTIONARY
360
5097
102
}
102
{ACAD_REACTORS
330
4CFC
102
}
330
4CFC
100
AcDbPlotSettings
  1

  2
CubePDF
  4

  6

 40
0.0
 41
0.0
 42
0.0
 43
0.0
 44
0.0
 45
0.0
 46
0.0
 47
0.0
 48
0.0
 49
0.0
140
0.0
141
0.0
142
1.0
143
1.0
 70
  1712
 72
     0
 73
     0
 74
     0
  7

 75
     0
147
1.0
148
0.0
149
0.0
100
AcDbLayout
  1
Model
 70
     1
 71
     0
 10
0.0
 20
0.0
 11
12.0
 21
9.0
 12
0.0
 22
0.0
 32
0.0
 14
0.0
 24
0.0
 34
0.0
 15
0.0
 25
0.0
 35
0.0
146
0.0
 13
0.0
 23
0.0
 33
0.0
 16
1.0
 26
0.0
 36
0.0
 17
0.0
 27
1.0
 37
0.0
 76
     0
330
4D0A
331
4D10
  0
LAYOUT
  5
4D09
102
{ACAD_XDICTIONARY
360
5095
102
}
102
{ACAD_REACTORS
330
4CFC
102
}
330
4CFC
100
AcDbPlotSettings
  1

  2
CubePDF
  4

  6

 40
0.0
 41
0.0
 42
0.0
 43
0.0
 44
0.0
 45
0.0
 46
0.0
 47
0.0
 48
0.0
 49
0.0
140
0.0
141
0.0
142
1.0
143
1.0
 70
   688
 72
     0
 73
     0
 74
     5
  7

 75
    16
147
1.0
148
0.0
149
0.0
100
AcDbLayout
  1
レイアウト1
 70
     1
 71
     1
 10
0.0
 20
0.0
 11
420.0
 21
297.0
 12
0.0
 22
0.0
 32
0.0
 14
1.000000000000000E+20
 24
1.000000000000000E+20
 34
1.000000000000000E+20
 15
-1.000000000000000E+20
 25
-1.000000000000000E+20
 35
-1.000000000000000E+20
146
0.0
 13
0.0
 23
0.0
 33
0.0
 16
1.0
 26
0.0
 36
0.0
 17
0.0
 27
1.0
 37
0.0
 76
     0
330
4D06
331
22
  0
MATERIAL
  5
4CB4
102
{ACAD_XDICTIONARY
360
4CB5
102
}
102
{ACAD_REACTORS
330
4CAB
102
}
330
4CAB
100
AcDbMaterial
  1
ByBlock
 72
     0
 43
0.0208333333333333
 43
0.0
 43
0.0
 43
0.0
 43
0.0
 43
0.0208333333333333
 43
0.0
 43
0.0
 43
0.0
 43
0.0
 43
1.0
 43
0.0
 43
0.0
 43
0.0
 43
0.0
 43
1.0
 77
     0
 47
0.0208333333333333
 47
0.0
 47
0.0
 47
0.0
 47
0.0
 47
0.0208333333333333
 47
0.0
 47
0.0
 47
0.0
 47
0.0
 47
1.0
 47
0.0
 47
0.0
 47
0.0
 47
0.0
 47
1.0
171
     0
 49
0.0208333333333333
 49
0.0
 49
0.0
 49
0.0
 49
0.0
 49
0.0208333333333333
 49
0.0
 49
0.0
 49
0.0
 49
0.0
 49
1.0
 49
0.0
 49
0.0
 49
0.0
 49
0.0
 49
1.0
175
     0
142
0.0208333333333333
142
0.0
142
0.0
142
0.0
142
0.0
142
0.0208333333333333
142
0.0
142
0.0
142
0.0
142
0.0
142
1.0
142
0.0
142
0.0
142
0.0
142
0.0
142
1.0
179
     0
144
0.0208333333333333
144
0.0
144
0.0
144
0.0
144
0.0
144
0.0208333333333333
144
0.0
144
0.0
144
0.0
144
0.0
144
1.0
144
0.0
144
0.0
144
0.0
144
0.0
144
1.0
147
0.0208333333333333
147
0.0
147
0.0
147
0.0
147
0.0
147
0.0208333333333333
147
0.0
147
0.0
147
0.0
147
0.0
147
1.0
147
0.0
147
0.0
147
0.0
147
0.0
147
1.0
  0
MATERIAL
  5
4CAC
102
{ACAD_XDICTIONARY
360
4CAD
102
}
102
{ACAD_REACTORS
330
4CAB
102
}
330
4CAB
100
AcDbMaterial
  1
ByLayer
 72
     0
 43
0.0208333333333333
 43
0.0
 43
0.0
 43
0.0
 43
0.0
 43
0.0208333333333333
 43
0.0
 43
0.0
 43
0.0
 43
0.0
 43
1.0
 43
0.0
 43
0.0
 43
0.0
 43
0.0
 43
1.0
 77
     0
 47
0.0208333333333333
 47
0.0
 47
0.0
 47
0.0
 47
0.0
 47
0.0208333333333333
 47
0.0
 47
0.0
 47
0.0
 47
0.0
 47
1.0
 47
0.0
 47
0.0
 47
0.0
 47
0.0
 47
1.0
171
     0
 49
0.0208333333333333
 49
0.0
 49
0.0
 49
0.0
 49
0.0
 49
0.0208333333333333
 49
0.0
 49
0.0
 49
0.0
 49
0.0
 49
1.0
 49
0.0
 49
0.0
 49
0.0
 49
0.0
 49
1.0
175
     0
142
0.0208333333333333
142
0.0
142
0.0
142
0.0
142
0.0
142
0.0208333333333333
142
0.0
142
0.0
142
0.0
142
0.0
142
1.0
142
0.0
142
0.0
142
0.0
142
0.0
142
1.0
179
     0
144
0.0208333333333333
144
0.0
144
0.0
144
0.0
144
0.0
144
0.0208333333333333
144
0.0
144
0.0
144
0.0
144
0.0
144
1.0
144
0.0
144
0.0
144
0.0
144
0.0
144
1.0
147
0.0208333333333333
147
0.0
147
0.0
147
0.0
147
0.0
147
0.0208333333333333
147
0.0
147
0.0
147
0.0
147
0.0
147
1.0
147
0.0
147
0.0
147
0.0
147
0.0
147
1.0
  0
MATERIAL
  5
4CBC
102
{ACAD_XDICTIONARY
360
4CBD
102
}
102
{ACAD_REACTORS
330
4CAB
102
}
330
4CAB
100
AcDbMaterial
  1
Global
 72
     0
 43
0.0208333333333333
 43
0.0
 43
0.0
 43
0.0
 43
0.0
 43
0.0208333333333333
 43
0.0
 43
0.0
 43
0.0
 43
0.0
 43
1.0
 43
0.0
 43
0.0
 43
0.0
 43
0.0
 43
1.0
 77
     0
 47
0.0208333333333333
 47
0.0
 47
0.0
 47
0.0
 47
0.0
 47
0.0208333333333333
 47
0.0
 47
0.0
 47
0.0
 47
0.0
 47
1.0
 47
0.0
 47
0.0
 47
0.0
 47
0.0
 47
1.0
171
     0
 49
0.0208333333333333
 49
0.0
 49
0.0
 49
0.0
 49
0.0
 49
0.0208333333333333
 49
0.0
 49
0.0
 49
0.0
 49
0.0
 49
1.0
 49
0.0
 49
0.0
 49
0.0
 49
0.0
 49
1.0
175
     0
142
0.0208333333333333
142
0.0
142
0.0
142
0.0
142
0.0
142
0.0208333333333333
142
0.0
142
0.0
142
0.0
142
0.0
142
1.0
142
0.0
142
0.0
142
0.0
142
0.0
142
1.0
179
     0
144
0.0208333333333333
144
0.0
144
0.0
144
0.0
144
0.0
144
0.0208333333333333
144
0.0
144
0.0
144
0.0
144
0.0
144
1.0
144
0.0
144
0.0
144
0.0
144
0.0
144
1.0
147
0.0208333333333333
147
0.0
147
0.0
147
0.0
147
0.0
147
0.0208333333333333
147
0.0
147
0.0
147
0.0
147
0.0
147
1.0
147
0.0
147
0.0
147
0.0
147
0.0
147
1.0
  0
MLEADERSTYLE
  5
4D01
102
{ACAD_REACTORS
330
4D00
102
}
330
4D00
100
AcDbMLeaderStyle
170
     2
171
     1
172
     0
 90
        2
 40
0.0
 41
0.0
173
     1
 91
-1056964608
340
4CF5
 92
       -2
290
     1
 42
0.09
291
     1
 43
0.36
  3
Standard
 44
0.18
300

342
4CF0
174
     1
178
     6
175
     1
176
     0
 93
-1056964608
 45
0.18
292
     0
297
     0
 46
0.18
 94
-1056964608
 47
1.0
 49
1.0
140
1.0
293
     1
141
0.0
294
     1
177
     0
142
1.0
295
     0
296
     0
143
0.125
1001
ACAD_MLEADERVER
1070
     2
  0
MLINESTYLE
  5
4CFA
102
{ACAD_REACTORS
330
4CF9
102
}
330
4CF9
100
AcDbMlineStyle
  2
STANDARD
 70
     0
  3

 62
   256
 51
90.0
 52
90.0
 71
     2
 49
0.5
 62
   256
  6
BYLAYER
 49
-0.5
 62
   256
  6
BYLAYER
  0
ACDBPLACEHOLDER
  5
4CAA
102
{ACAD_REACTORS
330
4CA9
102
}
330
4CA9
  0
SCALE
  5
4CDE
102
{ACAD_REACTORS
330
4CDD
102
}
330
4CDD
100
AcDbScale
 70
     0
300
1:1
140
1.0
141
1.0
290
     1
  0
SCALE
  5
4CDF
102
{ACAD_REACTORS
330
4CDD
102
}
330
4CDD
100
AcDbScale
 70
     0
300
1/128" = 1'-0"
140
0.0078125
141
12.0
290
     0
  0
SCALE
  5
4CE0
102
{ACAD_REACTORS
330
4CDD
102
}
330
4CDD
100
AcDbScale
 70
     0
300
1/64" = 1'-0"
140
0.015625
141
12.0
290
     0
  0
SCALE
  5
4CE1
102
{ACAD_REACTORS
330
4CDD
102
}
330
4CDD
100
AcDbScale
 70
     0
300
1/32" = 1'-0"
140
0.03125
141
12.0
290
     0
  0
SCALE
  5
4CE2
102
{ACAD_REACTORS
330
4CDD
102
}
330
4CDD
100
AcDbScale
 70
     0
300
1/16" = 1'-0"
140
0.0625
141
12.0
290
     0
  0
SCALE
  5
4CE3
102
{ACAD_REACTORS
330
4CDD
102
}
330
4CDD
100
AcDbScale
 70
     0
300
3/32" = 1'-0"
140
0.09375
141
12.0
290
     0
  0
SCALE
  5
4CE4
102
{ACAD_REACTORS
330
4CDD
102
}
330
4CDD
100
AcDbScale
 70
     0
300
1/8" = 1'-0"
140
0.125
141
12.0
290
     0
  0
SCALE
  5
4CE5
102
{ACAD_REACTORS
330
4CDD
102
}
330
4CDD
100
AcDbScale
 70
     0
300
3/16" = 1'-0"
140
0.1875
141
12.0
290
     0
  0
SCALE
  5
4CE6
102
{ACAD_REACTORS
330
4CDD
102
}
330
4CDD
100
AcDbScale
 70
     0
300
1/4" = 1'-0"
140
0.25
141
12.0
290
     0
  0
SCALE
  5
4CE7
102
{ACAD_REACTORS
330
4CDD
102
}
330
4CDD
100
AcDbScale
 70
     0
300
3/8" = 1'-0"
140
0.375
141
12.0
290
     0
  0
SCALE
  5
4CE8
102
{ACAD_REACTORS
330
4CDD
102
}
330
4CDD
100
AcDbScale
 70
     0
300
1/2" = 1'-0"
140
0.5
141
12.0
290
     0
  0
SCALE
  5
4CE9
102
{ACAD_REACTORS
330
4CDD
102
}
330
4CDD
100
AcDbScale
 70
     0
300
3/4" = 1'-0"
140
0.75
141
12.0
290
     0
  0
SCALE
  5
4CEA
102
{ACAD_REACTORS
330
4CDD
102
}
330
4CDD
100
AcDbScale
 70
     0
300
1" = 1'-0"
140
1.0
141
12.0
290
     0
  0
SCALE
  5
4CEB
102
{ACAD_REACTORS
330
4CDD
102
}
330
4CDD
100
AcDbScale
 70
     0
300
1-1/2" = 1'-0"
140
1.5
141
12.0
290
     0
  0
SCALE
  5
4CEC
102
{ACAD_REACTORS
330
4CDD
102
}
330
4CDD
100
AcDbScale
 70
     0
300
3" = 1'-0"
140
3.0
141
12.0
290
     0
  0
SCALE
  5
4CED
102
{ACAD_REACTORS
330
4CDD
102
}
330
4CDD
100
AcDbScale
 70
     0
300
6" = 1'-0"
140
6.0
141
12.0
290
     0
  0
SCALE
  5
4CEE
102
{ACAD_REACTORS
330
4CDD
102
}
330
4CDD
100
AcDbScale
 70
     0
300
1'-0" = 1'-0"
140
12.0
141
12.0
290
     0
  0
ACDBSECTIONVIEWSTYLE
  5
4D03
102
{ACAD_XDICTIONARY
360
5091
102
}
102
{ACAD_REACTORS
330
4D02
102
}
330
4D02
100
AcDbModelDocViewStyle
 70
     0
  3
Imperial24
290
     0
100
AcDbSectionViewStyle
 70
     0
 71
     0
 90
       78
 71
     1
340
4CF0
 40
0.24
340
0
340
0
 40
0.24
300
I, O, Q, S, X, Z
 40
0.48
 90
        3
 40
0.18
 90
        1
 71
     2
340
4CF7
 90
       25
340
4CF7
 90
       50
 40
0.24
 40
0.0
 40
0.24
 71
     3
340
4CF0
 40
0.24
 90
        1
 40
0.75
 90
        1
300
%<\AcVar ViewType \f "%tc1">% %<\AcVar ViewSectionStartId>%-%<\AcVar ViewSectionEndId>%\PSCALE %<\AcVar ViewScale \f "%sn">%
 71
     4
300
ANSI31
 40
1.0
 90
        0
290
     0
290
     0
 90
        6
 40
0.0
 40
1.570796326794896
 40
0.2617993877991494
 40
1.308996938995747
 40
-0.2617993877991494
 40
1.832595714594044
  0
ACDBSECTIONVIEWSTYLE
  5
4E65
102
{ACAD_XDICTIONARY
360
5099
102
}
102
{ACAD_REACTORS
330
4D02
102
}
330
4D02
100
AcDbModelDocViewStyle
 70
     0
  3
Metric50
290
     0
100
AcDbSectionViewStyle
 70
     0
 71
     0
 90
      102
 71
     1
340
4CF0
 40
5.0
340
0
340
0
 40
5.0
300
I, O, Q, S, X, Z
 40
10.0
 90
        0
 40
2.5
 90
        0
 71
     2
340
4CF7
 90
       25
340
4CF7
 90
       50
 40
5.0
 40
2.5
 40
5.0
 71
     3
340
4CF0
 40
5.0
 90
        0
 40
15.0
 90
        1
300
%<\AcVar ViewSectionStartId>%-%<\AcVar ViewSectionEndId>% (%<\AcVar ViewScale \f "%sn">%)
 71
     4
300
ANSI31
 40
1.0
 90
        0
290
     0
290
     0
 90
        6
 40
0.0
 40
1.570796326794896
 40
0.2617993877991494
 40
1.308996938995747
 40
-0.2617993877991494
 40
1.832595714594044
  0
TABLESTYLE
  5
4CFF
102
{ACAD_XDICTIONARY
360
4EFD
102
}
102
{ACAD_REACTORS
330
4CFE
102
}
330
4CFE
100
AcDbTableStyle
  3
Standard
 70
     0
 71
     0
 40
0.06
 41
0.06
280
     0
281
     0
  7
STANDARD
140
0.18
170
     2
 62
     0
 63
     7
283
     0
274
    -2
284
     1
 64
     0
275
    -2
285
     1
 65
     0
276
    -2
286
     1
 66
     0
277
    -2
287
     1
 67
     0
278
    -2
288
     1
 68
     0
279
    -2
289
     1
 69
     0
  7
STANDARD
140
0.25
170
     5
 62
     0
 63
     7
283
     0
274
    -2
284
     1
 64
     0
275
    -2
285
     1
 65
     0
276
    -2
286
     1
 66
     0
277
    -2
287
     1
 67
     0
278
    -2
288
     1
 68
     0
279
    -2
289
     1
 69
     0
  7
STANDARD
140
0.18
170
     5
 62
     0
 63
     7
283
     0
274
    -2
284
     1
 64
     0
275
    -2
285
     1
 65
     0
276
    -2
286
     1
 66
     0
277
    -2
287
     1
 67
     0
278
    -2
288
     1
 68
     0
279
    -2
289
     1
 69
     0
  0
VISUALSTYLE
  5
4CCA
102
{ACAD_XDICTIONARY
360
506A
102
}
102
{ACAD_REACTORS
330
4CC4
102
}
330
4CC4
100
AcDbVisualStyle
  2

 70
     4
 71
     0
 72
     2
 73
     0
 90
        0
 40
-0.6
 41
-30.0
 62
     5
 63
     7
 74
     1
 91
        4
 64
     7
 65
   257
 75
     1
175
     1
 42
1.0
 92
        0
 66
   257
 43
1.0
 76
     1
 77
     6
 78
     2
 67
     7
 79
     5
170
     0
171
     0
290
     0
174
     0
 93
        1
 44
0.0
173
     0
291
     0
 45
0.0
1001
ACAD
1000
AcDbSavedByObjectVersion
1070
     0
  0
VISUALSTYLE
  5
4CC9
102
{ACAD_XDICTIONARY
360
5068
102
}
102
{ACAD_REACTORS
330
4CC4
102
}
330
4CC4
100
AcDbVisualStyle
  2

 70
     7
 71
     1
 72
     0
 73
     1
 90
        0
 40
-0.6
 41
-30.0
 62
     5
 63
     7
 74
     0
 91
        4
 64
     7
 65
   257
 75
     1
175
     1
 42
1.0
 92
        8
 66
     7
 43
1.0
 76
     1
 77
     6
 78
     2
 67
     7
 79
     5
170
     0
171
     0
290
     0
174
     0
 93
        1
 44
0.0
173
     0
291
     1
 45
0.0
1001
ACAD
1000
AcDbSavedByObjectVersion
1070
     0
  0
VISUALSTYLE
  5
4CD0
102
{ACAD_XDICTIONARY
360
5076
102
}
102
{ACAD_REACTORS
330
4CC4
102
}
330
4CC4
100
AcDbVisualStyle
  2

 70
    12
 71
     2
 72
     2
 73
     0
 90
        0
 40
-0.6
 41
-30.0
 62
     5
 63
     7
 74
     1
 91
        4
 64
     7
 65
   257
 75
     1
175
     1
 42
1.0
 92
        8
 66
     7
 43
1.0
 76
     1
 77
     6
 78
     2
 67
     7
 79
     5
170
     0
171
     0
290
     0
174
     0
 93
        1
 44
50.0
173
     0
291
     1
 45
0.0
1001
ACAD
1000
AcDbSavedByObjectVersion
1070
     0
  0
VISUALSTYLE
  5
4CD4
102
{ACAD_XDICTIONARY
360
507E
102
}
102
{ACAD_REACTORS
330
4CC4
102
}
330
4CC4
100
AcDbVisualStyle
  2

 70
    16
 71
     2
 72
     2
 73
     3
 90
        0
 40
-0.6
 41
-30.0
 62
     5
 63
     8
 74
     1
 91
        4
 64
     7
 65
   257
 75
     1
175
     1
 42
1.0
 92
        8
 66
     8
 43
1.0
 76
     1
 77
     6
 78
     2
 67
     7
 79
     5
170
     0
171
     0
290
     0
174
     0
 93
        1
 44
0.0
173
     0
291
     1
 45
0.0
1001
ACAD
1000
AcDbSavedByObjectVersion
1070
     0
  0
VISUALSTYLE
  5
4CCD
102
{ACAD_XDICTIONARY
360
5070
102
}
102
{ACAD_REACTORS
330
4CC4
102
}
330
4CC4
100
AcDbVisualStyle
  2

 70
     9
 71
     3
 72
     2
 73
     0
 90
        0
 40
-0.6
 41
-30.0
 62
     5
 63
     7
 74
     2
 91
        2
 64
     7
 65
   257
 75
     1
175
     1
 42
179.0
 92
        8
 66
     7
 43
1.0
 76
     1
 77
     6
 78
     2
 67
     7
 79
     3
170
     0
171
     0
290
     0
174
     0
 93
        1
 44
0.0
173
     0
291
     0
 45
0.0
1001
ACAD
1000
AcDbSavedByObjectVersion
1070
     0
  0
VISUALSTYLE
  5
4CCF
102
{ACAD_XDICTIONARY
360
5074
102
}
102
{ACAD_REACTORS
330
4CC4
102
}
330
4CC4
100
AcDbVisualStyle
  2

 70
    11
 71
     2
 72
     2
 73
     0
 90
        0
 40
-0.6
 41
-30.0
 62
     5
 63
     7
 74
     1
 91
        4
 64
     7
 65
   257
 75
     1
175
     1
 42
1.0
 92
        8
 66
     7
 43
1.0
 76
     1
 77
     6
 78
     2
 67
     7
 79
     5
170
     0
171
     0
290
     0
174
     0
 93
        1
 44
-50.0
173
     0
291
     1
 45
0.0
1001
ACAD
1000
AcDbSavedByObjectVersion
1070
     0
  0
VISUALSTYLE
  5
4CDC
102
{ACAD_XDICTIONARY
360
508E
102
}
102
{ACAD_REACTORS
330
4CC4
102
}
330
4CC4
100
AcDbVisualStyle
  2

 70
    22
 71
     2
 72
     2
 73
     0
 90
        0
 40
-0.6
 41
-30.0
 62
     5
 63
     7
 74
     1
 91
        4
 64
     7
 65
   257
 75
     1
175
     1
 42
1.0
 92
        8
 66
     7
 43
1.0
 76
     1
 77
     6
 78
     2
 67
     7
 79
     5
170
     0
171
     0
290
     0
174
     0
 93
        1
 44
0.0
173
     0
291
     1
 45
0.0
1001
ACAD
1000
AcDbSavedByObjectVersion
1070
     0
  0
VISUALSTYLE
  5
4CD3
102
{ACAD_XDICTIONARY
360
507C
102
}
102
{ACAD_REACTORS
330
4CC4
102
}
330
4CC4
100
AcDbVisualStyle
  2

 70
    15
 71
     2
 72
     2
 73
     0
 90
        0
 40
-0.6
 41
-30.0
 62
     5
 63
     7
 74
     1
 91
        4
 64
     7
 65
   257
 75
     1
175
     1
 42
1.0
 92
        8
 66
     7
 43
1.0
 76
     1
 77
     6
 78
     2
 67
     7
 79
     5
170
     0
171
     0
290
     0
174
     0
 93
        1
 44
0.0
173
     0
291
     1
 45
0.0
1001
ACAD
1000
AcDbSavedByObjectVersion
1070
     0
  0
VISUALSTYLE
  5
4CC5
102
{ACAD_XDICTIONARY
360
5060
102
}
102
{ACAD_REACTORS
330
4CC4
102
}
330
4CC4
100
AcDbVisualStyle
  2

 70
     0
 71
     2
 72
     1
 73
     1
 90
        2
 40
-0.6
 41
30.0
 62
     5
 63
     7
 74
     0
 91
        0
 64
     7
 65
   257
 75
     1
175
     1
 42
1.0
 92
        8
 66
     7
 43
1.0
 76
     1
 77
     6
 78
     2
 67
     7
 79
     5
170
     0
171
     0
290
     0
174
     0
 93
       13
 44
0.0
173
     0
291
     1
 45
0.0
1001
ACAD
1000
AcDbSavedByObjectVersion
1070
     0
  0
VISUALSTYLE
  5
4CC6
102
{ACAD_XDICTIONARY
360
5062
102
}
102
{ACAD_REACTORS
330
4CC4
102
}
330
4CC4
100
AcDbVisualStyle
  2

 70
     1
 71
     2
 72
     1
 73
     1
 90
        2
 40
-0.6
 41
30.0
 62
     5
 63
     7
 74
     1
 91
        0
 64
     7
 65
   257
 75
     1
175
     1
 42
1.0
 92
        0
 66
   257
 43
1.0
 76
     1
 77
     6
 78
     2
 67
     7
 79
     5
170
     0
171
     0
290
     0
174
     0
 93
       13
 44
0.0
173
     0
291
     1
 45
0.0
1001
ACAD
1000
AcDbSavedByObjectVersion
1070
     0
  0
VISUALSTYLE
  5
4CC7
102
{ACAD_XDICTIONARY
360
5064
102
}
102
{ACAD_REACTORS
330
4CC4
102
}
330
4CC4
100
AcDbVisualStyle
  2

 70
     2
 71
     2
 72
     2
 73
     1
 90
        2
 40
-0.6
 41
30.0
 62
     5
 63
     7
 74
     0
 91
        0
 64
     7
 65
   257
 75
     1
175
     1
 42
1.0
 92
        0
 66
     7
 43
1.0
 76
     1
 77
     6
 78
     2
 67
     7
 79
     5
170
     0
171
     0
290
     0
174
     0
 93
       13
 44
0.0
173
     0
291
     1
 45
0.0
1001
ACAD
1000
AcDbSavedByObjectVersion
1070
     0
  0
VISUALSTYLE
  5
4CC8
102
{ACAD_XDICTIONARY
360
5066
102
}
102
{ACAD_REACTORS
330
4CC4
102
}
330
4CC4
100
AcDbVisualStyle
  2

 70
     3
 71
     2
 72
     2
 73
     1
 90
        2
 40
-0.6
 41
30.0
 62
     5
 63
     7
 74
     1
 91
        0
 64
     7
 65
   257
 75
     1
175
     1
 42
1.0
 92
        0
 66
   257
 43
1.0
 76
     1
 77
     6
 78
     2
 67
     7
 79
     5
170
     0
171
     0
290
     0
174
     0
 93
       13
 44
0.0
173
     0
291
     1
 45
0.0
1001
ACAD
1000
AcDbSavedByObjectVersion
1070
     0
  0
VISUALSTYLE
  5
4CCC
102
{ACAD_XDICTIONARY
360
506E
102
}
102
{ACAD_REACTORS
330
4CC4
102
}
330
4CC4
100
AcDbVisualStyle
  2

 70
     6
 71
     1
 72
     2
 73
     2
 90
        0
 40
-0.6
 41
-30.0
 62
     5
 63
     7
 74
     2
 91
        2
 64
     7
 65
   257
 75
     2
175
     1
 42
40.0
 92
        0
 66
   257
 43
1.0
 76
     1
 77
     6
 78
     2
 67
     7
 79
     3
170
     0
171
     0
290
     0
174
     0
 93
        1
 44
0.0
173
     0
291
     0
 45
0.0
1001
ACAD
1000
AcDbSavedByObjectVersion
1070
     0
  0
VISUALSTYLE
  5
4CDA
102
{ACAD_XDICTIONARY
360
508A
102
}
102
{ACAD_REACTORS
330
4CC4
102
}
330
4CC4
100
AcDbVisualStyle
  2

 70
    20
 71
     2
 72
     2
 73
     0
 90
        0
 40
-0.6
 41
-30.0
 62
     5
 63
     7
 74
     1
 91
        4
 64
     7
 65
   257
 75
     1
175
     1
 42
1.0
 92
       10
 66
     7
 43
1.0
 76
     1
 77
     6
 78
     2
 67
     7
 79
     5
170
     0
171
     0
290
     0
174
     0
 93
        1
 44
0.0
173
     0
291
     1
 45
0.0
1001
ACAD
1000
AcDbSavedByObjectVersion
1070
     0
  0
VISUALSTYLE
  5
4CD2
102
{ACAD_XDICTIONARY
360
507A
102
}
102
{ACAD_REACTORS
330
4CC4
102
}
330
4CC4
100
AcDbVisualStyle
  2

 70
    14
 71
     2
 72
     2
 73
     0
 90
        0
 40
-0.6
 41
-30.0
 62
     5
 63
     7
 74
     1
 91
        4
 64
     7
 65
   257
 75
     7
175
     7
 42
1.0
 92
        8
 66
     7
 43
1.0
 76
     1
 77
     6
 78
     2
 67
     7
 79
     5
170
     0
171
     0
290
     0
174
     0
 93
        1
 44
0.0
173
     0
291
     1
 45
0.0
1001
ACAD
1000
AcDbSavedByObjectVersion
1070
     0
  0
VISUALSTYLE
  5
4CDB
102
{ACAD_XDICTIONARY
360
508C
102
}
102
{ACAD_REACTORS
330
4CC4
102
}
330
4CC4
100
AcDbVisualStyle
  2

 70
    21
 71
     2
 72
     2
 73
     0
 90
        0
 40
-0.6
 41
-30.0
 62
     5
 63
     7
 74
     1
 91
        4
 64
     7
 65
   257
 75
     1
175
     1
 42
1.0
 92
        9
 66
     7
 43
1.0
 76
     1
 77
     6
 78
     2
 67
     7
 79
     5
170
     0
171
     0
290
     0
174
     0
 93
        1
 44
0.0
173
     0
291
     1
 45
0.0
1001
ACAD
1000
AcDbSavedByObjectVersion
1070
     0
  0
VISUALSTYLE
  5
4CCE
102
{ACAD_XDICTIONARY
360
5072
102
}
102
{ACAD_REACTORS
330
4CC4
102
}
330
4CC4
100
AcDbVisualStyle
  2

 70
     8
 71
     2
 72
     3
 73
     0
 90
        2
 40
-0.6
 41
30.0
 62
     5
 63
     7
 74
     0
 91
        0
 64
     7
 65
   257
 75
     1
175
     1
 42
1.0
 92
        8
 66
   257
 43
1.0
 76
     1
 77
     6
 78
     2
 67
     7
 79
     3
170
     0
171
     0
290
     0
174
     0
 93
       13
 44
0.0
173
     0
291
     0
 45
0.0
1001
ACAD
1000
AcDbSavedByObjectVersion
1070
     0
  0
VISUALSTYLE
  5
4CD9
102
{ACAD_XDICTIONARY
360
5088
102
}
102
{ACAD_REACTORS
330
4CC4
102
}
330
4CC4
100
AcDbVisualStyle
  2

 70
    27
 71
     2
 72
     2
 73
     1
 90
        2
 40
-0.6
 41
30.0
 62
     5
 63
     7
 74
     0
 91
        4
 64
     7
 65
   257
 75
     1
175
     1
 42
1.0
 92
        8
 66
   257
 43
1.0
 76
     1
 77
     6
 78
     2
 67
     8
 79
     3
170
     0
171
     0
290
     0
174
     0
 93
        5
 44
0.0
173
     0
291
     0
 45
0.0
1001
ACAD
1000
AcDbSavedByObjectVersion
1070
     0
  0
VISUALSTYLE
  5
4CD8
102
{ACAD_XDICTIONARY
360
5086
102
}
102
{ACAD_REACTORS
330
4CC4
102
}
330
4CC4
100
AcDbVisualStyle
  2

 70
    26
 71
     2
 72
     2
 73
     1
 90
        2
 40
-0.6
 41
30.0
 62
     5
 63
     7
 74
     1
 91
       10
 64
     7
 65
   257
 75
     2
175
     1
 42
1.0
 92
        8
 66
   257
 43
1.0
 76
     1
 77
     6
 78
     2
 67
     7
 79
     3
170
     0
171
     0
290
     0
174
     0
 93
        5
 44
0.0
173
     0
291
     0
 45
0.0
1001
ACAD
1000
AcDbSavedByObjectVersion
1070
     0
  0
VISUALSTYLE
  5
4CD5
102
{ACAD_XDICTIONARY
360
5080
102
}
102
{ACAD_REACTORS
330
4CC4
102
}
330
4CC4
100
AcDbVisualStyle
  2

 70
    23
 71
     2
 72
     2
 73
     3
 90
        0
 40
-0.6
 41
-30.0
 62
     5
 63
     7
 74
     2
 91
        2
 64
     7
 65
     7
 75
     1
175
     1
 42
40.0
 92
        8
 66
     7
 43
1.0
 76
     1
 77
     6
 78
     2
 67
     7
 79
     3
170
     0
171
     0
290
     0
174
     0
 93
        1
 44
0.0
173
     0
291
     0
 45
0.0
1001
ACAD
1000
AcDbSavedByObjectVersion
1070
     0
  0
VISUALSTYLE
  5
4CD6
102
{ACAD_XDICTIONARY
360
5082
102
}
102
{ACAD_REACTORS
330
4CC4
102
}
330
4CC4
100
AcDbVisualStyle
  2

 70
    24
 71
     1
 72
     2
 73
     2
 90
        0
 40
-0.6
 41
-30.0
 62
     5
 63
     7
 74
     2
 91
        2
 64
     7
 65
     7
 75
     1
175
     1
 42
40.0
 92
       11
 66
     7
 43
1.0
 76
     1
 77
     6
 78
     2
 67
     7
 79
     6
170
     0
171
     0
290
     0
174
     0
 93
        1
 44
0.0
173
     0
291
     0
 45
0.0
1001
ACAD
1000
AcDbSavedByObjectVersion
1070
     0
  0
VISUALSTYLE
  5
4CD1
102
{ACAD_XDICTIONARY
360
5078
102
}
102
{ACAD_REACTORS
330
4CC4
102
}
330
4CC4
100
AcDbVisualStyle
  2

 70
    13
 71
     2
 72
     2
 73
     0
 90
        0
 40
-0.6
 41
-30.0
 62
     5
 63
     7
 74
     1
 91
        4
 64
     7
 65
   257
 75
     1
175
     1
 42
1.0
 92
       12
 66
     7
 43
1.0
 76
     1
 77
     6
 78
     2
 67
     7
 79
     5
170
     0
171
     0
290
     0
174
     0
 93
        1
 44
0.0
173
     0
291
     1
 45
0.0
1001
ACAD
1000
AcDbSavedByObjectVersion
1070
     0
  0
VISUALSTYLE
  5
4CCB
102
{ACAD_XDICTIONARY
360
506C
102
}
102
{ACAD_REACTORS
330
4CC4
102
}
330
4CC4
100
AcDbVisualStyle
  2

 70
     5
 71
     0
 72
     2
 73
     0
 90
        0
 40
-0.6
 41
-30.0
 62
     5
 63
     7
 74
     1
 91
        4
 64
     7
 65
   257
 75
     1
175
     1
 42
1.0
 92
        0
 66
   257
 43
1.0
 76
     1
 77
     6
 78
     2
 67
     7
 79
     3
170
     0
171
     0
290
     0
174
     0
 93
        1
 44
0.0
173
     0
291
     0
 45
0.0
1001
ACAD
1000
AcDbSavedByObjectVersion
1070
     0
  0
VISUALSTYLE
  5
4CD7
102
{ACAD_XDICTIONARY
360
5084
102
}
102
{ACAD_REACTORS
330
4CC4
102
}
330
4CC4
100
AcDbVisualStyle
  2

 70
    25
 71
     2
 72
     2
 73
     1
 90
        1
 40
0.5
 41
-30.0
 62
     5
 63
     7
 74
     1
 91
        0
 64
     7
 65
   257
 75
     1
175
     1
 42
1.0
 92
        8
 66
     7
 43
1.0
 76
     1
 77
     6
 78
     2
 67
     7
 79
     3
170
     0
171
     0
290
     0
174
     0
 93
       13
 44
0.0
173
     0
291
     0
 45
0.0
1001
ACAD
1000
AcDbSavedByObjectVersion
1070
     0
  0
DICTIONARYVAR
  5
4EF8
102
{ACAD_REACTORS
330
4EF3
102
}
330
4EF3
100
DictionaryVariables
280
     0
  1
1:1
  0
DICTIONARYVAR
  5
4EF5
102
{ACAD_REACTORS
330
4EF3
102
}
330
4EF3
100
DictionaryVariables
280
     0
  1
STANDARD
  0
DICTIONARYVAR
  5
4EF4
102
{ACAD_REACTORS
330
4EF3
102
}
330
4EF3
100
DictionaryVariables
280
     0
  1
STANDARD
  0
DICTIONARYVAR
  5
4EF6
102
{ACAD_REACTORS
330
4EF3
102
}
330
4EF3
100
DictionaryVariables
280
     0
  1
Imperial24
  0
DICTIONARYVAR
  5
4EF7
102
{ACAD_REACTORS
330
4EF3
102
}
330
4EF3
100
DictionaryVariables
280
     0
  1
Imperial24
  0
DICTIONARYVAR
  5
4EFB
102
{ACAD_REACTORS
330
4EF3
102
}
330
4EF3
100
DictionaryVariables
280
     0
  1
1
  0
DICTIONARYVAR
  5
4EFA
102
{ACAD_REACTORS
330
4EF3
102
}
330
4EF3
100
DictionaryVariables
280
     0
  1
0
  0
DICTIONARYVAR
  5
4EF9
102
{ACAD_REACTORS
330
4EF3
102
}
330
4EF3
100
DictionaryVariables
280
     0
  1
127
  0
DICTIONARYVAR
  5
5018
102
{ACAD_REACTORS
330
4EF3
102
}
330
4EF3
100
DictionaryVariables
280
     0
  1
2
  0
DICTIONARY
  5
5093
330
4D05
100
AcDbDictionary
280
     1
281
     1
  3
ACAD_XREC_ROUNDTRIP
360
5094
  0
DICTIONARY
  5
509B
330
4E66
100
AcDbDictionary
280
     1
281
     1
  3
ACAD_XREC_ROUNDTRIP
360
509C
  0
DICTIONARY
  5
5097
330
4D0D
100
AcDbDictionary
280
     1
281
     1
  3
ACAD_XREC_ROUNDTRIP
360
5098
  0
DICTIONARY
  5
5095
330
4D09
100
AcDbDictionary
280
     1
281
     1
  3
ACAD_XREC_ROUNDTRIP
360
5096
  0
DICTIONARY
  5
4CB5
330
4CB4
100
AcDbDictionary
280
     1
281
     1
  3
ACAD_XREC_ROUNDTRIP
360
4F04
  3
BUMPTILE
360
4CB7
  3
DIFFUSETILE
360
4CB6
  3
OPACITYTILE
360
4CBA
  3
REFLECTIONTILE
360
4CB9
  3
REFRACTIONTILE
360
4CBB
  3
SPECULARTILE
360
4CB8
  0
DICTIONARY
  5
4CAD
330
4CAC
100
AcDbDictionary
280
     1
281
     1
  3
ACAD_XREC_ROUNDTRIP
360
4F03
  3
BUMPTILE
360
4CAF
  3
DIFFUSETILE
360
4CAE
  3
OPACITYTILE
360
4CB2
  3
REFLECTIONTILE
360
4CB1
  3
REFRACTIONTILE
360
4CB3
  3
SPECULARTILE
360
4CB0
  0
DICTIONARY
  5
4CBD
330
4CBC
100
AcDbDictionary
280
     1
281
     1
  3
ACAD_XREC_ROUNDTRIP
360
4F05
  3
BUMPTILE
360
4CBF
  3
DIFFUSETILE
360
4CBE
  3
OPACITYTILE
360
4CC2
  3
REFLECTIONTILE
360
4CC1
  3
REFRACTIONTILE
360
4CC3
  3
SPECULARTILE
360
4CC0
  0
DICTIONARY
  5
5091
330
4D03
100
AcDbDictionary
280
     1
281
     1
  3
ACAD_XREC_ROUNDTRIP
360
5092
  0
DICTIONARY
  5
5099
330
4E65
100
AcDbDictionary
280
     1
281
     1
  3
ACAD_XREC_ROUNDTRIP
360
509A
  0
DICTIONARY
  5
4EFD
330
4CFF
100
AcDbDictionary
280
     1
281
     1
  3
ACAD_ROUNDTRIP_2008_TABLESTYLE_CELLSTYLEMAP
360
505B
  3
ACAD_XREC_ROUNDTRIP
360
5090
  0
DICTIONARY
  5
506A
330
4CCA
100
AcDbDictionary
280
     1
281
     1
  3
ACAD_XREC_ROUNDTRIP
360
506B
  0
DICTIONARY
  5
5068
330
4CC9
100
AcDbDictionary
280
     1
281
     1
  3
ACAD_XREC_ROUNDTRIP
360
5069
  0
DICTIONARY
  5
5076
330
4CD0
100
AcDbDictionary
280
     1
281
     1
  3
ACAD_XREC_ROUNDTRIP
360
5077
  0
DICTIONARY
  5
507E
330
4CD4
100
AcDbDictionary
280
     1
281
     1
  3
ACAD_XREC_ROUNDTRIP
360
507F
  0
DICTIONARY
  5
5070
330
4CCD
100
AcDbDictionary
280
     1
281
     1
  3
ACAD_XREC_ROUNDTRIP
360
5071
  0
DICTIONARY
  5
5074
330
4CCF
100
AcDbDictionary
280
     1
281
     1
  3
ACAD_XREC_ROUNDTRIP
360
5075
  0
DICTIONARY
  5
508E
330
4CDC
100
AcDbDictionary
280
     1
281
     1
  3
ACAD_XREC_ROUNDTRIP
360
508F
  0
DICTIONARY
  5
507C
330
4CD3
100
AcDbDictionary
280
     1
281
     1
  3
ACAD_XREC_ROUNDTRIP
360
507D
  0
DICTIONARY
  5
5060
330
4CC5
100
AcDbDictionary
280
     1
281
     1
  3
ACAD_XREC_ROUNDTRIP
360
5061
  0
DICTIONARY
  5
5062
330
4CC6
100
AcDbDictionary
280
     1
281
     1
  3
ACAD_XREC_ROUNDTRIP
360
5063
  0
DICTIONARY
  5
5064
330
4CC7
100
AcDbDictionary
280
     1
281
     1
  3
ACAD_XREC_ROUNDTRIP
360
5065
  0
DICTIONARY
  5
5066
330
4CC8
100
AcDbDictionary
280
     1
281
     1
  3
ACAD_XREC_ROUNDTRIP
360
5067
  0
DICTIONARY
  5
506E
330
4CCC
100
AcDbDictionary
280
     1
281
     1
  3
ACAD_XREC_ROUNDTRIP
360
506F
  0
DICTIONARY
  5
508A
330
4CDA
100
AcDbDictionary
280
     1
281
     1
  3
ACAD_XREC_ROUNDTRIP
360
508B
  0
DICTIONARY
  5
507A
330
4CD2
100
AcDbDictionary
280
     1
281
     1
  3
ACAD_XREC_ROUNDTRIP
360
507B
  0
DICTIONARY
  5
508C
330
4CDB
100
AcDbDictionary
280
     1
281
     1
  3
ACAD_XREC_ROUNDTRIP
360
508D
  0
DICTIONARY
  5
5072
330
4CCE
100
AcDbDictionary
280
     1
281
     1
  3
ACAD_XREC_ROUNDTRIP
360
5073
  0
DICTIONARY
  5
5088
330
4CD9
100
AcDbDictionary
280
     1
281
     1
  3
ACAD_XREC_ROUNDTRIP
360
5089
  0
DICTIONARY
  5
5086
330
4CD8
100
AcDbDictionary
280
     1
281
     1
  3
ACAD_XREC_ROUNDTRIP
360
5087
  0
DICTIONARY
  5
5080
330
4CD5
100
AcDbDictionary
280
     1
281
     1
  3
ACAD_XREC_ROUNDTRIP
360
5081
  0
DICTIONARY
  5
5082
330
4CD6
100
AcDbDictionary
280
     1
281
     1
  3
ACAD_XREC_ROUNDTRIP
360
5083
  0
DICTIONARY
  5
5078
330
4CD1
100
AcDbDictionary
280
     1
281
     1
  3
ACAD_XREC_ROUNDTRIP
360
5079
  0
DICTIONARY
  5
506C
330
4CCB
100
AcDbDictionary
280
     1
281
     1
  3
ACAD_XREC_ROUNDTRIP
360
506D
  0
DICTIONARY
  5
5084
330
4CD7
100
AcDbDictionary
280
     1
281
     1
  3
ACAD_XREC_ROUNDTRIP
360
5085
  0
XRECORD
  5
5094
102
{ACAD_REACTORS
330
5093
102
}
330
5093
100
AcDbXrecord
280
     1
102
DISPLAYNAME
  1
Imperial24
102
FLAGS
 90
        0
  0
XRECORD
  5
509C
102
{ACAD_REACTORS
330
509B
102
}
330
509B
100
AcDbXrecord
280
     1
102
DISPLAYNAME
  1
Metric50
102
FLAGS
 90
        0
  0
XRECORD
  5
5098
102
{ACAD_REACTORS
330
5097
102
}
330
5097
100
AcDbXrecord
280
     1
102
SHADEPLOT
 70
     0
102
SHADEPLOTRESLEVEL
 70
     2
102
SHADEPLOTCUSTOMDPI
 70
   300
  0
XRECORD
  5
5096
102
{ACAD_REACTORS
330
5095
102
}
330
5095
100
AcDbXrecord
280
     1
102
SHADEPLOT
 70
     0
102
SHADEPLOTRESLEVEL
 70
     2
102
SHADEPLOTCUSTOMDPI
 70
   300
  0
XRECORD
  5
4F04
102
{ACAD_REACTORS
330
4CB5
102
}
330
4CB5
100
AcDbXrecord
280
     1
102
MATERIAL
148
0.0
149
0.0
149
0.0
 93
        0
 94
      127
282
     0
 72
     0
 77
     0
171
     0
175
     0
179
     0
273
     0
  0
XRECORD
  5
4CB7
102
{ACAD_REACTORS
330
4CB5
102
}
330
4CB5
100
AcDbXrecord
280
     1
270
     1
271
     1
  0
XRECORD
  5
4CB6
102
{ACAD_REACTORS
330
4CB5
102
}
330
4CB5
100
AcDbXrecord
280
     1
270
     1
271
     1
  0
XRECORD
  5
4CBA
102
{ACAD_REACTORS
330
4CB5
102
}
330
4CB5
100
AcDbXrecord
280
     1
270
     1
271
     1
  0
XRECORD
  5
4CB9
102
{ACAD_REACTORS
330
4CB5
102
}
330
4CB5
100
AcDbXrecord
280
     1
270
     1
271
     1
  0
XRECORD
  5
4CBB
102
{ACAD_REACTORS
330
4CB5
102
}
330
4CB5
100
AcDbXrecord
280
     1
270
     1
271
     1
  0
XRECORD
  5
4CB8
102
{ACAD_REACTORS
330
4CB5
102
}
330
4CB5
100
AcDbXrecord
280
     1
270
     1
271
     1
  0
XRECORD
  5
4F03
102
{ACAD_REACTORS
330
4CAD
102
}
330
4CAD
100
AcDbXrecord
280
     1
102
MATERIAL
148
0.0
149
0.0
149
0.0
 93
        0
 94
      127
282
     0
 72
     0
 77
     0
171
     0
175
     0
179
     0
273
     0
  0
XRECORD
  5
4CAF
102
{ACAD_REACTORS
330
4CAD
102
}
330
4CAD
100
AcDbXrecord
280
     1
270
     1
271
     1
  0
XRECORD
  5
4CAE
102
{ACAD_REACTORS
330
4CAD
102
}
330
4CAD
100
AcDbXrecord
280
     1
270
     1
271
     1
  0
XRECORD
  5
4CB2
102
{ACAD_REACTORS
330
4CAD
102
}
330
4CAD
100
AcDbXrecord
280
     1
270
     1
271
     1
  0
XRECORD
  5
4CB1
102
{ACAD_REACTORS
330
4CAD
102
}
330
4CAD
100
AcDbXrecord
280
     1
270
     1
271
     1
  0
XRECORD
  5
4CB3
102
{ACAD_REACTORS
330
4CAD
102
}
330
4CAD
100
AcDbXrecord
280
     1
270
     1
271
     1
  0
XRECORD
  5
4CB0
102
{ACAD_REACTORS
330
4CAD
102
}
330
4CAD
100
AcDbXrecord
280
     1
270
     1
271
     1
  0
XRECORD
  5
4F05
102
{ACAD_REACTORS
330
4CBD
102
}
330
4CBD
100
AcDbXrecord
280
     1
102
MATERIAL
148
0.0
149
0.0
149
0.0
 93
        0
 94
      127
282
     0
 72
     0
 77
     0
171
     0
175
     0
179
     0
273
     0
  0
XRECORD
  5
4CBF
102
{ACAD_REACTORS
330
4CBD
102
}
330
4CBD
100
AcDbXrecord
280
     1
270
     1
271
     1
  0
XRECORD
  5
4CBE
102
{ACAD_REACTORS
330
4CBD
102
}
330
4CBD
100
AcDbXrecord
280
     1
270
     1
271
     1
  0
XRECORD
  5
4CC2
102
{ACAD_REACTORS
330
4CBD
102
}
330
4CBD
100
AcDbXrecord
280
     1
270
     1
271
     1
  0
XRECORD
  5
4CC1
102
{ACAD_REACTORS
330
4CBD
102
}
330
4CBD
100
AcDbXrecord
280
     1
270
     1
271
     1
  0
XRECORD
  5
4CC3
102
{ACAD_REACTORS
330
4CBD
102
}
330
4CBD
100
AcDbXrecord
280
     1
270
     1
271
     1
  0
XRECORD
  5
4CC0
102
{ACAD_REACTORS
330
4CBD
102
}
330
4CBD
100
AcDbXrecord
280
     1
270
     1
271
     1
  0
XRECORD
  5
5092
102
{ACAD_REACTORS
330
5091
102
}
330
5091
100
AcDbXrecord
280
     1
102
DISPLAYNAME
  1
Imperial24
102
FLAGS
 90
        0
  0
XRECORD
  5
509A
102
{ACAD_REACTORS
330
5099
102
}
330
5099
100
AcDbXrecord
280
     1
102
DISPLAYNAME
  1
Metric50
102
FLAGS
 90
        0
  0
CELLSTYLEMAP
  5
505B
102
{ACAD_REACTORS
330
4EFD
102
}
330
4EFD
100
AcDbCellStyleMap
 90
        3
300
CELLSTYLE
  1
TABLEFORMAT_BEGIN
 90
        5
170
     1
 91
        0
 92
    32768
 62
   257
 93
        1
300
CONTENTFORMAT
  1
CONTENTFORMAT_BEGIN
 90
        0
 91
        0
 92
      512
 93
        0
300

 40
0.0
140
1.0
 94
        5
 62
     0
340
4CF0
144
0.25
309
CONTENTFORMAT_END
171
     1
301
MARGIN
  1
CELLMARGIN_BEGIN
 40
0.06
 40
0.06
 40
0.06
 40
0.06
 40
0.18
 40
0.18
309
CELLMARGIN_END
 94
        6
 95
        1
302
GRIDFORMAT
  1
GRIDFORMAT_BEGIN
 90
        0
 91
        1
 62
     0
 92
       -2
340
0
 93
        0
 40
0.045
309
GRIDFORMAT_END
 95
        2
302
GRIDFORMAT
  1
GRIDFORMAT_BEGIN
 90
        0
 91
        1
 62
     0
 92
       -2
340
0
 93
        0
 40
0.045
309
GRIDFORMAT_END
 95
        4
302
GRIDFORMAT
  1
GRIDFORMAT_BEGIN
 90
        0
 91
        1
 62
     0
 92
       -2
340
0
 93
        0
 40
0.045
309
GRIDFORMAT_END
 95
        8
302
GRIDFORMAT
  1
GRIDFORMAT_BEGIN
 90
        0
 91
        1
 62
     0
 92
       -2
340
0
 93
        0
 40
0.045
309
GRIDFORMAT_END
 95
       16
302
GRIDFORMAT
  1
GRIDFORMAT_BEGIN
 90
        0
 91
        1
 62
     0
 92
       -2
340
0
 93
        0
 40
0.045
309
GRIDFORMAT_END
 95
       32
302
GRIDFORMAT
  1
GRIDFORMAT_BEGIN
 90
        0
 91
        1
 62
     0
 92
       -2
340
0
 93
        0
 40
0.045
309
GRIDFORMAT_END
309
TABLEFORMAT_END
  1
CELLSTYLE_BEGIN
 90
        1
 91
        1
300
_TITLE
309
CELLSTYLE_END
300
CELLSTYLE
  1
TABLEFORMAT_BEGIN
 90
        5
170
     1
 91
        0
 92
        0
 62
   257
 93
        1
300
CONTENTFORMAT
  1
CONTENTFORMAT_BEGIN
 90
        0
 91
        0
 92
      512
 93
        0
300

 40
0.0
140
1.0
 94
        5
 62
     0
340
4CF0
144
0.18
309
CONTENTFORMAT_END
171
     1
301
MARGIN
  1
CELLMARGIN_BEGIN
 40
0.06
 40
0.06
 40
0.06
 40
0.06
 40
0.18
 40
0.18
309
CELLMARGIN_END
 94
        6
 95
        1
302
GRIDFORMAT
  1
GRIDFORMAT_BEGIN
 90
        0
 91
        1
 62
     0
 92
       -2
340
0
 93
        0
 40
0.045
309
GRIDFORMAT_END
 95
        2
302
GRIDFORMAT
  1
GRIDFORMAT_BEGIN
 90
        0
 91
        1
 62
     0
 92
       -2
340
0
 93
        0
 40
0.045
309
GRIDFORMAT_END
 95
        4
302
GRIDFORMAT
  1
GRIDFORMAT_BEGIN
 90
        0
 91
        1
 62
     0
 92
       -2
340
0
 93
        0
 40
0.045
309
GRIDFORMAT_END
 95
        8
302
GRIDFORMAT
  1
GRIDFORMAT_BEGIN
 90
        0
 91
        1
 62
     0
 92
       -2
340
0
 93
        0
 40
0.045
309
GRIDFORMAT_END
 95
       16
302
GRIDFORMAT
  1
GRIDFORMAT_BEGIN
 90
        0
 91
        1
 62
     0
 92
       -2
340
0
 93
        0
 40
0.045
309
GRIDFORMAT_END
 95
       32
302
GRIDFORMAT
  1
GRIDFORMAT_BEGIN
 90
        0
 91
        1
 62
     0
 92
       -2
340
0
 93
        0
 40
0.045
309
GRIDFORMAT_END
309
TABLEFORMAT_END
  1
CELLSTYLE_BEGIN
 90
        2
 91
        1
300
_HEADER
309
CELLSTYLE_END
300
CELLSTYLE
  1
TABLEFORMAT_BEGIN
 90
        5
170
     1
 91
        0
 92
        0
 62
   257
 93
        1
300
CONTENTFORMAT
  1
CONTENTFORMAT_BEGIN
 90
        0
 91
        0
 92
      512
 93
        0
300

 40
0.0
140
1.0
 94
        2
 62
     0
340
4CF0
144
0.18
309
CONTENTFORMAT_END
171
     1
301
MARGIN
  1
CELLMARGIN_BEGIN
 40
0.06
 40
0.06
 40
0.06
 40
0.06
 40
0.18
 40
0.18
309
CELLMARGIN_END
 94
        6
 95
        1
302
GRIDFORMAT
  1
GRIDFORMAT_BEGIN
 90
        0
 91
        1
 62
     0
 92
       -2
340
0
 93
        0
 40
0.045
309
GRIDFORMAT_END
 95
        2
302
GRIDFORMAT
  1
GRIDFORMAT_BEGIN
 90
        0
 91
        1
 62
     0
 92
       -2
340
0
 93
        0
 40
0.045
309
GRIDFORMAT_END
 95
        4
302
GRIDFORMAT
  1
GRIDFORMAT_BEGIN
 90
        0
 91
        1
 62
     0
 92
       -2
340
0
 93
        0
 40
0.045
309
GRIDFORMAT_END
 95
        8
302
GRIDFORMAT
  1
GRIDFORMAT_BEGIN
 90
        0
 91
        1
 62
     0
 92
       -2
340
0
 93
        0
 40
0.045
309
GRIDFORMAT_END
 95
       16
302
GRIDFORMAT
  1
GRIDFORMAT_BEGIN
 90
        0
 91
        1
 62
     0
 92
       -2
340
0
 93
        0
 40
0.045
309
GRIDFORMAT_END
 95
       32
302
GRIDFORMAT
  1
GRIDFORMAT_BEGIN
 90
        0
 91
        1
 62
     0
 92
       -2
340
0
 93
        0
 40
0.045
309
GRIDFORMAT_END
309
TABLEFORMAT_END
  1
CELLSTYLE_BEGIN
 90
        3
 91
        2
300
_DATA
309
CELLSTYLE_END
  0
XRECORD
  5
5090
102
{ACAD_REACTORS
330
4EFD
102
}
330
4EFD
100
AcDbXrecord
280
     1
102
ACAD_ROUNDTRIP_PRE2007_TABLESTYLE
 90
      512
 91
        0
  1

 92
      512
 93
        0
  2

 94
      512
 95
        0
  3

  0
XRECORD
  5
506B
102
{ACAD_REACTORS
330
506A
102
}
330
506A
100
AcDbXrecord
280
     1
102
RTVSPost2010Prop28
280
     1
102
RTVSPost2010PropOp28
 70
     1
102
RTVSPost2010Prop29
280
     1
102
RTVSPost2010PropOp29
 70
     1
102
RTVSPost2010Prop30
280
     0
102
RTVSPost2010PropOp30
 70
     1
102
RTVSPost2010Prop31
280
     0
102
RTVSPost2010PropOp31
 70
     1
102
RTVSPost2010Prop32
280
     0
102
RTVSPost2010PropOp32
 70
     1
102
RTVSPost2010Prop33
280
     0
102
RTVSPost2010PropOp33
 70
     1
102
RTVSPost2010Prop34
280
     0
102
RTVSPost2010PropOp34
 70
     1
102
RTVSPost2010Prop35
280
     0
102
RTVSPost2010PropOp35
 70
     1
102
RTVSPost2010Prop36
280
     0
102
RTVSPost2010PropOp36
 70
     1
102
RTVSPost2010Prop37
 90
       50
102
RTVSPost2010PropOp37
 70
     1
102
RTVSPost2010Prop38
140
0.0
102
RTVSPost2010PropOp38
 70
     1
102
RTVSPost2010Prop39
140
1.0
102
RTVSPost2010PropOp39
 70
     1
102
RTVSPost2010Prop40
 90
        0
102
RTVSPost2010PropOp40
 70
     1
102
RTVSPost2010Prop41ColorIndex
 90
       18
102
RTVSPost2010Prop41ColorRGB
 90
        0
102
RTVSPost2010PropOp41
 70
     1
102
RTVSPost2010Prop42
 90
       50
102
RTVSPost2010PropOp42
 70
     1
102
RTVSPost2010Prop43
 90
        3
102
RTVSPost2010PropOp43
 70
     1
102
RTVSPost2010Prop44ColorIndex
 90
        5
102
RTVSPost2010Prop44ColorRGB
 90
      255
102
RTVSPost2010PropOp44
 70
     1
102
RTVSPost2010Prop45
280
     0
102
RTVSPost2010PropOp45
 70
     1
102
RTVSPost2010Prop46
 90
       50
102
RTVSPost2010PropOp46
 70
     1
102
RTVSPost2010Prop47
 90
       50
102
RTVSPost2010PropOp47
 70
     1
102
RTVSPost2010Prop48
 90
       50
102
RTVSPost2010PropOp48
 70
     1
102
RTVSPost2010Prop49
280
     0
102
RTVSPost2010PropOp49
 70
     1
102
RTVSPost2010Prop50
 90
       50
102
RTVSPost2010PropOp50
 70
     1
102
RTVSPost2010Prop51ColorIndex
 90
      256
102
RTVSPost2010Prop51ColorRGB
 90
-16777216
102
RTVSPost2010PropOp51
 70
     0
102
RTVSPost2010Prop52
140
1.0
102
RTVSPost2010PropOp52
 70
     0
102
RTVSPost2010Prop53
 90
        2
102
RTVSPost2010PropOp53
 70
     1
102
RTVSPost2010Prop54
  1
strokes_ogs.tif
102
RTVSPost2010PropOp54
 70
     1
102
RTVSPost2010Prop55
280
     0
102
RTVSPost2010PropOp55
 70
     1
102
RTVSPost2010Prop56
140
1.0
102
RTVSPost2010PropOp56
 70
     1
102
RTVSPost2010Prop57
140
1.0
102
RTVSPost2010PropOp57
 70
     1
102
RTVSPropertyOp0
 70
     1
102
RTVSPropertyOp1
 70
     1
102
RTVSPropertyOp2
 70
     1
102
RTVSPropertyOp3
 70
     1
102
RTVSPropertyOp4
 70
     1
102
RTVSPropertyOp5
 70
     1
102
RTVSPropertyOp6
 70
     1
102
RTVSPropertyOp7
 70
     1
102
RTVSPropertyOp8
 70
     1
102
RTVSPropertyOp9
 70
     1
102
RTVSPropertyOp10
 70
     1
102
RTVSPropertyOp11
 70
     1
102
RTVSPropertyOp12
 70
     1
102
RTVSPropertyOp13
 70
     1
102
RTVSPropertyOp14
 70
     1
102
RTVSPropertyOp15
 70
     1
102
RTVSPropertyOp16
 70
     1
102
RTVSPropertyOp17
 70
     1
102
RTVSPropertyOp18
 70
     1
102
RTVSPropertyOp19
 70
     1
102
RTVSPropertyOp20
 70
     1
102
RTVSPropertyOp21
 70
     1
102
RTVSPropertyOp22
 70
     1
102
RTVSPropertyOp23
 70
     1
102
RTVSPropertyOp24
 70
     1
102
RTVSPropertyOp25
 70
     1
102
RTVSPropertyOp26
 70
     1
102
RTVSPropertyOp27
 70
     1
102
RTVSPropertyOp28
 70
     1
102
RTVSPropertyOp29
 70
     1
102
RTVSPropertyOp30
 70
     1
102
RTVSPropertyOp31
 70
     1
102
RTVSPropertyOp32
 70
     1
102
RTVSPropertyOp33
 70
     1
102
RTVSPropertyOp34
 70
     1
102
RTVSPropertyOp35
 70
     1
102
RTVSPropertyOp36
 70
     1
102
RTVSPropertyOp37
 70
     1
102
RTVSPropertyOp38
 70
     1
102
RTVSPropertyOp39
 70
     1
102
RTVSPropertyOp40
 70
     1
102
RTVSPropertyOp41
 70
     1
102
RTVSPropertyOp42
 70
     1
102
RTVSPropertyOp43
 70
     1
102
RTVSPropertyOp44
 70
     1
102
RTVSPropertyOp45
 70
     1
102
RTVSPropertyOp46
 70
     1
102
RTVSPropertyOp47
 70
     1
102
RTVSPropertyOp48
 70
     1
102
RTVSPropertyOp49
 70
     1
102
RTVSPropertyOp50
 70
     1
102
RTVSPropertyOp51
 70
     0
102
RTVSPropertyOp52
 70
     0
102
RTVSPropertyOp53
 70
     1
102
RTVSPropertyOp54
 70
     1
102
RTVSPropertyOp55
 70
     1
102
RTVSPropertyOp56
 70
     1
102
RTVSPropertyOp57
 70
     1
102
RTVSPropertyOp58
 70
     1
102
RTVSPropertyOp59
 70
     1
102
RTVSPropertyOp60
 70
     1
102
RTVSPropertyOp61
 70
     1
102
RTVSPropertyOp62
 70
     1
  0
XRECORD
  5
5069
102
{ACAD_REACTORS
330
5068
102
}
330
5068
100
AcDbXrecord
280
     1
102
RTVSPost2010Prop28
280
     0
102
RTVSPost2010PropOp28
 70
     1
102
RTVSPost2010Prop29
280
     1
102
RTVSPost2010PropOp29
 70
     1
102
RTVSPost2010Prop30
280
     1
102
RTVSPost2010PropOp30
 70
     1
102
RTVSPost2010Prop31
280
     0
102
RTVSPost2010PropOp31
 70
     1
102
RTVSPost2010Prop32
280
     0
102
RTVSPost2010PropOp32
 70
     1
102
RTVSPost2010Prop33
280
     0
102
RTVSPost2010PropOp33
 70
     1
102
RTVSPost2010Prop34
280
     0
102
RTVSPost2010PropOp34
 70
     1
102
RTVSPost2010Prop35
280
     0
102
RTVSPost2010PropOp35
 70
     1
102
RTVSPost2010Prop36
280
     0
102
RTVSPost2010PropOp36
 70
     1
102
RTVSPost2010Prop37
 90
       50
102
RTVSPost2010PropOp37
 70
     1
102
RTVSPost2010Prop38
140
0.0
102
RTVSPost2010PropOp38
 70
     1
102
RTVSPost2010Prop39
140
1.0
102
RTVSPost2010PropOp39
 70
     1
102
RTVSPost2010Prop40
 90
        0
102
RTVSPost2010PropOp40
 70
     1
102
RTVSPost2010Prop41ColorIndex
 90
       18
102
RTVSPost2010Prop41ColorRGB
 90
        0
102
RTVSPost2010PropOp41
 70
     1
102
RTVSPost2010Prop42
 90
       50
102
RTVSPost2010PropOp42
 70
     1
102
RTVSPost2010Prop43
 90
        3
102
RTVSPost2010PropOp43
 70
     1
102
RTVSPost2010Prop44ColorIndex
 90
        5
102
RTVSPost2010Prop44ColorRGB
 90
      255
102
RTVSPost2010PropOp44
 70
     1
102
RTVSPost2010Prop45
280
     0
102
RTVSPost2010PropOp45
 70
     1
102
RTVSPost2010Prop46
 90
       50
102
RTVSPost2010PropOp46
 70
     1
102
RTVSPost2010Prop47
 90
       50
102
RTVSPost2010PropOp47
 70
     1
102
RTVSPost2010Prop48
 90
       50
102
RTVSPost2010PropOp48
 70
     1
102
RTVSPost2010Prop49
280
     0
102
RTVSPost2010PropOp49
 70
     1
102
RTVSPost2010Prop50
 90
       50
102
RTVSPost2010PropOp50
 70
     1
102
RTVSPost2010Prop51ColorIndex
 90
      256
102
RTVSPost2010Prop51ColorRGB
 90
-16777216
102
RTVSPost2010PropOp51
 70
     0
102
RTVSPost2010Prop52
140
1.0
102
RTVSPost2010PropOp52
 70
     0
102
RTVSPost2010Prop53
 90
        2
102
RTVSPost2010PropOp53
 70
     1
102
RTVSPost2010Prop54
  1
strokes_ogs.tif
102
RTVSPost2010PropOp54
 70
     1
102
RTVSPost2010Prop55
280
     0
102
RTVSPost2010PropOp55
 70
     1
102
RTVSPost2010Prop56
140
1.0
102
RTVSPost2010PropOp56
 70
     1
102
RTVSPost2010Prop57
140
1.0
102
RTVSPost2010PropOp57
 70
     1
102
RTVSPropertyOp0
 70
     1
102
RTVSPropertyOp1
 70
     1
102
RTVSPropertyOp2
 70
     1
102
RTVSPropertyOp3
 70
     1
102
RTVSPropertyOp4
 70
     1
102
RTVSPropertyOp5
 70
     1
102
RTVSPropertyOp6
 70
     1
102
RTVSPropertyOp7
 70
     1
102
RTVSPropertyOp8
 70
     1
102
RTVSPropertyOp9
 70
     1
102
RTVSPropertyOp10
 70
     1
102
RTVSPropertyOp11
 70
     1
102
RTVSPropertyOp12
 70
     1
102
RTVSPropertyOp13
 70
     1
102
RTVSPropertyOp14
 70
     1
102
RTVSPropertyOp15
 70
     1
102
RTVSPropertyOp16
 70
     1
102
RTVSPropertyOp17
 70
     1
102
RTVSPropertyOp18
 70
     1
102
RTVSPropertyOp19
 70
     1
102
RTVSPropertyOp20
 70
     1
102
RTVSPropertyOp21
 70
     1
102
RTVSPropertyOp22
 70
     1
102
RTVSPropertyOp23
 70
     1
102
RTVSPropertyOp24
 70
     1
102
RTVSPropertyOp25
 70
     1
102
RTVSPropertyOp26
 70
     1
102
RTVSPropertyOp27
 70
     1
102
RTVSPropertyOp28
 70
     1
102
RTVSPropertyOp29
 70
     1
102
RTVSPropertyOp30
 70
     1
102
RTVSPropertyOp31
 70
     1
102
RTVSPropertyOp32
 70
     1
102
RTVSPropertyOp33
 70
     1
102
RTVSPropertyOp34
 70
     1
102
RTVSPropertyOp35
 70
     1
102
RTVSPropertyOp36
 70
     1
102
RTVSPropertyOp37
 70
     1
102
RTVSPropertyOp38
 70
     1
102
RTVSPropertyOp39
 70
     1
102
RTVSPropertyOp40
 70
     1
102
RTVSPropertyOp41
 70
     1
102
RTVSPropertyOp42
 70
     1
102
RTVSPropertyOp43
 70
     1
102
RTVSPropertyOp44
 70
     1
102
RTVSPropertyOp45
 70
     1
102
RTVSPropertyOp46
 70
     1
102
RTVSPropertyOp47
 70
     1
102
RTVSPropertyOp48
 70
     1
102
RTVSPropertyOp49
 70
     1
102
RTVSPropertyOp50
 70
     1
102
RTVSPropertyOp51
 70
     0
102
RTVSPropertyOp52
 70
     0
102
RTVSPropertyOp53
 70
     1
102
RTVSPropertyOp54
 70
     1
102
RTVSPropertyOp55
 70
     1
102
RTVSPropertyOp56
 70
     1
102
RTVSPropertyOp57
 70
     1
102
RTVSPropertyOp58
 70
     1
102
RTVSPropertyOp59
 70
     1
102
RTVSPropertyOp60
 70
     1
102
RTVSPropertyOp61
 70
     1
102
RTVSPropertyOp62
 70
     1
  0
XRECORD
  5
5077
102
{ACAD_REACTORS
330
5076
102
}
330
5076
100
AcDbXrecord
280
     1
102
RTVSPost2010Prop28
280
     0
102
RTVSPost2010PropOp28
 70
     1
102
RTVSPost2010Prop29
280
     1
102
RTVSPost2010PropOp29
 70
     1
102
RTVSPost2010Prop30
280
     1
102
RTVSPost2010PropOp30
 70
     1
102
RTVSPost2010Prop31
280
     0
102
RTVSPost2010PropOp31
 70
     1
102
RTVSPost2010Prop32
280
     0
102
RTVSPost2010PropOp32
 70
     1
102
RTVSPost2010Prop33
280
     0
102
RTVSPost2010PropOp33
 70
     1
102
RTVSPost2010Prop34
280
     0
102
RTVSPost2010PropOp34
 70
     1
102
RTVSPost2010Prop35
280
     0
102
RTVSPost2010PropOp35
 70
     1
102
RTVSPost2010Prop36
280
     0
102
RTVSPost2010PropOp36
 70
     1
102
RTVSPost2010Prop37
 90
       50
102
RTVSPost2010PropOp37
 70
     1
102
RTVSPost2010Prop38
140
0.0
102
RTVSPost2010PropOp38
 70
     1
102
RTVSPost2010Prop39
140
1.0
102
RTVSPost2010PropOp39
 70
     1
102
RTVSPost2010Prop40
 90
        0
102
RTVSPost2010PropOp40
 70
     1
102
RTVSPost2010Prop41ColorIndex
 90
       18
102
RTVSPost2010Prop41ColorRGB
 90
        0
102
RTVSPost2010PropOp41
 70
     1
102
RTVSPost2010Prop42
 90
       50
102
RTVSPost2010PropOp42
 70
     1
102
RTVSPost2010Prop43
 90
        3
102
RTVSPost2010PropOp43
 70
     1
102
RTVSPost2010Prop44ColorIndex
 90
        5
102
RTVSPost2010Prop44ColorRGB
 90
      255
102
RTVSPost2010PropOp44
 70
     1
102
RTVSPost2010Prop45
280
     0
102
RTVSPost2010PropOp45
 70
     1
102
RTVSPost2010Prop46
 90
       50
102
RTVSPost2010PropOp46
 70
     1
102
RTVSPost2010Prop47
 90
       50
102
RTVSPost2010PropOp47
 70
     1
102
RTVSPost2010Prop48
 90
       50
102
RTVSPost2010PropOp48
 70
     1
102
RTVSPost2010Prop49
280
     0
102
RTVSPost2010PropOp49
 70
     1
102
RTVSPost2010Prop50
 90
       50
102
RTVSPost2010PropOp50
 70
     1
102
RTVSPost2010Prop51ColorIndex
 90
      256
102
RTVSPost2010Prop51ColorRGB
 90
-16777216
102
RTVSPost2010PropOp51
 70
     0
102
RTVSPost2010Prop52
140
1.0
102
RTVSPost2010PropOp52
 70
     0
102
RTVSPost2010Prop53
 90
        2
102
RTVSPost2010PropOp53
 70
     1
102
RTVSPost2010Prop54
  1
strokes_ogs.tif
102
RTVSPost2010PropOp54
 70
     1
102
RTVSPost2010Prop55
280
     0
102
RTVSPost2010PropOp55
 70
     1
102
RTVSPost2010Prop56
140
1.0
102
RTVSPost2010PropOp56
 70
     1
102
RTVSPost2010Prop57
140
1.0
102
RTVSPost2010PropOp57
 70
     1
102
RTVSPropertyOp0
 70
     1
102
RTVSPropertyOp1
 70
     1
102
RTVSPropertyOp2
 70
     1
102
RTVSPropertyOp3
 70
     1
102
RTVSPropertyOp4
 70
     1
102
RTVSPropertyOp5
 70
     1
102
RTVSPropertyOp6
 70
     1
102
RTVSPropertyOp7
 70
     1
102
RTVSPropertyOp8
 70
     1
102
RTVSPropertyOp9
 70
     1
102
RTVSPropertyOp10
 70
     1
102
RTVSPropertyOp11
 70
     1
102
RTVSPropertyOp12
 70
     1
102
RTVSPropertyOp13
 70
     1
102
RTVSPropertyOp14
 70
     1
102
RTVSPropertyOp15
 70
     1
102
RTVSPropertyOp16
 70
     1
102
RTVSPropertyOp17
 70
     1
102
RTVSPropertyOp18
 70
     1
102
RTVSPropertyOp19
 70
     1
102
RTVSPropertyOp20
 70
     1
102
RTVSPropertyOp21
 70
     1
102
RTVSPropertyOp22
 70
     1
102
RTVSPropertyOp23
 70
     1
102
RTVSPropertyOp24
 70
     1
102
RTVSPropertyOp25
 70
     1
102
RTVSPropertyOp26
 70
     1
102
RTVSPropertyOp27
 70
     1
102
RTVSPropertyOp28
 70
     1
102
RTVSPropertyOp29
 70
     1
102
RTVSPropertyOp30
 70
     1
102
RTVSPropertyOp31
 70
     1
102
RTVSPropertyOp32
 70
     1
102
RTVSPropertyOp33
 70
     1
102
RTVSPropertyOp34
 70
     1
102
RTVSPropertyOp35
 70
     1
102
RTVSPropertyOp36
 70
     1
102
RTVSPropertyOp37
 70
     1
102
RTVSPropertyOp38
 70
     1
102
RTVSPropertyOp39
 70
     1
102
RTVSPropertyOp40
 70
     1
102
RTVSPropertyOp41
 70
     1
102
RTVSPropertyOp42
 70
     1
102
RTVSPropertyOp43
 70
     1
102
RTVSPropertyOp44
 70
     1
102
RTVSPropertyOp45
 70
     1
102
RTVSPropertyOp46
 70
     1
102
RTVSPropertyOp47
 70
     1
102
RTVSPropertyOp48
 70
     1
102
RTVSPropertyOp49
 70
     1
102
RTVSPropertyOp50
 70
     1
102
RTVSPropertyOp51
 70
     0
102
RTVSPropertyOp52
 70
     0
102
RTVSPropertyOp53
 70
     1
102
RTVSPropertyOp54
 70
     1
102
RTVSPropertyOp55
 70
     1
102
RTVSPropertyOp56
 70
     1
102
RTVSPropertyOp57
 70
     1
102
RTVSPropertyOp58
 70
     1
102
RTVSPropertyOp59
 70
     1
102
RTVSPropertyOp60
 70
     1
102
RTVSPropertyOp61
 70
     1
102
RTVSPropertyOp62
 70
     1
  0
XRECORD
  5
507F
102
{ACAD_REACTORS
330
507E
102
}
330
507E
100
AcDbXrecord
280
     1
102
RTVSPost2010Prop28
280
     0
102
RTVSPost2010PropOp28
 70
     1
102
RTVSPost2010Prop29
280
     1
102
RTVSPost2010PropOp29
 70
     1
102
RTVSPost2010Prop30
280
     1
102
RTVSPost2010PropOp30
 70
     1
102
RTVSPost2010Prop31
280
     0
102
RTVSPost2010PropOp31
 70
     1
102
RTVSPost2010Prop32
280
     0
102
RTVSPost2010PropOp32
 70
     1
102
RTVSPost2010Prop33
280
     0
102
RTVSPost2010PropOp33
 70
     1
102
RTVSPost2010Prop34
280
     0
102
RTVSPost2010PropOp34
 70
     1
102
RTVSPost2010Prop35
280
     0
102
RTVSPost2010PropOp35
 70
     1
102
RTVSPost2010Prop36
280
     0
102
RTVSPost2010PropOp36
 70
     1
102
RTVSPost2010Prop37
 90
       50
102
RTVSPost2010PropOp37
 70
     1
102
RTVSPost2010Prop38
140
0.0
102
RTVSPost2010PropOp38
 70
     1
102
RTVSPost2010Prop39
140
1.0
102
RTVSPost2010PropOp39
 70
     1
102
RTVSPost2010Prop40
 90
        0
102
RTVSPost2010PropOp40
 70
     1
102
RTVSPost2010Prop41ColorIndex
 90
       18
102
RTVSPost2010Prop41ColorRGB
 90
        0
102
RTVSPost2010PropOp41
 70
     1
102
RTVSPost2010Prop42
 90
       50
102
RTVSPost2010PropOp42
 70
     1
102
RTVSPost2010Prop43
 90
        3
102
RTVSPost2010PropOp43
 70
     1
102
RTVSPost2010Prop44ColorIndex
 90
        5
102
RTVSPost2010Prop44ColorRGB
 90
      255
102
RTVSPost2010PropOp44
 70
     1
102
RTVSPost2010Prop45
280
     0
102
RTVSPost2010PropOp45
 70
     1
102
RTVSPost2010Prop46
 90
       50
102
RTVSPost2010PropOp46
 70
     1
102
RTVSPost2010Prop47
 90
       50
102
RTVSPost2010PropOp47
 70
     1
102
RTVSPost2010Prop48
 90
       50
102
RTVSPost2010PropOp48
 70
     1
102
RTVSPost2010Prop49
280
     0
102
RTVSPost2010PropOp49
 70
     1
102
RTVSPost2010Prop50
 90
       50
102
RTVSPost2010PropOp50
 70
     1
102
RTVSPost2010Prop51ColorIndex
 90
      256
102
RTVSPost2010Prop51ColorRGB
 90
-16777216
102
RTVSPost2010PropOp51
 70
     0
102
RTVSPost2010Prop52
140
1.0
102
RTVSPost2010PropOp52
 70
     0
102
RTVSPost2010Prop53
 90
        2
102
RTVSPost2010PropOp53
 70
     1
102
RTVSPost2010Prop54
  1
strokes_ogs.tif
102
RTVSPost2010PropOp54
 70
     1
102
RTVSPost2010Prop55
280
     0
102
RTVSPost2010PropOp55
 70
     1
102
RTVSPost2010Prop56
140
1.0
102
RTVSPost2010PropOp56
 70
     1
102
RTVSPost2010Prop57
140
1.0
102
RTVSPost2010PropOp57
 70
     1
102
RTVSPropertyOp0
 70
     1
102
RTVSPropertyOp1
 70
     1
102
RTVSPropertyOp2
 70
     1
102
RTVSPropertyOp3
 70
     1
102
RTVSPropertyOp4
 70
     1
102
RTVSPropertyOp5
 70
     1
102
RTVSPropertyOp6
 70
     1
102
RTVSPropertyOp7
 70
     1
102
RTVSPropertyOp8
 70
     1
102
RTVSPropertyOp9
 70
     1
102
RTVSPropertyOp10
 70
     1
102
RTVSPropertyOp11
 70
     1
102
RTVSPropertyOp12
 70
     1
102
RTVSPropertyOp13
 70
     1
102
RTVSPropertyOp14
 70
     1
102
RTVSPropertyOp15
 70
     1
102
RTVSPropertyOp16
 70
     1
102
RTVSPropertyOp17
 70
     1
102
RTVSPropertyOp18
 70
     1
102
RTVSPropertyOp19
 70
     1
102
RTVSPropertyOp20
 70
     1
102
RTVSPropertyOp21
 70
     1
102
RTVSPropertyOp22
 70
     1
102
RTVSPropertyOp23
 70
     1
102
RTVSPropertyOp24
 70
     1
102
RTVSPropertyOp25
 70
     1
102
RTVSPropertyOp26
 70
     1
102
RTVSPropertyOp27
 70
     1
102
RTVSPropertyOp28
 70
     1
102
RTVSPropertyOp29
 70
     1
102
RTVSPropertyOp30
 70
     1
102
RTVSPropertyOp31
 70
     1
102
RTVSPropertyOp32
 70
     1
102
RTVSPropertyOp33
 70
     1
102
RTVSPropertyOp34
 70
     1
102
RTVSPropertyOp35
 70
     1
102
RTVSPropertyOp36
 70
     1
102
RTVSPropertyOp37
 70
     1
102
RTVSPropertyOp38
 70
     1
102
RTVSPropertyOp39
 70
     1
102
RTVSPropertyOp40
 70
     1
102
RTVSPropertyOp41
 70
     1
102
RTVSPropertyOp42
 70
     1
102
RTVSPropertyOp43
 70
     1
102
RTVSPropertyOp44
 70
     1
102
RTVSPropertyOp45
 70
     1
102
RTVSPropertyOp46
 70
     1
102
RTVSPropertyOp47
 70
     1
102
RTVSPropertyOp48
 70
     1
102
RTVSPropertyOp49
 70
     1
102
RTVSPropertyOp50
 70
     1
102
RTVSPropertyOp51
 70
     0
102
RTVSPropertyOp52
 70
     0
102
RTVSPropertyOp53
 70
     1
102
RTVSPropertyOp54
 70
     1
102
RTVSPropertyOp55
 70
     1
102
RTVSPropertyOp56
 70
     1
102
RTVSPropertyOp57
 70
     1
102
RTVSPropertyOp58
 70
     1
102
RTVSPropertyOp59
 70
     1
102
RTVSPropertyOp60
 70
     1
102
RTVSPropertyOp61
 70
     1
102
RTVSPropertyOp62
 70
     1
  0
XRECORD
  5
5071
102
{ACAD_REACTORS
330
5070
102
}
330
5070
100
AcDbXrecord
280
     1
102
RTVSPost2010Prop28
280
     0
102
RTVSPost2010PropOp28
 70
     1
102
RTVSPost2010Prop29
280
     1
102
RTVSPost2010PropOp29
 70
     1
102
RTVSPost2010Prop30
280
     1
102
RTVSPost2010PropOp30
 70
     1
102
RTVSPost2010Prop31
280
     0
102
RTVSPost2010PropOp31
 70
     1
102
RTVSPost2010Prop32
280
     0
102
RTVSPost2010PropOp32
 70
     1
102
RTVSPost2010Prop33
280
     0
102
RTVSPost2010PropOp33
 70
     1
102
RTVSPost2010Prop34
280
     0
102
RTVSPost2010PropOp34
 70
     1
102
RTVSPost2010Prop35
280
     0
102
RTVSPost2010PropOp35
 70
     1
102
RTVSPost2010Prop36
280
     0
102
RTVSPost2010PropOp36
 70
     1
102
RTVSPost2010Prop37
 90
       50
102
RTVSPost2010PropOp37
 70
     1
102
RTVSPost2010Prop38
140
0.0
102
RTVSPost2010PropOp38
 70
     1
102
RTVSPost2010Prop39
140
1.0
102
RTVSPost2010PropOp39
 70
     1
102
RTVSPost2010Prop40
 90
        0
102
RTVSPost2010PropOp40
 70
     1
102
RTVSPost2010Prop41ColorIndex
 90
       18
102
RTVSPost2010Prop41ColorRGB
 90
        0
102
RTVSPost2010PropOp41
 70
     1
102
RTVSPost2010Prop42
 90
       50
102
RTVSPost2010PropOp42
 70
     1
102
RTVSPost2010Prop43
 90
        3
102
RTVSPost2010PropOp43
 70
     1
102
RTVSPost2010Prop44ColorIndex
 90
        5
102
RTVSPost2010Prop44ColorRGB
 90
      255
102
RTVSPost2010PropOp44
 70
     1
102
RTVSPost2010Prop45
280
     0
102
RTVSPost2010PropOp45
 70
     1
102
RTVSPost2010Prop46
 90
       50
102
RTVSPost2010PropOp46
 70
     1
102
RTVSPost2010Prop47
 90
       50
102
RTVSPost2010PropOp47
 70
     1
102
RTVSPost2010Prop48
 90
       50
102
RTVSPost2010PropOp48
 70
     1
102
RTVSPost2010Prop49
280
     0
102
RTVSPost2010PropOp49
 70
     1
102
RTVSPost2010Prop50
 90
       50
102
RTVSPost2010PropOp50
 70
     1
102
RTVSPost2010Prop51ColorIndex
 90
      256
102
RTVSPost2010Prop51ColorRGB
 90
-16777216
102
RTVSPost2010PropOp51
 70
     0
102
RTVSPost2010Prop52
140
1.0
102
RTVSPost2010PropOp52
 70
     0
102
RTVSPost2010Prop53
 90
        2
102
RTVSPost2010PropOp53
 70
     1
102
RTVSPost2010Prop54
  1
strokes_ogs.tif
102
RTVSPost2010PropOp54
 70
     1
102
RTVSPost2010Prop55
280
     0
102
RTVSPost2010PropOp55
 70
     1
102
RTVSPost2010Prop56
140
1.0
102
RTVSPost2010PropOp56
 70
     1
102
RTVSPost2010Prop57
140
1.0
102
RTVSPost2010PropOp57
 70
     1
102
RTVSPropertyOp0
 70
     1
102
RTVSPropertyOp1
 70
     1
102
RTVSPropertyOp2
 70
     1
102
RTVSPropertyOp3
 70
     1
102
RTVSPropertyOp4
 70
     1
102
RTVSPropertyOp5
 70
     1
102
RTVSPropertyOp6
 70
     1
102
RTVSPropertyOp7
 70
     1
102
RTVSPropertyOp8
 70
     1
102
RTVSPropertyOp9
 70
     1
102
RTVSPropertyOp10
 70
     1
102
RTVSPropertyOp11
 70
     1
102
RTVSPropertyOp12
 70
     1
102
RTVSPropertyOp13
 70
     1
102
RTVSPropertyOp14
 70
     1
102
RTVSPropertyOp15
 70
     1
102
RTVSPropertyOp16
 70
     1
102
RTVSPropertyOp17
 70
     1
102
RTVSPropertyOp18
 70
     1
102
RTVSPropertyOp19
 70
     1
102
RTVSPropertyOp20
 70
     1
102
RTVSPropertyOp21
 70
     1
102
RTVSPropertyOp22
 70
     1
102
RTVSPropertyOp23
 70
     1
102
RTVSPropertyOp24
 70
     1
102
RTVSPropertyOp25
 70
     1
102
RTVSPropertyOp26
 70
     1
102
RTVSPropertyOp27
 70
     1
102
RTVSPropertyOp28
 70
     1
102
RTVSPropertyOp29
 70
     1
102
RTVSPropertyOp30
 70
     1
102
RTVSPropertyOp31
 70
     1
102
RTVSPropertyOp32
 70
     1
102
RTVSPropertyOp33
 70
     1
102
RTVSPropertyOp34
 70
     1
102
RTVSPropertyOp35
 70
     1
102
RTVSPropertyOp36
 70
     1
102
RTVSPropertyOp37
 70
     1
102
RTVSPropertyOp38
 70
     1
102
RTVSPropertyOp39
 70
     1
102
RTVSPropertyOp40
 70
     1
102
RTVSPropertyOp41
 70
     1
102
RTVSPropertyOp42
 70
     1
102
RTVSPropertyOp43
 70
     1
102
RTVSPropertyOp44
 70
     1
102
RTVSPropertyOp45
 70
     1
102
RTVSPropertyOp46
 70
     1
102
RTVSPropertyOp47
 70
     1
102
RTVSPropertyOp48
 70
     1
102
RTVSPropertyOp49
 70
     1
102
RTVSPropertyOp50
 70
     1
102
RTVSPropertyOp51
 70
     0
102
RTVSPropertyOp52
 70
     0
102
RTVSPropertyOp53
 70
     1
102
RTVSPropertyOp54
 70
     1
102
RTVSPropertyOp55
 70
     1
102
RTVSPropertyOp56
 70
     1
102
RTVSPropertyOp57
 70
     1
102
RTVSPropertyOp58
 70
     1
102
RTVSPropertyOp59
 70
     1
102
RTVSPropertyOp60
 70
     1
102
RTVSPropertyOp61
 70
     1
102
RTVSPropertyOp62
 70
     1
  0
XRECORD
  5
5075
102
{ACAD_REACTORS
330
5074
102
}
330
5074
100
AcDbXrecord
280
     1
102
RTVSPost2010Prop28
280
     0
102
RTVSPost2010PropOp28
 70
     1
102
RTVSPost2010Prop29
280
     1
102
RTVSPost2010PropOp29
 70
     1
102
RTVSPost2010Prop30
280
     1
102
RTVSPost2010PropOp30
 70
     1
102
RTVSPost2010Prop31
280
     0
102
RTVSPost2010PropOp31
 70
     1
102
RTVSPost2010Prop32
280
     0
102
RTVSPost2010PropOp32
 70
     1
102
RTVSPost2010Prop33
280
     0
102
RTVSPost2010PropOp33
 70
     1
102
RTVSPost2010Prop34
280
     0
102
RTVSPost2010PropOp34
 70
     1
102
RTVSPost2010Prop35
280
     0
102
RTVSPost2010PropOp35
 70
     1
102
RTVSPost2010Prop36
280
     0
102
RTVSPost2010PropOp36
 70
     1
102
RTVSPost2010Prop37
 90
       50
102
RTVSPost2010PropOp37
 70
     1
102
RTVSPost2010Prop38
140
0.0
102
RTVSPost2010PropOp38
 70
     1
102
RTVSPost2010Prop39
140
1.0
102
RTVSPost2010PropOp39
 70
     1
102
RTVSPost2010Prop40
 90
        0
102
RTVSPost2010PropOp40
 70
     1
102
RTVSPost2010Prop41ColorIndex
 90
       18
102
RTVSPost2010Prop41ColorRGB
 90
        0
102
RTVSPost2010PropOp41
 70
     1
102
RTVSPost2010Prop42
 90
       50
102
RTVSPost2010PropOp42
 70
     1
102
RTVSPost2010Prop43
 90
        3
102
RTVSPost2010PropOp43
 70
     1
102
RTVSPost2010Prop44ColorIndex
 90
        5
102
RTVSPost2010Prop44ColorRGB
 90
      255
102
RTVSPost2010PropOp44
 70
     1
102
RTVSPost2010Prop45
280
     0
102
RTVSPost2010PropOp45
 70
     1
102
RTVSPost2010Prop46
 90
       50
102
RTVSPost2010PropOp46
 70
     1
102
RTVSPost2010Prop47
 90
       50
102
RTVSPost2010PropOp47
 70
     1
102
RTVSPost2010Prop48
 90
       50
102
RTVSPost2010PropOp48
 70
     1
102
RTVSPost2010Prop49
280
     0
102
RTVSPost2010PropOp49
 70
     1
102
RTVSPost2010Prop50
 90
       50
102
RTVSPost2010PropOp50
 70
     1
102
RTVSPost2010Prop51ColorIndex
 90
      256
102
RTVSPost2010Prop51ColorRGB
 90
-16777216
102
RTVSPost2010PropOp51
 70
     0
102
RTVSPost2010Prop52
140
1.0
102
RTVSPost2010PropOp52
 70
     0
102
RTVSPost2010Prop53
 90
        2
102
RTVSPost2010PropOp53
 70
     1
102
RTVSPost2010Prop54
  1
strokes_ogs.tif
102
RTVSPost2010PropOp54
 70
     1
102
RTVSPost2010Prop55
280
     0
102
RTVSPost2010PropOp55
 70
     1
102
RTVSPost2010Prop56
140
1.0
102
RTVSPost2010PropOp56
 70
     1
102
RTVSPost2010Prop57
140
1.0
102
RTVSPost2010PropOp57
 70
     1
102
RTVSPropertyOp0
 70
     1
102
RTVSPropertyOp1
 70
     1
102
RTVSPropertyOp2
 70
     1
102
RTVSPropertyOp3
 70
     1
102
RTVSPropertyOp4
 70
     1
102
RTVSPropertyOp5
 70
     1
102
RTVSPropertyOp6
 70
     1
102
RTVSPropertyOp7
 70
     1
102
RTVSPropertyOp8
 70
     1
102
RTVSPropertyOp9
 70
     1
102
RTVSPropertyOp10
 70
     1
102
RTVSPropertyOp11
 70
     1
102
RTVSPropertyOp12
 70
     1
102
RTVSPropertyOp13
 70
     1
102
RTVSPropertyOp14
 70
     1
102
RTVSPropertyOp15
 70
     1
102
RTVSPropertyOp16
 70
     1
102
RTVSPropertyOp17
 70
     1
102
RTVSPropertyOp18
 70
     1
102
RTVSPropertyOp19
 70
     1
102
RTVSPropertyOp20
 70
     1
102
RTVSPropertyOp21
 70
     1
102
RTVSPropertyOp22
 70
     1
102
RTVSPropertyOp23
 70
     1
102
RTVSPropertyOp24
 70
     1
102
RTVSPropertyOp25
 70
     1
102
RTVSPropertyOp26
 70
     1
102
RTVSPropertyOp27
 70
     1
102
RTVSPropertyOp28
 70
     1
102
RTVSPropertyOp29
 70
     1
102
RTVSPropertyOp30
 70
     1
102
RTVSPropertyOp31
 70
     1
102
RTVSPropertyOp32
 70
     1
102
RTVSPropertyOp33
 70
     1
102
RTVSPropertyOp34
 70
     1
102
RTVSPropertyOp35
 70
     1
102
RTVSPropertyOp36
 70
     1
102
RTVSPropertyOp37
 70
     1
102
RTVSPropertyOp38
 70
     1
102
RTVSPropertyOp39
 70
     1
102
RTVSPropertyOp40
 70
     1
102
RTVSPropertyOp41
 70
     1
102
RTVSPropertyOp42
 70
     1
102
RTVSPropertyOp43
 70
     1
102
RTVSPropertyOp44
 70
     1
102
RTVSPropertyOp45
 70
     1
102
RTVSPropertyOp46
 70
     1
102
RTVSPropertyOp47
 70
     1
102
RTVSPropertyOp48
 70
     1
102
RTVSPropertyOp49
 70
     1
102
RTVSPropertyOp50
 70
     1
102
RTVSPropertyOp51
 70
     0
102
RTVSPropertyOp52
 70
     0
102
RTVSPropertyOp53
 70
     1
102
RTVSPropertyOp54
 70
     1
102
RTVSPropertyOp55
 70
     1
102
RTVSPropertyOp56
 70
     1
102
RTVSPropertyOp57
 70
     1
102
RTVSPropertyOp58
 70
     1
102
RTVSPropertyOp59
 70
     1
102
RTVSPropertyOp60
 70
     1
102
RTVSPropertyOp61
 70
     1
102
RTVSPropertyOp62
 70
     1
  0
XRECORD
  5
508F
102
{ACAD_REACTORS
330
508E
102
}
330
508E
100
AcDbXrecord
280
     1
102
RTVSPost2010Prop28
280
     0
102
RTVSPost2010PropOp28
 70
     1
102
RTVSPost2010Prop29
280
     1
102
RTVSPost2010PropOp29
 70
     1
102
RTVSPost2010Prop30
280
     1
102
RTVSPost2010PropOp30
 70
     1
102
RTVSPost2010Prop31
280
     0
102
RTVSPost2010PropOp31
 70
     1
102
RTVSPost2010Prop32
280
     0
102
RTVSPost2010PropOp32
 70
     1
102
RTVSPost2010Prop33
280
     0
102
RTVSPost2010PropOp33
 70
     1
102
RTVSPost2010Prop34
280
     0
102
RTVSPost2010PropOp34
 70
     1
102
RTVSPost2010Prop35
280
     0
102
RTVSPost2010PropOp35
 70
     1
102
RTVSPost2010Prop36
280
     0
102
RTVSPost2010PropOp36
 70
     1
102
RTVSPost2010Prop37
 90
       50
102
RTVSPost2010PropOp37
 70
     0
102
RTVSPost2010Prop38
140
0.0
102
RTVSPost2010PropOp38
 70
     0
102
RTVSPost2010Prop39
140
1.0
102
RTVSPost2010PropOp39
 70
     0
102
RTVSPost2010Prop40
 90
        0
102
RTVSPost2010PropOp40
 70
     0
102
RTVSPost2010Prop41ColorIndex
 90
       18
102
RTVSPost2010Prop41ColorRGB
 90
        0
102
RTVSPost2010PropOp41
 70
     0
102
RTVSPost2010Prop42
 90
       50
102
RTVSPost2010PropOp42
 70
     0
102
RTVSPost2010Prop43
 90
        3
102
RTVSPost2010PropOp43
 70
     0
102
RTVSPost2010Prop44ColorIndex
 90
        5
102
RTVSPost2010Prop44ColorRGB
 90
      255
102
RTVSPost2010PropOp44
 70
     0
102
RTVSPost2010Prop45
280
     0
102
RTVSPost2010PropOp45
 70
     1
102
RTVSPost2010Prop46
 90
       50
102
RTVSPost2010PropOp46
 70
     0
102
RTVSPost2010Prop47
 90
       50
102
RTVSPost2010PropOp47
 70
     0
102
RTVSPost2010Prop48
 90
       50
102
RTVSPost2010PropOp48
 70
     0
102
RTVSPost2010Prop49
280
     0
102
RTVSPost2010PropOp49
 70
     1
102
RTVSPost2010Prop50
 90
       50
102
RTVSPost2010PropOp50
 70
     0
102
RTVSPost2010Prop51ColorIndex
 90
      256
102
RTVSPost2010Prop51ColorRGB
 90
-16777216
102
RTVSPost2010PropOp51
 70
     0
102
RTVSPost2010Prop52
140
1.0
102
RTVSPost2010PropOp52
 70
     0
102
RTVSPost2010Prop53
 90
        2
102
RTVSPost2010PropOp53
 70
     0
102
RTVSPost2010Prop54
  1
strokes_ogs.tif
102
RTVSPost2010PropOp54
 70
     0
102
RTVSPost2010Prop55
280
     0
102
RTVSPost2010PropOp55
 70
     1
102
RTVSPost2010Prop56
140
1.0
102
RTVSPost2010PropOp56
 70
     0
102
RTVSPost2010Prop57
140
1.0
102
RTVSPost2010PropOp57
 70
     0
102
RTVSPropertyOp0
 70
     0
102
RTVSPropertyOp1
 70
     0
102
RTVSPropertyOp2
 70
     0
102
RTVSPropertyOp3
 70
     0
102
RTVSPropertyOp4
 70
     0
102
RTVSPropertyOp5
 70
     0
102
RTVSPropertyOp6
 70
     0
102
RTVSPropertyOp7
 70
     0
102
RTVSPropertyOp8
 70
     0
102
RTVSPropertyOp9
 70
     0
102
RTVSPropertyOp10
 70
     0
102
RTVSPropertyOp11
 70
     0
102
RTVSPropertyOp12
 70
     0
102
RTVSPropertyOp13
 70
     0
102
RTVSPropertyOp14
 70
     2
102
RTVSPropertyOp15
 70
     0
102
RTVSPropertyOp16
 70
     0
102
RTVSPropertyOp17
 70
     0
102
RTVSPropertyOp18
 70
     0
102
RTVSPropertyOp19
 70
     0
102
RTVSPropertyOp20
 70
     0
102
RTVSPropertyOp21
 70
     0
102
RTVSPropertyOp22
 70
     0
102
RTVSPropertyOp23
 70
     0
102
RTVSPropertyOp24
 70
     0
102
RTVSPropertyOp25
 70
     0
102
RTVSPropertyOp26
 70
     0
102
RTVSPropertyOp27
 70
     0
102
RTVSPropertyOp28
 70
     1
102
RTVSPropertyOp29
 70
     1
102
RTVSPropertyOp30
 70
     1
102
RTVSPropertyOp31
 70
     1
102
RTVSPropertyOp32
 70
     1
102
RTVSPropertyOp33
 70
     1
102
RTVSPropertyOp34
 70
     1
102
RTVSPropertyOp35
 70
     1
102
RTVSPropertyOp36
 70
     1
102
RTVSPropertyOp37
 70
     0
102
RTVSPropertyOp38
 70
     0
102
RTVSPropertyOp39
 70
     0
102
RTVSPropertyOp40
 70
     0
102
RTVSPropertyOp41
 70
     0
102
RTVSPropertyOp42
 70
     0
102
RTVSPropertyOp43
 70
     0
102
RTVSPropertyOp44
 70
     0
102
RTVSPropertyOp45
 70
     1
102
RTVSPropertyOp46
 70
     0
102
RTVSPropertyOp47
 70
     0
102
RTVSPropertyOp48
 70
     0
102
RTVSPropertyOp49
 70
     1
102
RTVSPropertyOp50
 70
     0
102
RTVSPropertyOp51
 70
     0
102
RTVSPropertyOp52
 70
     0
102
RTVSPropertyOp53
 70
     0
102
RTVSPropertyOp54
 70
     0
102
RTVSPropertyOp55
 70
     1
102
RTVSPropertyOp56
 70
     0
102
RTVSPropertyOp57
 70
     0
102
RTVSPropertyOp58
 70
     0
102
RTVSPropertyOp59
 70
     0
102
RTVSPropertyOp60
 70
     0
102
RTVSPropertyOp61
 70
     0
102
RTVSPropertyOp62
 70
     0
  0
XRECORD
  5
507D
102
{ACAD_REACTORS
330
507C
102
}
330
507C
100
AcDbXrecord
280
     1
102
RTVSPost2010Prop28
280
     0
102
RTVSPost2010PropOp28
 70
     1
102
RTVSPost2010Prop29
280
     1
102
RTVSPost2010PropOp29
 70
     1
102
RTVSPost2010Prop30
280
     1
102
RTVSPost2010PropOp30
 70
     1
102
RTVSPost2010Prop31
280
     0
102
RTVSPost2010PropOp31
 70
     1
102
RTVSPost2010Prop32
280
     0
102
RTVSPost2010PropOp32
 70
     1
102
RTVSPost2010Prop33
280
     0
102
RTVSPost2010PropOp33
 70
     1
102
RTVSPost2010Prop34
280
     0
102
RTVSPost2010PropOp34
 70
     1
102
RTVSPost2010Prop35
280
     0
102
RTVSPost2010PropOp35
 70
     1
102
RTVSPost2010Prop36
280
     0
102
RTVSPost2010PropOp36
 70
     1
102
RTVSPost2010Prop37
 90
       50
102
RTVSPost2010PropOp37
 70
     1
102
RTVSPost2010Prop38
140
0.0
102
RTVSPost2010PropOp38
 70
     1
102
RTVSPost2010Prop39
140
1.0
102
RTVSPost2010PropOp39
 70
     1
102
RTVSPost2010Prop40
 90
        0
102
RTVSPost2010PropOp40
 70
     1
102
RTVSPost2010Prop41ColorIndex
 90
       18
102
RTVSPost2010Prop41ColorRGB
 90
        0
102
RTVSPost2010PropOp41
 70
     1
102
RTVSPost2010Prop42
 90
       50
102
RTVSPost2010PropOp42
 70
     1
102
RTVSPost2010Prop43
 90
        3
102
RTVSPost2010PropOp43
 70
     1
102
RTVSPost2010Prop44ColorIndex
 90
        5
102
RTVSPost2010Prop44ColorRGB
 90
      255
102
RTVSPost2010PropOp44
 70
     1
102
RTVSPost2010Prop45
280
     0
102
RTVSPost2010PropOp45
 70
     1
102
RTVSPost2010Prop46
 90
       50
102
RTVSPost2010PropOp46
 70
     1
102
RTVSPost2010Prop47
 90
       50
102
RTVSPost2010PropOp47
 70
     1
102
RTVSPost2010Prop48
 90
       50
102
RTVSPost2010PropOp48
 70
     1
102
RTVSPost2010Prop49
280
     0
102
RTVSPost2010PropOp49
 70
     1
102
RTVSPost2010Prop50
 90
       50
102
RTVSPost2010PropOp50
 70
     1
102
RTVSPost2010Prop51ColorIndex
 90
      256
102
RTVSPost2010Prop51ColorRGB
 90
-16777216
102
RTVSPost2010PropOp51
 70
     0
102
RTVSPost2010Prop52
140
1.0
102
RTVSPost2010PropOp52
 70
     0
102
RTVSPost2010Prop53
 90
        2
102
RTVSPost2010PropOp53
 70
     1
102
RTVSPost2010Prop54
  1
strokes_ogs.tif
102
RTVSPost2010PropOp54
 70
     1
102
RTVSPost2010Prop55
280
     0
102
RTVSPost2010PropOp55
 70
     1
102
RTVSPost2010Prop56
140
1.0
102
RTVSPost2010PropOp56
 70
     1
102
RTVSPost2010Prop57
140
1.0
102
RTVSPost2010PropOp57
 70
     1
102
RTVSPropertyOp0
 70
     1
102
RTVSPropertyOp1
 70
     1
102
RTVSPropertyOp2
 70
     1
102
RTVSPropertyOp3
 70
     1
102
RTVSPropertyOp4
 70
     1
102
RTVSPropertyOp5
 70
     1
102
RTVSPropertyOp6
 70
     1
102
RTVSPropertyOp7
 70
     1
102
RTVSPropertyOp8
 70
     1
102
RTVSPropertyOp9
 70
     1
102
RTVSPropertyOp10
 70
     1
102
RTVSPropertyOp11
 70
     1
102
RTVSPropertyOp12
 70
     1
102
RTVSPropertyOp13
 70
     1
102
RTVSPropertyOp14
 70
     1
102
RTVSPropertyOp15
 70
     1
102
RTVSPropertyOp16
 70
     1
102
RTVSPropertyOp17
 70
     1
102
RTVSPropertyOp18
 70
     1
102
RTVSPropertyOp19
 70
     1
102
RTVSPropertyOp20
 70
     1
102
RTVSPropertyOp21
 70
     1
102
RTVSPropertyOp22
 70
     1
102
RTVSPropertyOp23
 70
     1
102
RTVSPropertyOp24
 70
     1
102
RTVSPropertyOp25
 70
     1
102
RTVSPropertyOp26
 70
     1
102
RTVSPropertyOp27
 70
     1
102
RTVSPropertyOp28
 70
     1
102
RTVSPropertyOp29
 70
     1
102
RTVSPropertyOp30
 70
     1
102
RTVSPropertyOp31
 70
     1
102
RTVSPropertyOp32
 70
     1
102
RTVSPropertyOp33
 70
     1
102
RTVSPropertyOp34
 70
     1
102
RTVSPropertyOp35
 70
     1
102
RTVSPropertyOp36
 70
     1
102
RTVSPropertyOp37
 70
     1
102
RTVSPropertyOp38
 70
     1
102
RTVSPropertyOp39
 70
     1
102
RTVSPropertyOp40
 70
     1
102
RTVSPropertyOp41
 70
     1
102
RTVSPropertyOp42
 70
     1
102
RTVSPropertyOp43
 70
     1
102
RTVSPropertyOp44
 70
     1
102
RTVSPropertyOp45
 70
     1
102
RTVSPropertyOp46
 70
     1
102
RTVSPropertyOp47
 70
     1
102
RTVSPropertyOp48
 70
     1
102
RTVSPropertyOp49
 70
     1
102
RTVSPropertyOp50
 70
     1
102
RTVSPropertyOp51
 70
     0
102
RTVSPropertyOp52
 70
     0
102
RTVSPropertyOp53
 70
     1
102
RTVSPropertyOp54
 70
     1
102
RTVSPropertyOp55
 70
     1
102
RTVSPropertyOp56
 70
     1
102
RTVSPropertyOp57
 70
     1
102
RTVSPropertyOp58
 70
     1
102
RTVSPropertyOp59
 70
     1
102
RTVSPropertyOp60
 70
     1
102
RTVSPropertyOp61
 70
     1
102
RTVSPropertyOp62
 70
     1
  0
XRECORD
  5
5061
102
{ACAD_REACTORS
330
5060
102
}
330
5060
100
AcDbXrecord
280
     1
102
RTVSPost2010Prop28
280
     0
102
RTVSPost2010PropOp28
 70
     1
102
RTVSPost2010Prop29
280
     1
102
RTVSPost2010PropOp29
 70
     1
102
RTVSPost2010Prop30
280
     1
102
RTVSPost2010PropOp30
 70
     1
102
RTVSPost2010Prop31
280
     0
102
RTVSPost2010PropOp31
 70
     1
102
RTVSPost2010Prop32
280
     0
102
RTVSPost2010PropOp32
 70
     1
102
RTVSPost2010Prop33
280
     0
102
RTVSPost2010PropOp33
 70
     1
102
RTVSPost2010Prop34
280
     0
102
RTVSPost2010PropOp34
 70
     1
102
RTVSPost2010Prop35
280
     0
102
RTVSPost2010PropOp35
 70
     1
102
RTVSPost2010Prop36
280
     0
102
RTVSPost2010PropOp36
 70
     1
102
RTVSPost2010Prop37
 90
       50
102
RTVSPost2010PropOp37
 70
     1
102
RTVSPost2010Prop38
140
0.0
102
RTVSPost2010PropOp38
 70
     1
102
RTVSPost2010Prop39
140
1.0
102
RTVSPost2010PropOp39
 70
     1
102
RTVSPost2010Prop40
 90
        0
102
RTVSPost2010PropOp40
 70
     1
102
RTVSPost2010Prop41ColorIndex
 90
       18
102
RTVSPost2010Prop41ColorRGB
 90
        0
102
RTVSPost2010PropOp41
 70
     1
102
RTVSPost2010Prop42
 90
       50
102
RTVSPost2010PropOp42
 70
     1
102
RTVSPost2010Prop43
 90
        3
102
RTVSPost2010PropOp43
 70
     1
102
RTVSPost2010Prop44ColorIndex
 90
        5
102
RTVSPost2010Prop44ColorRGB
 90
      255
102
RTVSPost2010PropOp44
 70
     1
102
RTVSPost2010Prop45
280
     0
102
RTVSPost2010PropOp45
 70
     1
102
RTVSPost2010Prop46
 90
       50
102
RTVSPost2010PropOp46
 70
     1
102
RTVSPost2010Prop47
 90
       50
102
RTVSPost2010PropOp47
 70
     1
102
RTVSPost2010Prop48
 90
       50
102
RTVSPost2010PropOp48
 70
     1
102
RTVSPost2010Prop49
280
     0
102
RTVSPost2010PropOp49
 70
     1
102
RTVSPost2010Prop50
 90
       50
102
RTVSPost2010PropOp50
 70
     1
102
RTVSPost2010Prop51ColorIndex
 90
      256
102
RTVSPost2010Prop51ColorRGB
 90
-16777216
102
RTVSPost2010PropOp51
 70
     0
102
RTVSPost2010Prop52
140
1.0
102
RTVSPost2010PropOp52
 70
     0
102
RTVSPost2010Prop53
 90
        2
102
RTVSPost2010PropOp53
 70
     1
102
RTVSPost2010Prop54
  1
strokes_ogs.tif
102
RTVSPost2010PropOp54
 70
     1
102
RTVSPost2010Prop55
280
     0
102
RTVSPost2010PropOp55
 70
     1
102
RTVSPost2010Prop56
140
1.0
102
RTVSPost2010PropOp56
 70
     1
102
RTVSPost2010Prop57
140
1.0
102
RTVSPost2010PropOp57
 70
     1
102
RTVSPropertyOp0
 70
     1
102
RTVSPropertyOp1
 70
     1
102
RTVSPropertyOp2
 70
     1
102
RTVSPropertyOp3
 70
     1
102
RTVSPropertyOp4
 70
     1
102
RTVSPropertyOp5
 70
     1
102
RTVSPropertyOp6
 70
     1
102
RTVSPropertyOp7
 70
     1
102
RTVSPropertyOp8
 70
     1
102
RTVSPropertyOp9
 70
     1
102
RTVSPropertyOp10
 70
     1
102
RTVSPropertyOp11
 70
     1
102
RTVSPropertyOp12
 70
     1
102
RTVSPropertyOp13
 70
     1
102
RTVSPropertyOp14
 70
     1
102
RTVSPropertyOp15
 70
     1
102
RTVSPropertyOp16
 70
     1
102
RTVSPropertyOp17
 70
     1
102
RTVSPropertyOp18
 70
     1
102
RTVSPropertyOp19
 70
     1
102
RTVSPropertyOp20
 70
     1
102
RTVSPropertyOp21
 70
     1
102
RTVSPropertyOp22
 70
     1
102
RTVSPropertyOp23
 70
     1
102
RTVSPropertyOp24
 70
     1
102
RTVSPropertyOp25
 70
     1
102
RTVSPropertyOp26
 70
     1
102
RTVSPropertyOp27
 70
     1
102
RTVSPropertyOp28
 70
     1
102
RTVSPropertyOp29
 70
     1
102
RTVSPropertyOp30
 70
     1
102
RTVSPropertyOp31
 70
     1
102
RTVSPropertyOp32
 70
     1
102
RTVSPropertyOp33
 70
     1
102
RTVSPropertyOp34
 70
     1
102
RTVSPropertyOp35
 70
     1
102
RTVSPropertyOp36
 70
     1
102
RTVSPropertyOp37
 70
     1
102
RTVSPropertyOp38
 70
     1
102
RTVSPropertyOp39
 70
     1
102
RTVSPropertyOp40
 70
     1
102
RTVSPropertyOp41
 70
     1
102
RTVSPropertyOp42
 70
     1
102
RTVSPropertyOp43
 70
     1
102
RTVSPropertyOp44
 70
     1
102
RTVSPropertyOp45
 70
     1
102
RTVSPropertyOp46
 70
     1
102
RTVSPropertyOp47
 70
     1
102
RTVSPropertyOp48
 70
     1
102
RTVSPropertyOp49
 70
     1
102
RTVSPropertyOp50
 70
     1
102
RTVSPropertyOp51
 70
     0
102
RTVSPropertyOp52
 70
     0
102
RTVSPropertyOp53
 70
     1
102
RTVSPropertyOp54
 70
     1
102
RTVSPropertyOp55
 70
     1
102
RTVSPropertyOp56
 70
     1
102
RTVSPropertyOp57
 70
     1
102
RTVSPropertyOp58
 70
     1
102
RTVSPropertyOp59
 70
     1
102
RTVSPropertyOp60
 70
     1
102
RTVSPropertyOp61
 70
     1
102
RTVSPropertyOp62
 70
     1
  0
XRECORD
  5
5063
102
{ACAD_REACTORS
330
5062
102
}
330
5062
100
AcDbXrecord
280
     1
102
RTVSPost2010Prop28
280
     0
102
RTVSPost2010PropOp28
 70
     1
102
RTVSPost2010Prop29
280
     1
102
RTVSPost2010PropOp29
 70
     1
102
RTVSPost2010Prop30
280
     1
102
RTVSPost2010PropOp30
 70
     1
102
RTVSPost2010Prop31
280
     0
102
RTVSPost2010PropOp31
 70
     1
102
RTVSPost2010Prop32
280
     0
102
RTVSPost2010PropOp32
 70
     1
102
RTVSPost2010Prop33
280
     0
102
RTVSPost2010PropOp33
 70
     1
102
RTVSPost2010Prop34
280
     0
102
RTVSPost2010PropOp34
 70
     1
102
RTVSPost2010Prop35
280
     0
102
RTVSPost2010PropOp35
 70
     1
102
RTVSPost2010Prop36
280
     0
102
RTVSPost2010PropOp36
 70
     1
102
RTVSPost2010Prop37
 90
       50
102
RTVSPost2010PropOp37
 70
     1
102
RTVSPost2010Prop38
140
0.0
102
RTVSPost2010PropOp38
 70
     1
102
RTVSPost2010Prop39
140
1.0
102
RTVSPost2010PropOp39
 70
     1
102
RTVSPost2010Prop40
 90
        0
102
RTVSPost2010PropOp40
 70
     1
102
RTVSPost2010Prop41ColorIndex
 90
       18
102
RTVSPost2010Prop41ColorRGB
 90
        0
102
RTVSPost2010PropOp41
 70
     1
102
RTVSPost2010Prop42
 90
       50
102
RTVSPost2010PropOp42
 70
     1
102
RTVSPost2010Prop43
 90
        3
102
RTVSPost2010PropOp43
 70
     1
102
RTVSPost2010Prop44ColorIndex
 90
        5
102
RTVSPost2010Prop44ColorRGB
 90
      255
102
RTVSPost2010PropOp44
 70
     1
102
RTVSPost2010Prop45
280
     0
102
RTVSPost2010PropOp45
 70
     1
102
RTVSPost2010Prop46
 90
       50
102
RTVSPost2010PropOp46
 70
     1
102
RTVSPost2010Prop47
 90
       50
102
RTVSPost2010PropOp47
 70
     1
102
RTVSPost2010Prop48
 90
       50
102
RTVSPost2010PropOp48
 70
     1
102
RTVSPost2010Prop49
280
     0
102
RTVSPost2010PropOp49
 70
     1
102
RTVSPost2010Prop50
 90
       50
102
RTVSPost2010PropOp50
 70
     1
102
RTVSPost2010Prop51ColorIndex
 90
      256
102
RTVSPost2010Prop51ColorRGB
 90
-16777216
102
RTVSPost2010PropOp51
 70
     0
102
RTVSPost2010Prop52
140
1.0
102
RTVSPost2010PropOp52
 70
     0
102
RTVSPost2010Prop53
 90
        2
102
RTVSPost2010PropOp53
 70
     1
102
RTVSPost2010Prop54
  1
strokes_ogs.tif
102
RTVSPost2010PropOp54
 70
     1
102
RTVSPost2010Prop55
280
     0
102
RTVSPost2010PropOp55
 70
     1
102
RTVSPost2010Prop56
140
1.0
102
RTVSPost2010PropOp56
 70
     1
102
RTVSPost2010Prop57
140
1.0
102
RTVSPost2010PropOp57
 70
     1
102
RTVSPropertyOp0
 70
     1
102
RTVSPropertyOp1
 70
     1
102
RTVSPropertyOp2
 70
     1
102
RTVSPropertyOp3
 70
     1
102
RTVSPropertyOp4
 70
     1
102
RTVSPropertyOp5
 70
     1
102
RTVSPropertyOp6
 70
     1
102
RTVSPropertyOp7
 70
     1
102
RTVSPropertyOp8
 70
     1
102
RTVSPropertyOp9
 70
     1
102
RTVSPropertyOp10
 70
     1
102
RTVSPropertyOp11
 70
     1
102
RTVSPropertyOp12
 70
     1
102
RTVSPropertyOp13
 70
     1
102
RTVSPropertyOp14
 70
     1
102
RTVSPropertyOp15
 70
     1
102
RTVSPropertyOp16
 70
     1
102
RTVSPropertyOp17
 70
     1
102
RTVSPropertyOp18
 70
     1
102
RTVSPropertyOp19
 70
     1
102
RTVSPropertyOp20
 70
     1
102
RTVSPropertyOp21
 70
     1
102
RTVSPropertyOp22
 70
     1
102
RTVSPropertyOp23
 70
     1
102
RTVSPropertyOp24
 70
     1
102
RTVSPropertyOp25
 70
     1
102
RTVSPropertyOp26
 70
     1
102
RTVSPropertyOp27
 70
     1
102
RTVSPropertyOp28
 70
     1
102
RTVSPropertyOp29
 70
     1
102
RTVSPropertyOp30
 70
     1
102
RTVSPropertyOp31
 70
     1
102
RTVSPropertyOp32
 70
     1
102
RTVSPropertyOp33
 70
     1
102
RTVSPropertyOp34
 70
     1
102
RTVSPropertyOp35
 70
     1
102
RTVSPropertyOp36
 70
     1
102
RTVSPropertyOp37
 70
     1
102
RTVSPropertyOp38
 70
     1
102
RTVSPropertyOp39
 70
     1
102
RTVSPropertyOp40
 70
     1
102
RTVSPropertyOp41
 70
     1
102
RTVSPropertyOp42
 70
     1
102
RTVSPropertyOp43
 70
     1
102
RTVSPropertyOp44
 70
     1
102
RTVSPropertyOp45
 70
     1
102
RTVSPropertyOp46
 70
     1
102
RTVSPropertyOp47
 70
     1
102
RTVSPropertyOp48
 70
     1
102
RTVSPropertyOp49
 70
     1
102
RTVSPropertyOp50
 70
     1
102
RTVSPropertyOp51
 70
     0
102
RTVSPropertyOp52
 70
     0
102
RTVSPropertyOp53
 70
     1
102
RTVSPropertyOp54
 70
     1
102
RTVSPropertyOp55
 70
     1
102
RTVSPropertyOp56
 70
     1
102
RTVSPropertyOp57
 70
     1
102
RTVSPropertyOp58
 70
     1
102
RTVSPropertyOp59
 70
     1
102
RTVSPropertyOp60
 70
     1
102
RTVSPropertyOp61
 70
     1
102
RTVSPropertyOp62
 70
     1
  0
XRECORD
  5
5065
102
{ACAD_REACTORS
330
5064
102
}
330
5064
100
AcDbXrecord
280
     1
102
RTVSPost2010Prop28
280
     0
102
RTVSPost2010PropOp28
 70
     1
102
RTVSPost2010Prop29
280
     1
102
RTVSPost2010PropOp29
 70
     1
102
RTVSPost2010Prop30
280
     1
102
RTVSPost2010PropOp30
 70
     1
102
RTVSPost2010Prop31
280
     0
102
RTVSPost2010PropOp31
 70
     1
102
RTVSPost2010Prop32
280
     0
102
RTVSPost2010PropOp32
 70
     1
102
RTVSPost2010Prop33
280
     0
102
RTVSPost2010PropOp33
 70
     1
102
RTVSPost2010Prop34
280
     0
102
RTVSPost2010PropOp34
 70
     1
102
RTVSPost2010Prop35
280
     0
102
RTVSPost2010PropOp35
 70
     1
102
RTVSPost2010Prop36
280
     0
102
RTVSPost2010PropOp36
 70
     1
102
RTVSPost2010Prop37
 90
       50
102
RTVSPost2010PropOp37
 70
     1
102
RTVSPost2010Prop38
140
0.0
102
RTVSPost2010PropOp38
 70
     1
102
RTVSPost2010Prop39
140
1.0
102
RTVSPost2010PropOp39
 70
     1
102
RTVSPost2010Prop40
 90
        0
102
RTVSPost2010PropOp40
 70
     1
102
RTVSPost2010Prop41ColorIndex
 90
       18
102
RTVSPost2010Prop41ColorRGB
 90
        0
102
RTVSPost2010PropOp41
 70
     1
102
RTVSPost2010Prop42
 90
       50
102
RTVSPost2010PropOp42
 70
     1
102
RTVSPost2010Prop43
 90
        3
102
RTVSPost2010PropOp43
 70
     1
102
RTVSPost2010Prop44ColorIndex
 90
        5
102
RTVSPost2010Prop44ColorRGB
 90
      255
102
RTVSPost2010PropOp44
 70
     1
102
RTVSPost2010Prop45
280
     0
102
RTVSPost2010PropOp45
 70
     1
102
RTVSPost2010Prop46
 90
       50
102
RTVSPost2010PropOp46
 70
     1
102
RTVSPost2010Prop47
 90
       50
102
RTVSPost2010PropOp47
 70
     1
102
RTVSPost2010Prop48
 90
       50
102
RTVSPost2010PropOp48
 70
     1
102
RTVSPost2010Prop49
280
     0
102
RTVSPost2010PropOp49
 70
     1
102
RTVSPost2010Prop50
 90
       50
102
RTVSPost2010PropOp50
 70
     1
102
RTVSPost2010Prop51ColorIndex
 90
      256
102
RTVSPost2010Prop51ColorRGB
 90
-16777216
102
RTVSPost2010PropOp51
 70
     0
102
RTVSPost2010Prop52
140
1.0
102
RTVSPost2010PropOp52
 70
     0
102
RTVSPost2010Prop53
 90
        2
102
RTVSPost2010PropOp53
 70
     1
102
RTVSPost2010Prop54
  1
strokes_ogs.tif
102
RTVSPost2010PropOp54
 70
     1
102
RTVSPost2010Prop55
280
     0
102
RTVSPost2010PropOp55
 70
     1
102
RTVSPost2010Prop56
140
1.0
102
RTVSPost2010PropOp56
 70
     1
102
RTVSPost2010Prop57
140
1.0
102
RTVSPost2010PropOp57
 70
     1
102
RTVSPropertyOp0
 70
     1
102
RTVSPropertyOp1
 70
     1
102
RTVSPropertyOp2
 70
     1
102
RTVSPropertyOp3
 70
     1
102
RTVSPropertyOp4
 70
     1
102
RTVSPropertyOp5
 70
     1
102
RTVSPropertyOp6
 70
     1
102
RTVSPropertyOp7
 70
     1
102
RTVSPropertyOp8
 70
     1
102
RTVSPropertyOp9
 70
     1
102
RTVSPropertyOp10
 70
     1
102
RTVSPropertyOp11
 70
     1
102
RTVSPropertyOp12
 70
     1
102
RTVSPropertyOp13
 70
     1
102
RTVSPropertyOp14
 70
     1
102
RTVSPropertyOp15
 70
     1
102
RTVSPropertyOp16
 70
     1
102
RTVSPropertyOp17
 70
     1
102
RTVSPropertyOp18
 70
     1
102
RTVSPropertyOp19
 70
     1
102
RTVSPropertyOp20
 70
     1
102
RTVSPropertyOp21
 70
     1
102
RTVSPropertyOp22
 70
     1
102
RTVSPropertyOp23
 70
     1
102
RTVSPropertyOp24
 70
     1
102
RTVSPropertyOp25
 70
     1
102
RTVSPropertyOp26
 70
     1
102
RTVSPropertyOp27
 70
     1
102
RTVSPropertyOp28
 70
     1
102
RTVSPropertyOp29
 70
     1
102
RTVSPropertyOp30
 70
     1
102
RTVSPropertyOp31
 70
     1
102
RTVSPropertyOp32
 70
     1
102
RTVSPropertyOp33
 70
     1
102
RTVSPropertyOp34
 70
     1
102
RTVSPropertyOp35
 70
     1
102
RTVSPropertyOp36
 70
     1
102
RTVSPropertyOp37
 70
     1
102
RTVSPropertyOp38
 70
     1
102
RTVSPropertyOp39
 70
     1
102
RTVSPropertyOp40
 70
     1
102
RTVSPropertyOp41
 70
     1
102
RTVSPropertyOp42
 70
     1
102
RTVSPropertyOp43
 70
     1
102
RTVSPropertyOp44
 70
     1
102
RTVSPropertyOp45
 70
     1
102
RTVSPropertyOp46
 70
     1
102
RTVSPropertyOp47
 70
     1
102
RTVSPropertyOp48
 70
     1
102
RTVSPropertyOp49
 70
     1
102
RTVSPropertyOp50
 70
     1
102
RTVSPropertyOp51
 70
     0
102
RTVSPropertyOp52
 70
     0
102
RTVSPropertyOp53
 70
     1
102
RTVSPropertyOp54
 70
     1
102
RTVSPropertyOp55
 70
     1
102
RTVSPropertyOp56
 70
     1
102
RTVSPropertyOp57
 70
     1
102
RTVSPropertyOp58
 70
     1
102
RTVSPropertyOp59
 70
     1
102
RTVSPropertyOp60
 70
     1
102
RTVSPropertyOp61
 70
     1
102
RTVSPropertyOp62
 70
     1
  0
XRECORD
  5
5067
102
{ACAD_REACTORS
330
5066
102
}
330
5066
100
AcDbXrecord
280
     1
102
RTVSPost2010Prop28
280
     0
102
RTVSPost2010PropOp28
 70
     1
102
RTVSPost2010Prop29
280
     1
102
RTVSPost2010PropOp29
 70
     1
102
RTVSPost2010Prop30
280
     1
102
RTVSPost2010PropOp30
 70
     1
102
RTVSPost2010Prop31
280
     0
102
RTVSPost2010PropOp31
 70
     1
102
RTVSPost2010Prop32
280
     0
102
RTVSPost2010PropOp32
 70
     1
102
RTVSPost2010Prop33
280
     0
102
RTVSPost2010PropOp33
 70
     1
102
RTVSPost2010Prop34
280
     0
102
RTVSPost2010PropOp34
 70
     1
102
RTVSPost2010Prop35
280
     0
102
RTVSPost2010PropOp35
 70
     1
102
RTVSPost2010Prop36
280
     0
102
RTVSPost2010PropOp36
 70
     1
102
RTVSPost2010Prop37
 90
       50
102
RTVSPost2010PropOp37
 70
     1
102
RTVSPost2010Prop38
140
0.0
102
RTVSPost2010PropOp38
 70
     1
102
RTVSPost2010Prop39
140
1.0
102
RTVSPost2010PropOp39
 70
     1
102
RTVSPost2010Prop40
 90
        0
102
RTVSPost2010PropOp40
 70
     1
102
RTVSPost2010Prop41ColorIndex
 90
       18
102
RTVSPost2010Prop41ColorRGB
 90
        0
102
RTVSPost2010PropOp41
 70
     1
102
RTVSPost2010Prop42
 90
       50
102
RTVSPost2010PropOp42
 70
     1
102
RTVSPost2010Prop43
 90
        3
102
RTVSPost2010PropOp43
 70
     1
102
RTVSPost2010Prop44ColorIndex
 90
        5
102
RTVSPost2010Prop44ColorRGB
 90
      255
102
RTVSPost2010PropOp44
 70
     1
102
RTVSPost2010Prop45
280
     0
102
RTVSPost2010PropOp45
 70
     1
102
RTVSPost2010Prop46
 90
       50
102
RTVSPost2010PropOp46
 70
     1
102
RTVSPost2010Prop47
 90
       50
102
RTVSPost2010PropOp47
 70
     1
102
RTVSPost2010Prop48
 90
       50
102
RTVSPost2010PropOp48
 70
     1
102
RTVSPost2010Prop49
280
     0
102
RTVSPost2010PropOp49
 70
     1
102
RTVSPost2010Prop50
 90
       50
102
RTVSPost2010PropOp50
 70
     1
102
RTVSPost2010Prop51ColorIndex
 90
      256
102
RTVSPost2010Prop51ColorRGB
 90
-16777216
102
RTVSPost2010PropOp51
 70
     0
102
RTVSPost2010Prop52
140
1.0
102
RTVSPost2010PropOp52
 70
     0
102
RTVSPost2010Prop53
 90
        2
102
RTVSPost2010PropOp53
 70
     1
102
RTVSPost2010Prop54
  1
strokes_ogs.tif
102
RTVSPost2010PropOp54
 70
     1
102
RTVSPost2010Prop55
280
     0
102
RTVSPost2010PropOp55
 70
     1
102
RTVSPost2010Prop56
140
1.0
102
RTVSPost2010PropOp56
 70
     1
102
RTVSPost2010Prop57
140
1.0
102
RTVSPost2010PropOp57
 70
     1
102
RTVSPropertyOp0
 70
     1
102
RTVSPropertyOp1
 70
     1
102
RTVSPropertyOp2
 70
     1
102
RTVSPropertyOp3
 70
     1
102
RTVSPropertyOp4
 70
     1
102
RTVSPropertyOp5
 70
     1
102
RTVSPropertyOp6
 70
     1
102
RTVSPropertyOp7
 70
     1
102
RTVSPropertyOp8
 70
     1
102
RTVSPropertyOp9
 70
     1
102
RTVSPropertyOp10
 70
     1
102
RTVSPropertyOp11
 70
     1
102
RTVSPropertyOp12
 70
     1
102
RTVSPropertyOp13
 70
     1
102
RTVSPropertyOp14
 70
     1
102
RTVSPropertyOp15
 70
     1
102
RTVSPropertyOp16
 70
     1
102
RTVSPropertyOp17
 70
     1
102
RTVSPropertyOp18
 70
     1
102
RTVSPropertyOp19
 70
     1
102
RTVSPropertyOp20
 70
     1
102
RTVSPropertyOp21
 70
     1
102
RTVSPropertyOp22
 70
     1
102
RTVSPropertyOp23
 70
     1
102
RTVSPropertyOp24
 70
     1
102
RTVSPropertyOp25
 70
     1
102
RTVSPropertyOp26
 70
     1
102
RTVSPropertyOp27
 70
     1
102
RTVSPropertyOp28
 70
     1
102
RTVSPropertyOp29
 70
     1
102
RTVSPropertyOp30
 70
     1
102
RTVSPropertyOp31
 70
     1
102
RTVSPropertyOp32
 70
     1
102
RTVSPropertyOp33
 70
     1
102
RTVSPropertyOp34
 70
     1
102
RTVSPropertyOp35
 70
     1
102
RTVSPropertyOp36
 70
     1
102
RTVSPropertyOp37
 70
     1
102
RTVSPropertyOp38
 70
     1
102
RTVSPropertyOp39
 70
     1
102
RTVSPropertyOp40
 70
     1
102
RTVSPropertyOp41
 70
     1
102
RTVSPropertyOp42
 70
     1
102
RTVSPropertyOp43
 70
     1
102
RTVSPropertyOp44
 70
     1
102
RTVSPropertyOp45
 70
     1
102
RTVSPropertyOp46
 70
     1
102
RTVSPropertyOp47
 70
     1
102
RTVSPropertyOp48
 70
     1
102
RTVSPropertyOp49
 70
     1
102
RTVSPropertyOp50
 70
     1
102
RTVSPropertyOp51
 70
     0
102
RTVSPropertyOp52
 70
     0
102
RTVSPropertyOp53
 70
     1
102
RTVSPropertyOp54
 70
     1
102
RTVSPropertyOp55
 70
     1
102
RTVSPropertyOp56
 70
     1
102
RTVSPropertyOp57
 70
     1
102
RTVSPropertyOp58
 70
     1
102
RTVSPropertyOp59
 70
     1
102
RTVSPropertyOp60
 70
     1
102
RTVSPropertyOp61
 70
     1
102
RTVSPropertyOp62
 70
     1
  0
XRECORD
  5
506F
102
{ACAD_REACTORS
330
506E
102
}
330
506E
100
AcDbXrecord
280
     1
102
RTVSPost2010Prop28
280
     0
102
RTVSPost2010PropOp28
 70
     1
102
RTVSPost2010Prop29
280
     1
102
RTVSPost2010PropOp29
 70
     1
102
RTVSPost2010Prop30
280
     1
102
RTVSPost2010PropOp30
 70
     1
102
RTVSPost2010Prop31
280
     0
102
RTVSPost2010PropOp31
 70
     1
102
RTVSPost2010Prop32
280
     0
102
RTVSPost2010PropOp32
 70
     1
102
RTVSPost2010Prop33
280
     0
102
RTVSPost2010PropOp33
 70
     1
102
RTVSPost2010Prop34
280
     0
102
RTVSPost2010PropOp34
 70
     1
102
RTVSPost2010Prop35
280
     0
102
RTVSPost2010PropOp35
 70
     1
102
RTVSPost2010Prop36
280
     0
102
RTVSPost2010PropOp36
 70
     1
102
RTVSPost2010Prop37
 90
       50
102
RTVSPost2010PropOp37
 70
     1
102
RTVSPost2010Prop38
140
0.0
102
RTVSPost2010PropOp38
 70
     1
102
RTVSPost2010Prop39
140
1.0
102
RTVSPost2010PropOp39
 70
     1
102
RTVSPost2010Prop40
 90
        0
102
RTVSPost2010PropOp40
 70
     1
102
RTVSPost2010Prop41ColorIndex
 90
       18
102
RTVSPost2010Prop41ColorRGB
 90
        0
102
RTVSPost2010PropOp41
 70
     1
102
RTVSPost2010Prop42
 90
       50
102
RTVSPost2010PropOp42
 70
     1
102
RTVSPost2010Prop43
 90
        3
102
RTVSPost2010PropOp43
 70
     1
102
RTVSPost2010Prop44ColorIndex
 90
        5
102
RTVSPost2010Prop44ColorRGB
 90
      255
102
RTVSPost2010PropOp44
 70
     1
102
RTVSPost2010Prop45
280
     0
102
RTVSPost2010PropOp45
 70
     1
102
RTVSPost2010Prop46
 90
       50
102
RTVSPost2010PropOp46
 70
     1
102
RTVSPost2010Prop47
 90
       50
102
RTVSPost2010PropOp47
 70
     1
102
RTVSPost2010Prop48
 90
       50
102
RTVSPost2010PropOp48
 70
     1
102
RTVSPost2010Prop49
280
     0
102
RTVSPost2010PropOp49
 70
     1
102
RTVSPost2010Prop50
 90
       50
102
RTVSPost2010PropOp50
 70
     1
102
RTVSPost2010Prop51ColorIndex
 90
      256
102
RTVSPost2010Prop51ColorRGB
 90
-16777216
102
RTVSPost2010PropOp51
 70
     0
102
RTVSPost2010Prop52
140
1.0
102
RTVSPost2010PropOp52
 70
     0
102
RTVSPost2010Prop53
 90
        2
102
RTVSPost2010PropOp53
 70
     1
102
RTVSPost2010Prop54
  1
strokes_ogs.tif
102
RTVSPost2010PropOp54
 70
     1
102
RTVSPost2010Prop55
280
     0
102
RTVSPost2010PropOp55
 70
     1
102
RTVSPost2010Prop56
140
1.0
102
RTVSPost2010PropOp56
 70
     1
102
RTVSPost2010Prop57
140
1.0
102
RTVSPost2010PropOp57
 70
     1
102
RTVSPropertyOp0
 70
     1
102
RTVSPropertyOp1
 70
     1
102
RTVSPropertyOp2
 70
     1
102
RTVSPropertyOp3
 70
     1
102
RTVSPropertyOp4
 70
     1
102
RTVSPropertyOp5
 70
     1
102
RTVSPropertyOp6
 70
     1
102
RTVSPropertyOp7
 70
     1
102
RTVSPropertyOp8
 70
     1
102
RTVSPropertyOp9
 70
     1
102
RTVSPropertyOp10
 70
     1
102
RTVSPropertyOp11
 70
     1
102
RTVSPropertyOp12
 70
     1
102
RTVSPropertyOp13
 70
     1
102
RTVSPropertyOp14
 70
     1
102
RTVSPropertyOp15
 70
     1
102
RTVSPropertyOp16
 70
     1
102
RTVSPropertyOp17
 70
     1
102
RTVSPropertyOp18
 70
     1
102
RTVSPropertyOp19
 70
     1
102
RTVSPropertyOp20
 70
     1
102
RTVSPropertyOp21
 70
     1
102
RTVSPropertyOp22
 70
     1
102
RTVSPropertyOp23
 70
     1
102
RTVSPropertyOp24
 70
     1
102
RTVSPropertyOp25
 70
     1
102
RTVSPropertyOp26
 70
     1
102
RTVSPropertyOp27
 70
     1
102
RTVSPropertyOp28
 70
     1
102
RTVSPropertyOp29
 70
     1
102
RTVSPropertyOp30
 70
     1
102
RTVSPropertyOp31
 70
     1
102
RTVSPropertyOp32
 70
     1
102
RTVSPropertyOp33
 70
     1
102
RTVSPropertyOp34
 70
     1
102
RTVSPropertyOp35
 70
     1
102
RTVSPropertyOp36
 70
     1
102
RTVSPropertyOp37
 70
     1
102
RTVSPropertyOp38
 70
     1
102
RTVSPropertyOp39
 70
     1
102
RTVSPropertyOp40
 70
     1
102
RTVSPropertyOp41
 70
     1
102
RTVSPropertyOp42
 70
     1
102
RTVSPropertyOp43
 70
     1
102
RTVSPropertyOp44
 70
     1
102
RTVSPropertyOp45
 70
     1
102
RTVSPropertyOp46
 70
     1
102
RTVSPropertyOp47
 70
     1
102
RTVSPropertyOp48
 70
     1
102
RTVSPropertyOp49
 70
     1
102
RTVSPropertyOp50
 70
     1
102
RTVSPropertyOp51
 70
     0
102
RTVSPropertyOp52
 70
     0
102
RTVSPropertyOp53
 70
     1
102
RTVSPropertyOp54
 70
     1
102
RTVSPropertyOp55
 70
     1
102
RTVSPropertyOp56
 70
     1
102
RTVSPropertyOp57
 70
     1
102
RTVSPropertyOp58
 70
     1
102
RTVSPropertyOp59
 70
     1
102
RTVSPropertyOp60
 70
     1
102
RTVSPropertyOp61
 70
     1
102
RTVSPropertyOp62
 70
     1
  0
XRECORD
  5
508B
102
{ACAD_REACTORS
330
508A
102
}
330
508A
100
AcDbXrecord
280
     1
102
RTVSPost2010Prop28
280
     0
102
RTVSPost2010PropOp28
 70
     1
102
RTVSPost2010Prop29
280
     1
102
RTVSPost2010PropOp29
 70
     1
102
RTVSPost2010Prop30
280
     1
102
RTVSPost2010PropOp30
 70
     1
102
RTVSPost2010Prop31
280
     0
102
RTVSPost2010PropOp31
 70
     1
102
RTVSPost2010Prop32
280
     0
102
RTVSPost2010PropOp32
 70
     1
102
RTVSPost2010Prop33
280
     0
102
RTVSPost2010PropOp33
 70
     1
102
RTVSPost2010Prop34
280
     0
102
RTVSPost2010PropOp34
 70
     1
102
RTVSPost2010Prop35
280
     0
102
RTVSPost2010PropOp35
 70
     1
102
RTVSPost2010Prop36
280
     0
102
RTVSPost2010PropOp36
 70
     1
102
RTVSPost2010Prop37
 90
       50
102
RTVSPost2010PropOp37
 70
     0
102
RTVSPost2010Prop38
140
0.0
102
RTVSPost2010PropOp38
 70
     0
102
RTVSPost2010Prop39
140
1.0
102
RTVSPost2010PropOp39
 70
     0
102
RTVSPost2010Prop40
 90
        0
102
RTVSPost2010PropOp40
 70
     0
102
RTVSPost2010Prop41ColorIndex
 90
       18
102
RTVSPost2010Prop41ColorRGB
 90
        0
102
RTVSPost2010PropOp41
 70
     0
102
RTVSPost2010Prop42
 90
       50
102
RTVSPost2010PropOp42
 70
     0
102
RTVSPost2010Prop43
 90
        3
102
RTVSPost2010PropOp43
 70
     0
102
RTVSPost2010Prop44ColorIndex
 90
        5
102
RTVSPost2010Prop44ColorRGB
 90
      255
102
RTVSPost2010PropOp44
 70
     0
102
RTVSPost2010Prop45
280
     0
102
RTVSPost2010PropOp45
 70
     1
102
RTVSPost2010Prop46
 90
       50
102
RTVSPost2010PropOp46
 70
     0
102
RTVSPost2010Prop47
 90
       50
102
RTVSPost2010PropOp47
 70
     0
102
RTVSPost2010Prop48
 90
       50
102
RTVSPost2010PropOp48
 70
     0
102
RTVSPost2010Prop49
280
     0
102
RTVSPost2010PropOp49
 70
     1
102
RTVSPost2010Prop50
 90
       50
102
RTVSPost2010PropOp50
 70
     0
102
RTVSPost2010Prop51ColorIndex
 90
      256
102
RTVSPost2010Prop51ColorRGB
 90
-16777216
102
RTVSPost2010PropOp51
 70
     0
102
RTVSPost2010Prop52
140
1.0
102
RTVSPost2010PropOp52
 70
     0
102
RTVSPost2010Prop53
 90
        2
102
RTVSPost2010PropOp53
 70
     0
102
RTVSPost2010Prop54
  1
strokes_ogs.tif
102
RTVSPost2010PropOp54
 70
     0
102
RTVSPost2010Prop55
280
     0
102
RTVSPost2010PropOp55
 70
     1
102
RTVSPost2010Prop56
140
1.0
102
RTVSPost2010PropOp56
 70
     0
102
RTVSPost2010Prop57
140
1.0
102
RTVSPost2010PropOp57
 70
     0
102
RTVSPropertyOp0
 70
     0
102
RTVSPropertyOp1
 70
     0
102
RTVSPropertyOp2
 70
     0
102
RTVSPropertyOp3
 70
     0
102
RTVSPropertyOp4
 70
     0
102
RTVSPropertyOp5
 70
     0
102
RTVSPropertyOp6
 70
     0
102
RTVSPropertyOp7
 70
     0
102
RTVSPropertyOp8
 70
     0
102
RTVSPropertyOp9
 70
     0
102
RTVSPropertyOp10
 70
     0
102
RTVSPropertyOp11
 70
     0
102
RTVSPropertyOp12
 70
     0
102
RTVSPropertyOp13
 70
     0
102
RTVSPropertyOp14
 70
     2
102
RTVSPropertyOp15
 70
     0
102
RTVSPropertyOp16
 70
     0
102
RTVSPropertyOp17
 70
     0
102
RTVSPropertyOp18
 70
     0
102
RTVSPropertyOp19
 70
     0
102
RTVSPropertyOp20
 70
     0
102
RTVSPropertyOp21
 70
     0
102
RTVSPropertyOp22
 70
     0
102
RTVSPropertyOp23
 70
     0
102
RTVSPropertyOp24
 70
     0
102
RTVSPropertyOp25
 70
     0
102
RTVSPropertyOp26
 70
     0
102
RTVSPropertyOp27
 70
     0
102
RTVSPropertyOp28
 70
     1
102
RTVSPropertyOp29
 70
     1
102
RTVSPropertyOp30
 70
     1
102
RTVSPropertyOp31
 70
     1
102
RTVSPropertyOp32
 70
     1
102
RTVSPropertyOp33
 70
     1
102
RTVSPropertyOp34
 70
     1
102
RTVSPropertyOp35
 70
     1
102
RTVSPropertyOp36
 70
     1
102
RTVSPropertyOp37
 70
     0
102
RTVSPropertyOp38
 70
     0
102
RTVSPropertyOp39
 70
     0
102
RTVSPropertyOp40
 70
     0
102
RTVSPropertyOp41
 70
     0
102
RTVSPropertyOp42
 70
     0
102
RTVSPropertyOp43
 70
     0
102
RTVSPropertyOp44
 70
     0
102
RTVSPropertyOp45
 70
     1
102
RTVSPropertyOp46
 70
     0
102
RTVSPropertyOp47
 70
     0
102
RTVSPropertyOp48
 70
     0
102
RTVSPropertyOp49
 70
     1
102
RTVSPropertyOp50
 70
     0
102
RTVSPropertyOp51
 70
     0
102
RTVSPropertyOp52
 70
     0
102
RTVSPropertyOp53
 70
     0
102
RTVSPropertyOp54
 70
     0
102
RTVSPropertyOp55
 70
     1
102
RTVSPropertyOp56
 70
     0
102
RTVSPropertyOp57
 70
     0
102
RTVSPropertyOp58
 70
     0
102
RTVSPropertyOp59
 70
     0
102
RTVSPropertyOp60
 70
     0
102
RTVSPropertyOp61
 70
     0
102
RTVSPropertyOp62
 70
     0
  0
XRECORD
  5
507B
102
{ACAD_REACTORS
330
507A
102
}
330
507A
100
AcDbXrecord
280
     1
102
RTVSPost2010Prop28
280
     0
102
RTVSPost2010PropOp28
 70
     1
102
RTVSPost2010Prop29
280
     1
102
RTVSPost2010PropOp29
 70
     1
102
RTVSPost2010Prop30
280
     1
102
RTVSPost2010PropOp30
 70
     1
102
RTVSPost2010Prop31
280
     0
102
RTVSPost2010PropOp31
 70
     1
102
RTVSPost2010Prop32
280
     0
102
RTVSPost2010PropOp32
 70
     1
102
RTVSPost2010Prop33
280
     0
102
RTVSPost2010PropOp33
 70
     1
102
RTVSPost2010Prop34
280
     0
102
RTVSPost2010PropOp34
 70
     1
102
RTVSPost2010Prop35
280
     0
102
RTVSPost2010PropOp35
 70
     1
102
RTVSPost2010Prop36
280
     0
102
RTVSPost2010PropOp36
 70
     1
102
RTVSPost2010Prop37
 90
       50
102
RTVSPost2010PropOp37
 70
     1
102
RTVSPost2010Prop38
140
0.0
102
RTVSPost2010PropOp38
 70
     1
102
RTVSPost2010Prop39
140
1.0
102
RTVSPost2010PropOp39
 70
     1
102
RTVSPost2010Prop40
 90
        0
102
RTVSPost2010PropOp40
 70
     1
102
RTVSPost2010Prop41ColorIndex
 90
       18
102
RTVSPost2010Prop41ColorRGB
 90
        0
102
RTVSPost2010PropOp41
 70
     1
102
RTVSPost2010Prop42
 90
       50
102
RTVSPost2010PropOp42
 70
     1
102
RTVSPost2010Prop43
 90
        3
102
RTVSPost2010PropOp43
 70
     1
102
RTVSPost2010Prop44ColorIndex
 90
        5
102
RTVSPost2010Prop44ColorRGB
 90
      255
102
RTVSPost2010PropOp44
 70
     1
102
RTVSPost2010Prop45
280
     0
102
RTVSPost2010PropOp45
 70
     1
102
RTVSPost2010Prop46
 90
       50
102
RTVSPost2010PropOp46
 70
     1
102
RTVSPost2010Prop47
 90
       50
102
RTVSPost2010PropOp47
 70
     1
102
RTVSPost2010Prop48
 90
       50
102
RTVSPost2010PropOp48
 70
     1
102
RTVSPost2010Prop49
280
     0
102
RTVSPost2010PropOp49
 70
     1
102
RTVSPost2010Prop50
 90
       50
102
RTVSPost2010PropOp50
 70
     1
102
RTVSPost2010Prop51ColorIndex
 90
      256
102
RTVSPost2010Prop51ColorRGB
 90
-16777216
102
RTVSPost2010PropOp51
 70
     0
102
RTVSPost2010Prop52
140
1.0
102
RTVSPost2010PropOp52
 70
     0
102
RTVSPost2010Prop53
 90
        2
102
RTVSPost2010PropOp53
 70
     1
102
RTVSPost2010Prop54
  1
strokes_ogs.tif
102
RTVSPost2010PropOp54
 70
     1
102
RTVSPost2010Prop55
280
     0
102
RTVSPost2010PropOp55
 70
     1
102
RTVSPost2010Prop56
140
1.0
102
RTVSPost2010PropOp56
 70
     1
102
RTVSPost2010Prop57
140
1.0
102
RTVSPost2010PropOp57
 70
     1
102
RTVSPropertyOp0
 70
     1
102
RTVSPropertyOp1
 70
     1
102
RTVSPropertyOp2
 70
     1
102
RTVSPropertyOp3
 70
     1
102
RTVSPropertyOp4
 70
     1
102
RTVSPropertyOp5
 70
     1
102
RTVSPropertyOp6
 70
     1
102
RTVSPropertyOp7
 70
     1
102
RTVSPropertyOp8
 70
     1
102
RTVSPropertyOp9
 70
     1
102
RTVSPropertyOp10
 70
     1
102
RTVSPropertyOp11
 70
     1
102
RTVSPropertyOp12
 70
     1
102
RTVSPropertyOp13
 70
     1
102
RTVSPropertyOp14
 70
     1
102
RTVSPropertyOp15
 70
     1
102
RTVSPropertyOp16
 70
     1
102
RTVSPropertyOp17
 70
     1
102
RTVSPropertyOp18
 70
     1
102
RTVSPropertyOp19
 70
     1
102
RTVSPropertyOp20
 70
     1
102
RTVSPropertyOp21
 70
     1
102
RTVSPropertyOp22
 70
     1
102
RTVSPropertyOp23
 70
     1
102
RTVSPropertyOp24
 70
     1
102
RTVSPropertyOp25
 70
     1
102
RTVSPropertyOp26
 70
     1
102
RTVSPropertyOp27
 70
     1
102
RTVSPropertyOp28
 70
     1
102
RTVSPropertyOp29
 70
     1
102
RTVSPropertyOp30
 70
     1
102
RTVSPropertyOp31
 70
     1
102
RTVSPropertyOp32
 70
     1
102
RTVSPropertyOp33
 70
     1
102
RTVSPropertyOp34
 70
     1
102
RTVSPropertyOp35
 70
     1
102
RTVSPropertyOp36
 70
     1
102
RTVSPropertyOp37
 70
     1
102
RTVSPropertyOp38
 70
     1
102
RTVSPropertyOp39
 70
     1
102
RTVSPropertyOp40
 70
     1
102
RTVSPropertyOp41
 70
     1
102
RTVSPropertyOp42
 70
     1
102
RTVSPropertyOp43
 70
     1
102
RTVSPropertyOp44
 70
     1
102
RTVSPropertyOp45
 70
     1
102
RTVSPropertyOp46
 70
     1
102
RTVSPropertyOp47
 70
     1
102
RTVSPropertyOp48
 70
     1
102
RTVSPropertyOp49
 70
     1
102
RTVSPropertyOp50
 70
     1
102
RTVSPropertyOp51
 70
     0
102
RTVSPropertyOp52
 70
     0
102
RTVSPropertyOp53
 70
     1
102
RTVSPropertyOp54
 70
     1
102
RTVSPropertyOp55
 70
     1
102
RTVSPropertyOp56
 70
     1
102
RTVSPropertyOp57
 70
     1
102
RTVSPropertyOp58
 70
     1
102
RTVSPropertyOp59
 70
     1
102
RTVSPropertyOp60
 70
     1
102
RTVSPropertyOp61
 70
     1
102
RTVSPropertyOp62
 70
     1
  0
XRECORD
  5
508D
102
{ACAD_REACTORS
330
508C
102
}
330
508C
100
AcDbXrecord
280
     1
102
RTVSPost2010Prop28
280
     0
102
RTVSPost2010PropOp28
 70
     1
102
RTVSPost2010Prop29
280
     1
102
RTVSPost2010PropOp29
 70
     1
102
RTVSPost2010Prop30
280
     1
102
RTVSPost2010PropOp30
 70
     1
102
RTVSPost2010Prop31
280
     0
102
RTVSPost2010PropOp31
 70
     1
102
RTVSPost2010Prop32
280
     0
102
RTVSPost2010PropOp32
 70
     1
102
RTVSPost2010Prop33
280
     0
102
RTVSPost2010PropOp33
 70
     1
102
RTVSPost2010Prop34
280
     0
102
RTVSPost2010PropOp34
 70
     1
102
RTVSPost2010Prop35
280
     0
102
RTVSPost2010PropOp35
 70
     1
102
RTVSPost2010Prop36
280
     0
102
RTVSPost2010PropOp36
 70
     1
102
RTVSPost2010Prop37
 90
       50
102
RTVSPost2010PropOp37
 70
     0
102
RTVSPost2010Prop38
140
0.0
102
RTVSPost2010PropOp38
 70
     0
102
RTVSPost2010Prop39
140
1.0
102
RTVSPost2010PropOp39
 70
     0
102
RTVSPost2010Prop40
 90
        0
102
RTVSPost2010PropOp40
 70
     0
102
RTVSPost2010Prop41ColorIndex
 90
       18
102
RTVSPost2010Prop41ColorRGB
 90
        0
102
RTVSPost2010PropOp41
 70
     0
102
RTVSPost2010Prop42
 90
       50
102
RTVSPost2010PropOp42
 70
     0
102
RTVSPost2010Prop43
 90
        3
102
RTVSPost2010PropOp43
 70
     0
102
RTVSPost2010Prop44ColorIndex
 90
        5
102
RTVSPost2010Prop44ColorRGB
 90
      255
102
RTVSPost2010PropOp44
 70
     0
102
RTVSPost2010Prop45
280
     0
102
RTVSPost2010PropOp45
 70
     1
102
RTVSPost2010Prop46
 90
       50
102
RTVSPost2010PropOp46
 70
     0
102
RTVSPost2010Prop47
 90
       50
102
RTVSPost2010PropOp47
 70
     0
102
RTVSPost2010Prop48
 90
       50
102
RTVSPost2010PropOp48
 70
     0
102
RTVSPost2010Prop49
280
     0
102
RTVSPost2010PropOp49
 70
     1
102
RTVSPost2010Prop50
 90
       50
102
RTVSPost2010PropOp50
 70
     0
102
RTVSPost2010Prop51ColorIndex
 90
      256
102
RTVSPost2010Prop51ColorRGB
 90
-16777216
102
RTVSPost2010PropOp51
 70
     0
102
RTVSPost2010Prop52
140
1.0
102
RTVSPost2010PropOp52
 70
     0
102
RTVSPost2010Prop53
 90
        2
102
RTVSPost2010PropOp53
 70
     0
102
RTVSPost2010Prop54
  1
strokes_ogs.tif
102
RTVSPost2010PropOp54
 70
     0
102
RTVSPost2010Prop55
280
     0
102
RTVSPost2010PropOp55
 70
     1
102
RTVSPost2010Prop56
140
1.0
102
RTVSPost2010PropOp56
 70
     0
102
RTVSPost2010Prop57
140
1.0
102
RTVSPost2010PropOp57
 70
     0
102
RTVSPropertyOp0
 70
     0
102
RTVSPropertyOp1
 70
     0
102
RTVSPropertyOp2
 70
     0
102
RTVSPropertyOp3
 70
     0
102
RTVSPropertyOp4
 70
     0
102
RTVSPropertyOp5
 70
     0
102
RTVSPropertyOp6
 70
     0
102
RTVSPropertyOp7
 70
     0
102
RTVSPropertyOp8
 70
     0
102
RTVSPropertyOp9
 70
     0
102
RTVSPropertyOp10
 70
     0
102
RTVSPropertyOp11
 70
     0
102
RTVSPropertyOp12
 70
     0
102
RTVSPropertyOp13
 70
     0
102
RTVSPropertyOp14
 70
     2
102
RTVSPropertyOp15
 70
     0
102
RTVSPropertyOp16
 70
     0
102
RTVSPropertyOp17
 70
     0
102
RTVSPropertyOp18
 70
     0
102
RTVSPropertyOp19
 70
     0
102
RTVSPropertyOp20
 70
     0
102
RTVSPropertyOp21
 70
     0
102
RTVSPropertyOp22
 70
     0
102
RTVSPropertyOp23
 70
     0
102
RTVSPropertyOp24
 70
     0
102
RTVSPropertyOp25
 70
     0
102
RTVSPropertyOp26
 70
     0
102
RTVSPropertyOp27
 70
     0
102
RTVSPropertyOp28
 70
     1
102
RTVSPropertyOp29
 70
     1
102
RTVSPropertyOp30
 70
     1
102
RTVSPropertyOp31
 70
     1
102
RTVSPropertyOp32
 70
     1
102
RTVSPropertyOp33
 70
     1
102
RTVSPropertyOp34
 70
     1
102
RTVSPropertyOp35
 70
     1
102
RTVSPropertyOp36
 70
     1
102
RTVSPropertyOp37
 70
     0
102
RTVSPropertyOp38
 70
     0
102
RTVSPropertyOp39
 70
     0
102
RTVSPropertyOp40
 70
     0
102
RTVSPropertyOp41
 70
     0
102
RTVSPropertyOp42
 70
     0
102
RTVSPropertyOp43
 70
     0
102
RTVSPropertyOp44
 70
     0
102
RTVSPropertyOp45
 70
     1
102
RTVSPropertyOp46
 70
     0
102
RTVSPropertyOp47
 70
     0
102
RTVSPropertyOp48
 70
     0
102
RTVSPropertyOp49
 70
     1
102
RTVSPropertyOp50
 70
     0
102
RTVSPropertyOp51
 70
     0
102
RTVSPropertyOp52
 70
     0
102
RTVSPropertyOp53
 70
     0
102
RTVSPropertyOp54
 70
     0
102
RTVSPropertyOp55
 70
     1
102
RTVSPropertyOp56
 70
     0
102
RTVSPropertyOp57
 70
     0
102
RTVSPropertyOp58
 70
     0
102
RTVSPropertyOp59
 70
     0
102
RTVSPropertyOp60
 70
     0
102
RTVSPropertyOp61
 70
     0
102
RTVSPropertyOp62
 70
     0
  0
XRECORD
  5
5073
102
{ACAD_REACTORS
330
5072
102
}
330
5072
100
AcDbXrecord
280
     1
102
RTVSPost2010Prop28
280
     0
102
RTVSPost2010PropOp28
 70
     1
102
RTVSPost2010Prop29
280
     1
102
RTVSPost2010PropOp29
 70
     1
102
RTVSPost2010Prop30
280
     1
102
RTVSPost2010PropOp30
 70
     1
102
RTVSPost2010Prop31
280
     0
102
RTVSPost2010PropOp31
 70
     1
102
RTVSPost2010Prop32
280
     0
102
RTVSPost2010PropOp32
 70
     1
102
RTVSPost2010Prop33
280
     0
102
RTVSPost2010PropOp33
 70
     1
102
RTVSPost2010Prop34
280
     0
102
RTVSPost2010PropOp34
 70
     1
102
RTVSPost2010Prop35
280
     0
102
RTVSPost2010PropOp35
 70
     1
102
RTVSPost2010Prop36
280
     0
102
RTVSPost2010PropOp36
 70
     1
102
RTVSPost2010Prop37
 90
       50
102
RTVSPost2010PropOp37
 70
     1
102
RTVSPost2010Prop38
140
0.0
102
RTVSPost2010PropOp38
 70
     1
102
RTVSPost2010Prop39
140
1.0
102
RTVSPost2010PropOp39
 70
     1
102
RTVSPost2010Prop40
 90
        0
102
RTVSPost2010PropOp40
 70
     1
102
RTVSPost2010Prop41ColorIndex
 90
       18
102
RTVSPost2010Prop41ColorRGB
 90
        0
102
RTVSPost2010PropOp41
 70
     1
102
RTVSPost2010Prop42
 90
       50
102
RTVSPost2010PropOp42
 70
     1
102
RTVSPost2010Prop43
 90
        3
102
RTVSPost2010PropOp43
 70
     1
102
RTVSPost2010Prop44ColorIndex
 90
        5
102
RTVSPost2010Prop44ColorRGB
 90
      255
102
RTVSPost2010PropOp44
 70
     1
102
RTVSPost2010Prop45
280
     0
102
RTVSPost2010PropOp45
 70
     1
102
RTVSPost2010Prop46
 90
       50
102
RTVSPost2010PropOp46
 70
     1
102
RTVSPost2010Prop47
 90
       50
102
RTVSPost2010PropOp47
 70
     1
102
RTVSPost2010Prop48
 90
       50
102
RTVSPost2010PropOp48
 70
     1
102
RTVSPost2010Prop49
280
     0
102
RTVSPost2010PropOp49
 70
     1
102
RTVSPost2010Prop50
 90
       50
102
RTVSPost2010PropOp50
 70
     1
102
RTVSPost2010Prop51ColorIndex
 90
      256
102
RTVSPost2010Prop51ColorRGB
 90
-16777216
102
RTVSPost2010PropOp51
 70
     0
102
RTVSPost2010Prop52
140
1.0
102
RTVSPost2010PropOp52
 70
     0
102
RTVSPost2010Prop53
 90
        2
102
RTVSPost2010PropOp53
 70
     1
102
RTVSPost2010Prop54
  1
strokes_ogs.tif
102
RTVSPost2010PropOp54
 70
     1
102
RTVSPost2010Prop55
280
     0
102
RTVSPost2010PropOp55
 70
     1
102
RTVSPost2010Prop56
140
1.0
102
RTVSPost2010PropOp56
 70
     1
102
RTVSPost2010Prop57
140
1.0
102
RTVSPost2010PropOp57
 70
     1
102
RTVSPropertyOp0
 70
     1
102
RTVSPropertyOp1
 70
     1
102
RTVSPropertyOp2
 70
     1
102
RTVSPropertyOp3
 70
     1
102
RTVSPropertyOp4
 70
     1
102
RTVSPropertyOp5
 70
     1
102
RTVSPropertyOp6
 70
     1
102
RTVSPropertyOp7
 70
     1
102
RTVSPropertyOp8
 70
     1
102
RTVSPropertyOp9
 70
     1
102
RTVSPropertyOp10
 70
     1
102
RTVSPropertyOp11
 70
     1
102
RTVSPropertyOp12
 70
     1
102
RTVSPropertyOp13
 70
     1
102
RTVSPropertyOp14
 70
     1
102
RTVSPropertyOp15
 70
     1
102
RTVSPropertyOp16
 70
     1
102
RTVSPropertyOp17
 70
     1
102
RTVSPropertyOp18
 70
     1
102
RTVSPropertyOp19
 70
     1
102
RTVSPropertyOp20
 70
     1
102
RTVSPropertyOp21
 70
     1
102
RTVSPropertyOp22
 70
     1
102
RTVSPropertyOp23
 70
     1
102
RTVSPropertyOp24
 70
     1
102
RTVSPropertyOp25
 70
     1
102
RTVSPropertyOp26
 70
     1
102
RTVSPropertyOp27
 70
     1
102
RTVSPropertyOp28
 70
     1
102
RTVSPropertyOp29
 70
     1
102
RTVSPropertyOp30
 70
     1
102
RTVSPropertyOp31
 70
     1
102
RTVSPropertyOp32
 70
     1
102
RTVSPropertyOp33
 70
     1
102
RTVSPropertyOp34
 70
     1
102
RTVSPropertyOp35
 70
     1
102
RTVSPropertyOp36
 70
     1
102
RTVSPropertyOp37
 70
     1
102
RTVSPropertyOp38
 70
     1
102
RTVSPropertyOp39
 70
     1
102
RTVSPropertyOp40
 70
     1
102
RTVSPropertyOp41
 70
     1
102
RTVSPropertyOp42
 70
     1
102
RTVSPropertyOp43
 70
     1
102
RTVSPropertyOp44
 70
     1
102
RTVSPropertyOp45
 70
     1
102
RTVSPropertyOp46
 70
     1
102
RTVSPropertyOp47
 70
     1
102
RTVSPropertyOp48
 70
     1
102
RTVSPropertyOp49
 70
     1
102
RTVSPropertyOp50
 70
     1
102
RTVSPropertyOp51
 70
     0
102
RTVSPropertyOp52
 70
     0
102
RTVSPropertyOp53
 70
     1
102
RTVSPropertyOp54
 70
     1
102
RTVSPropertyOp55
 70
     1
102
RTVSPropertyOp56
 70
     1
102
RTVSPropertyOp57
 70
     1
102
RTVSPropertyOp58
 70
     1
102
RTVSPropertyOp59
 70
     1
102
RTVSPropertyOp60
 70
     1
102
RTVSPropertyOp61
 70
     1
102
RTVSPropertyOp62
 70
     1
  0
XRECORD
  5
5089
102
{ACAD_REACTORS
330
5088
102
}
330
5088
100
AcDbXrecord
280
     1
102
RTVSPost2010Prop28
280
     0
102
RTVSPost2010PropOp28
 70
     1
102
RTVSPost2010Prop29
280
     1
102
RTVSPost2010PropOp29
 70
     1
102
RTVSPost2010Prop30
280
     1
102
RTVSPost2010PropOp30
 70
     1
102
RTVSPost2010Prop31
280
     0
102
RTVSPost2010PropOp31
 70
     1
102
RTVSPost2010Prop32
280
     0
102
RTVSPost2010PropOp32
 70
     1
102
RTVSPost2010Prop33
280
     0
102
RTVSPost2010PropOp33
 70
     1
102
RTVSPost2010Prop34
280
     0
102
RTVSPost2010PropOp34
 70
     1
102
RTVSPost2010Prop35
280
     0
102
RTVSPost2010PropOp35
 70
     1
102
RTVSPost2010Prop36
280
     0
102
RTVSPost2010PropOp36
 70
     1
102
RTVSPost2010Prop37
 90
       50
102
RTVSPost2010PropOp37
 70
     1
102
RTVSPost2010Prop38
140
0.0
102
RTVSPost2010PropOp38
 70
     1
102
RTVSPost2010Prop39
140
1.0
102
RTVSPost2010PropOp39
 70
     1
102
RTVSPost2010Prop40
 90
        0
102
RTVSPost2010PropOp40
 70
     1
102
RTVSPost2010Prop41ColorIndex
 90
       18
102
RTVSPost2010Prop41ColorRGB
 90
        0
102
RTVSPost2010PropOp41
 70
     1
102
RTVSPost2010Prop42
 90
       50
102
RTVSPost2010PropOp42
 70
     1
102
RTVSPost2010Prop43
 90
        3
102
RTVSPost2010PropOp43
 70
     1
102
RTVSPost2010Prop44ColorIndex
 90
        5
102
RTVSPost2010Prop44ColorRGB
 90
      255
102
RTVSPost2010PropOp44
 70
     1
102
RTVSPost2010Prop45
280
     0
102
RTVSPost2010PropOp45
 70
     1
102
RTVSPost2010Prop46
 90
       50
102
RTVSPost2010PropOp46
 70
     1
102
RTVSPost2010Prop47
 90
       50
102
RTVSPost2010PropOp47
 70
     1
102
RTVSPost2010Prop48
 90
       50
102
RTVSPost2010PropOp48
 70
     1
102
RTVSPost2010Prop49
280
     0
102
RTVSPost2010PropOp49
 70
     1
102
RTVSPost2010Prop50
 90
       50
102
RTVSPost2010PropOp50
 70
     1
102
RTVSPost2010Prop51ColorIndex
 90
      256
102
RTVSPost2010Prop51ColorRGB
 90
-16777216
102
RTVSPost2010PropOp51
 70
     0
102
RTVSPost2010Prop52
140
1.0
102
RTVSPost2010PropOp52
 70
     0
102
RTVSPost2010Prop53
 90
        2
102
RTVSPost2010PropOp53
 70
     1
102
RTVSPost2010Prop54
  1
strokes_ogs.tif
102
RTVSPost2010PropOp54
 70
     1
102
RTVSPost2010Prop55
280
     0
102
RTVSPost2010PropOp55
 70
     1
102
RTVSPost2010Prop56
140
1.0
102
RTVSPost2010PropOp56
 70
     1
102
RTVSPost2010Prop57
140
1.0
102
RTVSPost2010PropOp57
 70
     1
102
RTVSPropertyOp0
 70
     1
102
RTVSPropertyOp1
 70
     1
102
RTVSPropertyOp2
 70
     1
102
RTVSPropertyOp3
 70
     1
102
RTVSPropertyOp4
 70
     1
102
RTVSPropertyOp5
 70
     1
102
RTVSPropertyOp6
 70
     1
102
RTVSPropertyOp7
 70
     1
102
RTVSPropertyOp8
 70
     1
102
RTVSPropertyOp9
 70
     1
102
RTVSPropertyOp10
 70
     1
102
RTVSPropertyOp11
 70
     1
102
RTVSPropertyOp12
 70
     1
102
RTVSPropertyOp13
 70
     1
102
RTVSPropertyOp14
 70
     1
102
RTVSPropertyOp15
 70
     1
102
RTVSPropertyOp16
 70
     1
102
RTVSPropertyOp17
 70
     1
102
RTVSPropertyOp18
 70
     1
102
RTVSPropertyOp19
 70
     1
102
RTVSPropertyOp20
 70
     1
102
RTVSPropertyOp21
 70
     1
102
RTVSPropertyOp22
 70
     1
102
RTVSPropertyOp23
 70
     1
102
RTVSPropertyOp24
 70
     1
102
RTVSPropertyOp25
 70
     1
102
RTVSPropertyOp26
 70
     1
102
RTVSPropertyOp27
 70
     1
102
RTVSPropertyOp28
 70
     1
102
RTVSPropertyOp29
 70
     1
102
RTVSPropertyOp30
 70
     1
102
RTVSPropertyOp31
 70
     1
102
RTVSPropertyOp32
 70
     1
102
RTVSPropertyOp33
 70
     1
102
RTVSPropertyOp34
 70
     1
102
RTVSPropertyOp35
 70
     1
102
RTVSPropertyOp36
 70
     1
102
RTVSPropertyOp37
 70
     1
102
RTVSPropertyOp38
 70
     1
102
RTVSPropertyOp39
 70
     1
102
RTVSPropertyOp40
 70
     1
102
RTVSPropertyOp41
 70
     1
102
RTVSPropertyOp42
 70
     1
102
RTVSPropertyOp43
 70
     1
102
RTVSPropertyOp44
 70
     1
102
RTVSPropertyOp45
 70
     1
102
RTVSPropertyOp46
 70
     1
102
RTVSPropertyOp47
 70
     1
102
RTVSPropertyOp48
 70
     1
102
RTVSPropertyOp49
 70
     1
102
RTVSPropertyOp50
 70
     1
102
RTVSPropertyOp51
 70
     0
102
RTVSPropertyOp52
 70
     0
102
RTVSPropertyOp53
 70
     1
102
RTVSPropertyOp54
 70
     1
102
RTVSPropertyOp55
 70
     1
102
RTVSPropertyOp56
 70
     1
102
RTVSPropertyOp57
 70
     1
102
RTVSPropertyOp58
 70
     1
102
RTVSPropertyOp59
 70
     1
102
RTVSPropertyOp60
 70
     1
102
RTVSPropertyOp61
 70
     1
102
RTVSPropertyOp62
 70
     1
  0
XRECORD
  5
5087
102
{ACAD_REACTORS
330
5086
102
}
330
5086
100
AcDbXrecord
280
     1
102
RTVSPost2010Prop28
280
     0
102
RTVSPost2010PropOp28
 70
     1
102
RTVSPost2010Prop29
280
     1
102
RTVSPost2010PropOp29
 70
     1
102
RTVSPost2010Prop30
280
     1
102
RTVSPost2010PropOp30
 70
     1
102
RTVSPost2010Prop31
280
     0
102
RTVSPost2010PropOp31
 70
     1
102
RTVSPost2010Prop32
280
     0
102
RTVSPost2010PropOp32
 70
     1
102
RTVSPost2010Prop33
280
     0
102
RTVSPost2010PropOp33
 70
     1
102
RTVSPost2010Prop34
280
     0
102
RTVSPost2010PropOp34
 70
     1
102
RTVSPost2010Prop35
280
     0
102
RTVSPost2010PropOp35
 70
     1
102
RTVSPost2010Prop36
280
     0
102
RTVSPost2010PropOp36
 70
     1
102
RTVSPost2010Prop37
 90
       50
102
RTVSPost2010PropOp37
 70
     1
102
RTVSPost2010Prop38
140
0.0
102
RTVSPost2010PropOp38
 70
     1
102
RTVSPost2010Prop39
140
1.0
102
RTVSPost2010PropOp39
 70
     1
102
RTVSPost2010Prop40
 90
        0
102
RTVSPost2010PropOp40
 70
     1
102
RTVSPost2010Prop41ColorIndex
 90
       18
102
RTVSPost2010Prop41ColorRGB
 90
        0
102
RTVSPost2010PropOp41
 70
     1
102
RTVSPost2010Prop42
 90
       50
102
RTVSPost2010PropOp42
 70
     1
102
RTVSPost2010Prop43
 90
        3
102
RTVSPost2010PropOp43
 70
     1
102
RTVSPost2010Prop44ColorIndex
 90
        5
102
RTVSPost2010Prop44ColorRGB
 90
      255
102
RTVSPost2010PropOp44
 70
     1
102
RTVSPost2010Prop45
280
     0
102
RTVSPost2010PropOp45
 70
     1
102
RTVSPost2010Prop46
 90
       50
102
RTVSPost2010PropOp46
 70
     1
102
RTVSPost2010Prop47
 90
       50
102
RTVSPost2010PropOp47
 70
     1
102
RTVSPost2010Prop48
 90
       50
102
RTVSPost2010PropOp48
 70
     1
102
RTVSPost2010Prop49
280
     0
102
RTVSPost2010PropOp49
 70
     1
102
RTVSPost2010Prop50
 90
       50
102
RTVSPost2010PropOp50
 70
     1
102
RTVSPost2010Prop51ColorIndex
 90
      256
102
RTVSPost2010Prop51ColorRGB
 90
-16777216
102
RTVSPost2010PropOp51
 70
     0
102
RTVSPost2010Prop52
140
1.0
102
RTVSPost2010PropOp52
 70
     0
102
RTVSPost2010Prop53
 90
        2
102
RTVSPost2010PropOp53
 70
     1
102
RTVSPost2010Prop54
  1
strokes_ogs.tif
102
RTVSPost2010PropOp54
 70
     1
102
RTVSPost2010Prop55
280
     0
102
RTVSPost2010PropOp55
 70
     1
102
RTVSPost2010Prop56
140
1.0
102
RTVSPost2010PropOp56
 70
     1
102
RTVSPost2010Prop57
140
1.0
102
RTVSPost2010PropOp57
 70
     1
102
RTVSPropertyOp0
 70
     1
102
RTVSPropertyOp1
 70
     1
102
RTVSPropertyOp2
 70
     1
102
RTVSPropertyOp3
 70
     1
102
RTVSPropertyOp4
 70
     1
102
RTVSPropertyOp5
 70
     1
102
RTVSPropertyOp6
 70
     1
102
RTVSPropertyOp7
 70
     1
102
RTVSPropertyOp8
 70
     1
102
RTVSPropertyOp9
 70
     1
102
RTVSPropertyOp10
 70
     1
102
RTVSPropertyOp11
 70
     1
102
RTVSPropertyOp12
 70
     1
102
RTVSPropertyOp13
 70
     1
102
RTVSPropertyOp14
 70
     1
102
RTVSPropertyOp15
 70
     1
102
RTVSPropertyOp16
 70
     1
102
RTVSPropertyOp17
 70
     1
102
RTVSPropertyOp18
 70
     1
102
RTVSPropertyOp19
 70
     1
102
RTVSPropertyOp20
 70
     1
102
RTVSPropertyOp21
 70
     1
102
RTVSPropertyOp22
 70
     1
102
RTVSPropertyOp23
 70
     1
102
RTVSPropertyOp24
 70
     1
102
RTVSPropertyOp25
 70
     1
102
RTVSPropertyOp26
 70
     1
102
RTVSPropertyOp27
 70
     1
102
RTVSPropertyOp28
 70
     1
102
RTVSPropertyOp29
 70
     1
102
RTVSPropertyOp30
 70
     1
102
RTVSPropertyOp31
 70
     1
102
RTVSPropertyOp32
 70
     1
102
RTVSPropertyOp33
 70
     1
102
RTVSPropertyOp34
 70
     1
102
RTVSPropertyOp35
 70
     1
102
RTVSPropertyOp36
 70
     1
102
RTVSPropertyOp37
 70
     1
102
RTVSPropertyOp38
 70
     1
102
RTVSPropertyOp39
 70
     1
102
RTVSPropertyOp40
 70
     1
102
RTVSPropertyOp41
 70
     1
102
RTVSPropertyOp42
 70
     1
102
RTVSPropertyOp43
 70
     1
102
RTVSPropertyOp44
 70
     1
102
RTVSPropertyOp45
 70
     1
102
RTVSPropertyOp46
 70
     1
102
RTVSPropertyOp47
 70
     1
102
RTVSPropertyOp48
 70
     1
102
RTVSPropertyOp49
 70
     1
102
RTVSPropertyOp50
 70
     1
102
RTVSPropertyOp51
 70
     0
102
RTVSPropertyOp52
 70
     0
102
RTVSPropertyOp53
 70
     1
102
RTVSPropertyOp54
 70
     1
102
RTVSPropertyOp55
 70
     1
102
RTVSPropertyOp56
 70
     1
102
RTVSPropertyOp57
 70
     1
102
RTVSPropertyOp58
 70
     1
102
RTVSPropertyOp59
 70
     1
102
RTVSPropertyOp60
 70
     1
102
RTVSPropertyOp61
 70
     1
102
RTVSPropertyOp62
 70
     1
  0
XRECORD
  5
5081
102
{ACAD_REACTORS
330
5080
102
}
330
5080
100
AcDbXrecord
280
     1
102
RTVSPost2010Prop28
280
     0
102
RTVSPost2010PropOp28
 70
     1
102
RTVSPost2010Prop29
280
     1
102
RTVSPost2010PropOp29
 70
     1
102
RTVSPost2010Prop30
280
     1
102
RTVSPost2010PropOp30
 70
     1
102
RTVSPost2010Prop31
280
     0
102
RTVSPost2010PropOp31
 70
     1
102
RTVSPost2010Prop32
280
     0
102
RTVSPost2010PropOp32
 70
     1
102
RTVSPost2010Prop33
280
     0
102
RTVSPost2010PropOp33
 70
     1
102
RTVSPost2010Prop34
280
     0
102
RTVSPost2010PropOp34
 70
     1
102
RTVSPost2010Prop35
280
     0
102
RTVSPost2010PropOp35
 70
     1
102
RTVSPost2010Prop36
280
     0
102
RTVSPost2010PropOp36
 70
     1
102
RTVSPost2010Prop37
 90
       50
102
RTVSPost2010PropOp37
 70
     1
102
RTVSPost2010Prop38
140
0.0
102
RTVSPost2010PropOp38
 70
     1
102
RTVSPost2010Prop39
140
1.0
102
RTVSPost2010PropOp39
 70
     1
102
RTVSPost2010Prop40
 90
        0
102
RTVSPost2010PropOp40
 70
     1
102
RTVSPost2010Prop41ColorIndex
 90
       18
102
RTVSPost2010Prop41ColorRGB
 90
        0
102
RTVSPost2010PropOp41
 70
     1
102
RTVSPost2010Prop42
 90
       50
102
RTVSPost2010PropOp42
 70
     1
102
RTVSPost2010Prop43
 90
        3
102
RTVSPost2010PropOp43
 70
     1
102
RTVSPost2010Prop44ColorIndex
 90
        5
102
RTVSPost2010Prop44ColorRGB
 90
      255
102
RTVSPost2010PropOp44
 70
     1
102
RTVSPost2010Prop45
280
     0
102
RTVSPost2010PropOp45
 70
     1
102
RTVSPost2010Prop46
 90
       50
102
RTVSPost2010PropOp46
 70
     1
102
RTVSPost2010Prop47
 90
       50
102
RTVSPost2010PropOp47
 70
     1
102
RTVSPost2010Prop48
 90
       50
102
RTVSPost2010PropOp48
 70
     1
102
RTVSPost2010Prop49
280
     0
102
RTVSPost2010PropOp49
 70
     1
102
RTVSPost2010Prop50
 90
       50
102
RTVSPost2010PropOp50
 70
     1
102
RTVSPost2010Prop51ColorIndex
 90
      256
102
RTVSPost2010Prop51ColorRGB
 90
-16777216
102
RTVSPost2010PropOp51
 70
     0
102
RTVSPost2010Prop52
140
1.0
102
RTVSPost2010PropOp52
 70
     0
102
RTVSPost2010Prop53
 90
        2
102
RTVSPost2010PropOp53
 70
     1
102
RTVSPost2010Prop54
  1
strokes_ogs.tif
102
RTVSPost2010PropOp54
 70
     1
102
RTVSPost2010Prop55
280
     0
102
RTVSPost2010PropOp55
 70
     1
102
RTVSPost2010Prop56
140
1.0
102
RTVSPost2010PropOp56
 70
     1
102
RTVSPost2010Prop57
140
1.0
102
RTVSPost2010PropOp57
 70
     1
102
RTVSPropertyOp0
 70
     1
102
RTVSPropertyOp1
 70
     1
102
RTVSPropertyOp2
 70
     1
102
RTVSPropertyOp3
 70
     1
102
RTVSPropertyOp4
 70
     1
102
RTVSPropertyOp5
 70
     1
102
RTVSPropertyOp6
 70
     1
102
RTVSPropertyOp7
 70
     1
102
RTVSPropertyOp8
 70
     1
102
RTVSPropertyOp9
 70
     1
102
RTVSPropertyOp10
 70
     1
102
RTVSPropertyOp11
 70
     1
102
RTVSPropertyOp12
 70
     1
102
RTVSPropertyOp13
 70
     1
102
RTVSPropertyOp14
 70
     1
102
RTVSPropertyOp15
 70
     1
102
RTVSPropertyOp16
 70
     1
102
RTVSPropertyOp17
 70
     1
102
RTVSPropertyOp18
 70
     1
102
RTVSPropertyOp19
 70
     1
102
RTVSPropertyOp20
 70
     1
102
RTVSPropertyOp21
 70
     1
102
RTVSPropertyOp22
 70
     1
102
RTVSPropertyOp23
 70
     1
102
RTVSPropertyOp24
 70
     1
102
RTVSPropertyOp25
 70
     1
102
RTVSPropertyOp26
 70
     1
102
RTVSPropertyOp27
 70
     1
102
RTVSPropertyOp28
 70
     1
102
RTVSPropertyOp29
 70
     1
102
RTVSPropertyOp30
 70
     1
102
RTVSPropertyOp31
 70
     1
102
RTVSPropertyOp32
 70
     1
102
RTVSPropertyOp33
 70
     1
102
RTVSPropertyOp34
 70
     1
102
RTVSPropertyOp35
 70
     1
102
RTVSPropertyOp36
 70
     1
102
RTVSPropertyOp37
 70
     1
102
RTVSPropertyOp38
 70
     1
102
RTVSPropertyOp39
 70
     1
102
RTVSPropertyOp40
 70
     1
102
RTVSPropertyOp41
 70
     1
102
RTVSPropertyOp42
 70
     1
102
RTVSPropertyOp43
 70
     1
102
RTVSPropertyOp44
 70
     1
102
RTVSPropertyOp45
 70
     1
102
RTVSPropertyOp46
 70
     1
102
RTVSPropertyOp47
 70
     1
102
RTVSPropertyOp48
 70
     1
102
RTVSPropertyOp49
 70
     1
102
RTVSPropertyOp50
 70
     1
102
RTVSPropertyOp51
 70
     0
102
RTVSPropertyOp52
 70
     0
102
RTVSPropertyOp53
 70
     1
102
RTVSPropertyOp54
 70
     1
102
RTVSPropertyOp55
 70
     1
102
RTVSPropertyOp56
 70
     1
102
RTVSPropertyOp57
 70
     1
102
RTVSPropertyOp58
 70
     1
102
RTVSPropertyOp59
 70
     1
102
RTVSPropertyOp60
 70
     1
102
RTVSPropertyOp61
 70
     1
102
RTVSPropertyOp62
 70
     1
  0
XRECORD
  5
5083
102
{ACAD_REACTORS
330
5082
102
}
330
5082
100
AcDbXrecord
280
     1
102
RTVSPost2010Prop28
280
     0
102
RTVSPost2010PropOp28
 70
     1
102
RTVSPost2010Prop29
280
     1
102
RTVSPost2010PropOp29
 70
     1
102
RTVSPost2010Prop30
280
     1
102
RTVSPost2010PropOp30
 70
     1
102
RTVSPost2010Prop31
280
     0
102
RTVSPost2010PropOp31
 70
     1
102
RTVSPost2010Prop32
280
     0
102
RTVSPost2010PropOp32
 70
     1
102
RTVSPost2010Prop33
280
     0
102
RTVSPost2010PropOp33
 70
     1
102
RTVSPost2010Prop34
280
     0
102
RTVSPost2010PropOp34
 70
     1
102
RTVSPost2010Prop35
280
     0
102
RTVSPost2010PropOp35
 70
     1
102
RTVSPost2010Prop36
280
     0
102
RTVSPost2010PropOp36
 70
     1
102
RTVSPost2010Prop37
 90
       50
102
RTVSPost2010PropOp37
 70
     1
102
RTVSPost2010Prop38
140
0.0
102
RTVSPost2010PropOp38
 70
     1
102
RTVSPost2010Prop39
140
1.0
102
RTVSPost2010PropOp39
 70
     1
102
RTVSPost2010Prop40
 90
        0
102
RTVSPost2010PropOp40
 70
     1
102
RTVSPost2010Prop41ColorIndex
 90
       18
102
RTVSPost2010Prop41ColorRGB
 90
        0
102
RTVSPost2010PropOp41
 70
     1
102
RTVSPost2010Prop42
 90
       50
102
RTVSPost2010PropOp42
 70
     1
102
RTVSPost2010Prop43
 90
        3
102
RTVSPost2010PropOp43
 70
     1
102
RTVSPost2010Prop44ColorIndex
 90
        5
102
RTVSPost2010Prop44ColorRGB
 90
      255
102
RTVSPost2010PropOp44
 70
     1
102
RTVSPost2010Prop45
280
     0
102
RTVSPost2010PropOp45
 70
     1
102
RTVSPost2010Prop46
 90
       50
102
RTVSPost2010PropOp46
 70
     1
102
RTVSPost2010Prop47
 90
       50
102
RTVSPost2010PropOp47
 70
     1
102
RTVSPost2010Prop48
 90
       50
102
RTVSPost2010PropOp48
 70
     1
102
RTVSPost2010Prop49
280
     0
102
RTVSPost2010PropOp49
 70
     1
102
RTVSPost2010Prop50
 90
       50
102
RTVSPost2010PropOp50
 70
     1
102
RTVSPost2010Prop51ColorIndex
 90
      256
102
RTVSPost2010Prop51ColorRGB
 90
-16777216
102
RTVSPost2010PropOp51
 70
     0
102
RTVSPost2010Prop52
140
1.0
102
RTVSPost2010PropOp52
 70
     0
102
RTVSPost2010Prop53
 90
        2
102
RTVSPost2010PropOp53
 70
     1
102
RTVSPost2010Prop54
  1
strokes_ogs.tif
102
RTVSPost2010PropOp54
 70
     1
102
RTVSPost2010Prop55
280
     0
102
RTVSPost2010PropOp55
 70
     1
102
RTVSPost2010Prop56
140
1.0
102
RTVSPost2010PropOp56
 70
     1
102
RTVSPost2010Prop57
140
1.0
102
RTVSPost2010PropOp57
 70
     1
102
RTVSPropertyOp0
 70
     1
102
RTVSPropertyOp1
 70
     1
102
RTVSPropertyOp2
 70
     1
102
RTVSPropertyOp3
 70
     1
102
RTVSPropertyOp4
 70
     1
102
RTVSPropertyOp5
 70
     1
102
RTVSPropertyOp6
 70
     1
102
RTVSPropertyOp7
 70
     1
102
RTVSPropertyOp8
 70
     1
102
RTVSPropertyOp9
 70
     1
102
RTVSPropertyOp10
 70
     1
102
RTVSPropertyOp11
 70
     1
102
RTVSPropertyOp12
 70
     1
102
RTVSPropertyOp13
 70
     1
102
RTVSPropertyOp14
 70
     1
102
RTVSPropertyOp15
 70
     1
102
RTVSPropertyOp16
 70
     1
102
RTVSPropertyOp17
 70
     1
102
RTVSPropertyOp18
 70
     1
102
RTVSPropertyOp19
 70
     1
102
RTVSPropertyOp20
 70
     1
102
RTVSPropertyOp21
 70
     1
102
RTVSPropertyOp22
 70
     1
102
RTVSPropertyOp23
 70
     1
102
RTVSPropertyOp24
 70
     1
102
RTVSPropertyOp25
 70
     1
102
RTVSPropertyOp26
 70
     1
102
RTVSPropertyOp27
 70
     1
102
RTVSPropertyOp28
 70
     1
102
RTVSPropertyOp29
 70
     1
102
RTVSPropertyOp30
 70
     1
102
RTVSPropertyOp31
 70
     1
102
RTVSPropertyOp32
 70
     1
102
RTVSPropertyOp33
 70
     1
102
RTVSPropertyOp34
 70
     1
102
RTVSPropertyOp35
 70
     1
102
RTVSPropertyOp36
 70
     1
102
RTVSPropertyOp37
 70
     1
102
RTVSPropertyOp38
 70
     1
102
RTVSPropertyOp39
 70
     1
102
RTVSPropertyOp40
 70
     1
102
RTVSPropertyOp41
 70
     1
102
RTVSPropertyOp42
 70
     1
102
RTVSPropertyOp43
 70
     1
102
RTVSPropertyOp44
 70
     1
102
RTVSPropertyOp45
 70
     1
102
RTVSPropertyOp46
 70
     1
102
RTVSPropertyOp47
 70
     1
102
RTVSPropertyOp48
 70
     1
102
RTVSPropertyOp49
 70
     1
102
RTVSPropertyOp50
 70
     1
102
RTVSPropertyOp51
 70
     0
102
RTVSPropertyOp52
 70
     0
102
RTVSPropertyOp53
 70
     1
102
RTVSPropertyOp54
 70
     1
102
RTVSPropertyOp55
 70
     1
102
RTVSPropertyOp56
 70
     1
102
RTVSPropertyOp57
 70
     1
102
RTVSPropertyOp58
 70
     1
102
RTVSPropertyOp59
 70
     1
102
RTVSPropertyOp60
 70
     1
102
RTVSPropertyOp61
 70
     1
102
RTVSPropertyOp62
 70
     1
  0
XRECORD
  5
5079
102
{ACAD_REACTORS
330
5078
102
}
330
5078
100
AcDbXrecord
280
     1
102
RTVSPost2010Prop28
280
     0
102
RTVSPost2010PropOp28
 70
     1
102
RTVSPost2010Prop29
280
     1
102
RTVSPost2010PropOp29
 70
     1
102
RTVSPost2010Prop30
280
     1
102
RTVSPost2010PropOp30
 70
     1
102
RTVSPost2010Prop31
280
     0
102
RTVSPost2010PropOp31
 70
     1
102
RTVSPost2010Prop32
280
     0
102
RTVSPost2010PropOp32
 70
     1
102
RTVSPost2010Prop33
280
     0
102
RTVSPost2010PropOp33
 70
     1
102
RTVSPost2010Prop34
280
     0
102
RTVSPost2010PropOp34
 70
     1
102
RTVSPost2010Prop35
280
     0
102
RTVSPost2010PropOp35
 70
     1
102
RTVSPost2010Prop36
280
     0
102
RTVSPost2010PropOp36
 70
     1
102
RTVSPost2010Prop37
 90
       50
102
RTVSPost2010PropOp37
 70
     1
102
RTVSPost2010Prop38
140
0.0
102
RTVSPost2010PropOp38
 70
     1
102
RTVSPost2010Prop39
140
1.0
102
RTVSPost2010PropOp39
 70
     1
102
RTVSPost2010Prop40
 90
        0
102
RTVSPost2010PropOp40
 70
     1
102
RTVSPost2010Prop41ColorIndex
 90
       18
102
RTVSPost2010Prop41ColorRGB
 90
        0
102
RTVSPost2010PropOp41
 70
     1
102
RTVSPost2010Prop42
 90
       50
102
RTVSPost2010PropOp42
 70
     1
102
RTVSPost2010Prop43
 90
        3
102
RTVSPost2010PropOp43
 70
     1
102
RTVSPost2010Prop44ColorIndex
 90
        5
102
RTVSPost2010Prop44ColorRGB
 90
      255
102
RTVSPost2010PropOp44
 70
     1
102
RTVSPost2010Prop45
280
     0
102
RTVSPost2010PropOp45
 70
     1
102
RTVSPost2010Prop46
 90
       50
102
RTVSPost2010PropOp46
 70
     1
102
RTVSPost2010Prop47
 90
       50
102
RTVSPost2010PropOp47
 70
     1
102
RTVSPost2010Prop48
 90
       50
102
RTVSPost2010PropOp48
 70
     1
102
RTVSPost2010Prop49
280
     0
102
RTVSPost2010PropOp49
 70
     1
102
RTVSPost2010Prop50
 90
       50
102
RTVSPost2010PropOp50
 70
     1
102
RTVSPost2010Prop51ColorIndex
 90
      256
102
RTVSPost2010Prop51ColorRGB
 90
-16777216
102
RTVSPost2010PropOp51
 70
     0
102
RTVSPost2010Prop52
140
1.0
102
RTVSPost2010PropOp52
 70
     0
102
RTVSPost2010Prop53
 90
        2
102
RTVSPost2010PropOp53
 70
     1
102
RTVSPost2010Prop54
  1
strokes_ogs.tif
102
RTVSPost2010PropOp54
 70
     1
102
RTVSPost2010Prop55
280
     0
102
RTVSPost2010PropOp55
 70
     1
102
RTVSPost2010Prop56
140
1.0
102
RTVSPost2010PropOp56
 70
     1
102
RTVSPost2010Prop57
140
1.0
102
RTVSPost2010PropOp57
 70
     1
102
RTVSPropertyOp0
 70
     1
102
RTVSPropertyOp1
 70
     1
102
RTVSPropertyOp2
 70
     1
102
RTVSPropertyOp3
 70
     1
102
RTVSPropertyOp4
 70
     1
102
RTVSPropertyOp5
 70
     1
102
RTVSPropertyOp6
 70
     1
102
RTVSPropertyOp7
 70
     1
102
RTVSPropertyOp8
 70
     1
102
RTVSPropertyOp9
 70
     1
102
RTVSPropertyOp10
 70
     1
102
RTVSPropertyOp11
 70
     1
102
RTVSPropertyOp12
 70
     1
102
RTVSPropertyOp13
 70
     1
102
RTVSPropertyOp14
 70
     1
102
RTVSPropertyOp15
 70
     1
102
RTVSPropertyOp16
 70
     1
102
RTVSPropertyOp17
 70
     1
102
RTVSPropertyOp18
 70
     1
102
RTVSPropertyOp19
 70
     1
102
RTVSPropertyOp20
 70
     1
102
RTVSPropertyOp21
 70
     1
102
RTVSPropertyOp22
 70
     1
102
RTVSPropertyOp23
 70
     1
102
RTVSPropertyOp24
 70
     1
102
RTVSPropertyOp25
 70
     1
102
RTVSPropertyOp26
 70
     1
102
RTVSPropertyOp27
 70
     1
102
RTVSPropertyOp28
 70
     1
102
RTVSPropertyOp29
 70
     1
102
RTVSPropertyOp30
 70
     1
102
RTVSPropertyOp31
 70
     1
102
RTVSPropertyOp32
 70
     1
102
RTVSPropertyOp33
 70
     1
102
RTVSPropertyOp34
 70
     1
102
RTVSPropertyOp35
 70
     1
102
RTVSPropertyOp36
 70
     1
102
RTVSPropertyOp37
 70
     1
102
RTVSPropertyOp38
 70
     1
102
RTVSPropertyOp39
 70
     1
102
RTVSPropertyOp40
 70
     1
102
RTVSPropertyOp41
 70
     1
102
RTVSPropertyOp42
 70
     1
102
RTVSPropertyOp43
 70
     1
102
RTVSPropertyOp44
 70
     1
102
RTVSPropertyOp45
 70
     1
102
RTVSPropertyOp46
 70
     1
102
RTVSPropertyOp47
 70
     1
102
RTVSPropertyOp48
 70
     1
102
RTVSPropertyOp49
 70
     1
102
RTVSPropertyOp50
 70
     1
102
RTVSPropertyOp51
 70
     0
102
RTVSPropertyOp52
 70
     0
102
RTVSPropertyOp53
 70
     1
102
RTVSPropertyOp54
 70
     1
102
RTVSPropertyOp55
 70
     1
102
RTVSPropertyOp56
 70
     1
102
RTVSPropertyOp57
 70
     1
102
RTVSPropertyOp58
 70
     1
102
RTVSPropertyOp59
 70
     1
102
RTVSPropertyOp60
 70
     1
102
RTVSPropertyOp61
 70
     1
102
RTVSPropertyOp62
 70
     1
  0
XRECORD
  5
506D
102
{ACAD_REACTORS
330
506C
102
}
330
506C
100
AcDbXrecord
280
     1
102
RTVSPost2010Prop28
280
     0
102
RTVSPost2010PropOp28
 70
     1
102
RTVSPost2010Prop29
280
     1
102
RTVSPost2010PropOp29
 70
     1
102
RTVSPost2010Prop30
280
     1
102
RTVSPost2010PropOp30
 70
     1
102
RTVSPost2010Prop31
280
     0
102
RTVSPost2010PropOp31
 70
     1
102
RTVSPost2010Prop32
280
     0
102
RTVSPost2010PropOp32
 70
     1
102
RTVSPost2010Prop33
280
     0
102
RTVSPost2010PropOp33
 70
     1
102
RTVSPost2010Prop34
280
     0
102
RTVSPost2010PropOp34
 70
     1
102
RTVSPost2010Prop35
280
     0
102
RTVSPost2010PropOp35
 70
     1
102
RTVSPost2010Prop36
280
     0
102
RTVSPost2010PropOp36
 70
     1
102
RTVSPost2010Prop37
 90
       50
102
RTVSPost2010PropOp37
 70
     1
102
RTVSPost2010Prop38
140
0.0
102
RTVSPost2010PropOp38
 70
     1
102
RTVSPost2010Prop39
140
1.0
102
RTVSPost2010PropOp39
 70
     1
102
RTVSPost2010Prop40
 90
        0
102
RTVSPost2010PropOp40
 70
     1
102
RTVSPost2010Prop41ColorIndex
 90
       18
102
RTVSPost2010Prop41ColorRGB
 90
        0
102
RTVSPost2010PropOp41
 70
     1
102
RTVSPost2010Prop42
 90
       50
102
RTVSPost2010PropOp42
 70
     1
102
RTVSPost2010Prop43
 90
        3
102
RTVSPost2010PropOp43
 70
     1
102
RTVSPost2010Prop44ColorIndex
 90
        5
102
RTVSPost2010Prop44ColorRGB
 90
      255
102
RTVSPost2010PropOp44
 70
     1
102
RTVSPost2010Prop45
280
     0
102
RTVSPost2010PropOp45
 70
     1
102
RTVSPost2010Prop46
 90
       50
102
RTVSPost2010PropOp46
 70
     1
102
RTVSPost2010Prop47
 90
       50
102
RTVSPost2010PropOp47
 70
     1
102
RTVSPost2010Prop48
 90
       50
102
RTVSPost2010PropOp48
 70
     1
102
RTVSPost2010Prop49
280
     0
102
RTVSPost2010PropOp49
 70
     1
102
RTVSPost2010Prop50
 90
       50
102
RTVSPost2010PropOp50
 70
     1
102
RTVSPost2010Prop51ColorIndex
 90
      256
102
RTVSPost2010Prop51ColorRGB
 90
-16777216
102
RTVSPost2010PropOp51
 70
     0
102
RTVSPost2010Prop52
140
1.0
102
RTVSPost2010PropOp52
 70
     0
102
RTVSPost2010Prop53
 90
        2
102
RTVSPost2010PropOp53
 70
     1
102
RTVSPost2010Prop54
  1
strokes_ogs.tif
102
RTVSPost2010PropOp54
 70
     1
102
RTVSPost2010Prop55
280
     0
102
RTVSPost2010PropOp55
 70
     1
102
RTVSPost2010Prop56
140
1.0
102
RTVSPost2010PropOp56
 70
     1
102
RTVSPost2010Prop57
140
1.0
102
RTVSPost2010PropOp57
 70
     1
102
RTVSPropertyOp0
 70
     1
102
RTVSPropertyOp1
 70
     1
102
RTVSPropertyOp2
 70
     1
102
RTVSPropertyOp3
 70
     1
102
RTVSPropertyOp4
 70
     1
102
RTVSPropertyOp5
 70
     1
102
RTVSPropertyOp6
 70
     1
102
RTVSPropertyOp7
 70
     1
102
RTVSPropertyOp8
 70
     1
102
RTVSPropertyOp9
 70
     1
102
RTVSPropertyOp10
 70
     1
102
RTVSPropertyOp11
 70
     1
102
RTVSPropertyOp12
 70
     1
102
RTVSPropertyOp13
 70
     1
102
RTVSPropertyOp14
 70
     1
102
RTVSPropertyOp15
 70
     1
102
RTVSPropertyOp16
 70
     1
102
RTVSPropertyOp17
 70
     1
102
RTVSPropertyOp18
 70
     1
102
RTVSPropertyOp19
 70
     1
102
RTVSPropertyOp20
 70
     1
102
RTVSPropertyOp21
 70
     1
102
RTVSPropertyOp22
 70
     1
102
RTVSPropertyOp23
 70
     1
102
RTVSPropertyOp24
 70
     1
102
RTVSPropertyOp25
 70
     1
102
RTVSPropertyOp26
 70
     1
102
RTVSPropertyOp27
 70
     1
102
RTVSPropertyOp28
 70
     1
102
RTVSPropertyOp29
 70
     1
102
RTVSPropertyOp30
 70
     1
102
RTVSPropertyOp31
 70
     1
102
RTVSPropertyOp32
 70
     1
102
RTVSPropertyOp33
 70
     1
102
RTVSPropertyOp34
 70
     1
102
RTVSPropertyOp35
 70
     1
102
RTVSPropertyOp36
 70
     1
102
RTVSPropertyOp37
 70
     1
102
RTVSPropertyOp38
 70
     1
102
RTVSPropertyOp39
 70
     1
102
RTVSPropertyOp40
 70
     1
102
RTVSPropertyOp41
 70
     1
102
RTVSPropertyOp42
 70
     1
102
RTVSPropertyOp43
 70
     1
102
RTVSPropertyOp44
 70
     1
102
RTVSPropertyOp45
 70
     1
102
RTVSPropertyOp46
 70
     1
102
RTVSPropertyOp47
 70
     1
102
RTVSPropertyOp48
 70
     1
102
RTVSPropertyOp49
 70
     1
102
RTVSPropertyOp50
 70
     1
102
RTVSPropertyOp51
 70
     0
102
RTVSPropertyOp52
 70
     0
102
RTVSPropertyOp53
 70
     1
102
RTVSPropertyOp54
 70
     1
102
RTVSPropertyOp55
 70
     1
102
RTVSPropertyOp56
 70
     1
102
RTVSPropertyOp57
 70
     1
102
RTVSPropertyOp58
 70
     1
102
RTVSPropertyOp59
 70
     1
102
RTVSPropertyOp60
 70
     1
102
RTVSPropertyOp61
 70
     1
102
RTVSPropertyOp62
 70
     1
  0
XRECORD
  5
5085
102
{ACAD_REACTORS
330
5084
102
}
330
5084
100
AcDbXrecord
280
     1
102
RTVSPost2010Prop28
280
     0
102
RTVSPost2010PropOp28
 70
     1
102
RTVSPost2010Prop29
280
     1
102
RTVSPost2010PropOp29
 70
     1
102
RTVSPost2010Prop30
280
     1
102
RTVSPost2010PropOp30
 70
     1
102
RTVSPost2010Prop31
280
     0
102
RTVSPost2010PropOp31
 70
     1
102
RTVSPost2010Prop32
280
     0
102
RTVSPost2010PropOp32
 70
     1
102
RTVSPost2010Prop33
280
     0
102
RTVSPost2010PropOp33
 70
     1
102
RTVSPost2010Prop34
280
     0
102
RTVSPost2010PropOp34
 70
     1
102
RTVSPost2010Prop35
280
     0
102
RTVSPost2010PropOp35
 70
     1
102
RTVSPost2010Prop36
280
     0
102
RTVSPost2010PropOp36
 70
     1
102
RTVSPost2010Prop37
 90
       50
102
RTVSPost2010PropOp37
 70
     1
102
RTVSPost2010Prop38
140
0.0
102
RTVSPost2010PropOp38
 70
     1
102
RTVSPost2010Prop39
140
1.0
102
RTVSPost2010PropOp39
 70
     1
102
RTVSPost2010Prop40
 90
        0
102
RTVSPost2010PropOp40
 70
     1
102
RTVSPost2010Prop41ColorIndex
 90
       18
102
RTVSPost2010Prop41ColorRGB
 90
        0
102
RTVSPost2010PropOp41
 70
     1
102
RTVSPost2010Prop42
 90
       50
102
RTVSPost2010PropOp42
 70
     1
102
RTVSPost2010Prop43
 90
        3
102
RTVSPost2010PropOp43
 70
     1
102
RTVSPost2010Prop44ColorIndex
 90
        5
102
RTVSPost2010Prop44ColorRGB
 90
      255
102
RTVSPost2010PropOp44
 70
     1
102
RTVSPost2010Prop45
280
     0
102
RTVSPost2010PropOp45
 70
     1
102
RTVSPost2010Prop46
 90
       50
102
RTVSPost2010PropOp46
 70
     1
102
RTVSPost2010Prop47
 90
       50
102
RTVSPost2010PropOp47
 70
     1
102
RTVSPost2010Prop48
 90
       50
102
RTVSPost2010PropOp48
 70
     1
102
RTVSPost2010Prop49
280
     0
102
RTVSPost2010PropOp49
 70
     1
102
RTVSPost2010Prop50
 90
       50
102
RTVSPost2010PropOp50
 70
     1
102
RTVSPost2010Prop51ColorIndex
 90
      256
102
RTVSPost2010Prop51ColorRGB
 90
-16777216
102
RTVSPost2010PropOp51
 70
     0
102
RTVSPost2010Prop52
140
1.0
102
RTVSPost2010PropOp52
 70
     0
102
RTVSPost2010Prop53
 90
        2
102
RTVSPost2010PropOp53
 70
     1
102
RTVSPost2010Prop54
  1
strokes_ogs.tif
102
RTVSPost2010PropOp54
 70
     1
102
RTVSPost2010Prop55
280
     0
102
RTVSPost2010PropOp55
 70
     1
102
RTVSPost2010Prop56
140
1.0
102
RTVSPost2010PropOp56
 70
     1
102
RTVSPost2010Prop57
140
1.0
102
RTVSPost2010PropOp57
 70
     1
102
RTVSPropertyOp0
 70
     1
102
RTVSPropertyOp1
 70
     1
102
RTVSPropertyOp2
 70
     1
102
RTVSPropertyOp3
 70
     1
102
RTVSPropertyOp4
 70
     1
102
RTVSPropertyOp5
 70
     1
102
RTVSPropertyOp6
 70
     1
102
RTVSPropertyOp7
 70
     1
102
RTVSPropertyOp8
 70
     1
102
RTVSPropertyOp9
 70
     1
102
RTVSPropertyOp10
 70
     1
102
RTVSPropertyOp11
 70
     1
102
RTVSPropertyOp12
 70
     1
102
RTVSPropertyOp13
 70
     1
102
RTVSPropertyOp14
 70
     1
102
RTVSPropertyOp15
 70
     1
102
RTVSPropertyOp16
 70
     1
102
RTVSPropertyOp17
 70
     1
102
RTVSPropertyOp18
 70
     1
102
RTVSPropertyOp19
 70
     1
102
RTVSPropertyOp20
 70
     1
102
RTVSPropertyOp21
 70
     1
102
RTVSPropertyOp22
 70
     1
102
RTVSPropertyOp23
 70
     1
102
RTVSPropertyOp24
 70
     1
102
RTVSPropertyOp25
 70
     1
102
RTVSPropertyOp26
 70
     1
102
RTVSPropertyOp27
 70
     1
102
RTVSPropertyOp28
 70
     1
102
RTVSPropertyOp29
 70
     1
102
RTVSPropertyOp30
 70
     1
102
RTVSPropertyOp31
 70
     1
102
RTVSPropertyOp32
 70
     1
102
RTVSPropertyOp33
 70
     1
102
RTVSPropertyOp34
 70
     1
102
RTVSPropertyOp35
 70
     1
102
RTVSPropertyOp36
 70
     1
102
RTVSPropertyOp37
 70
     1
102
RTVSPropertyOp38
 70
     1
102
RTVSPropertyOp39
 70
     1
102
RTVSPropertyOp40
 70
     1
102
RTVSPropertyOp41
 70
     1
102
RTVSPropertyOp42
 70
     1
102
RTVSPropertyOp43
 70
     1
102
RTVSPropertyOp44
 70
     1
102
RTVSPropertyOp45
 70
     1
102
RTVSPropertyOp46
 70
     1
102
RTVSPropertyOp47
 70
     1
102
RTVSPropertyOp48
 70
     1
102
RTVSPropertyOp49
 70
     1
102
RTVSPropertyOp50
 70
     1
102
RTVSPropertyOp51
 70
     0
102
RTVSPropertyOp52
 70
     0
102
RTVSPropertyOp53
 70
     1
102
RTVSPropertyOp54
 70
     1
102
RTVSPropertyOp55
 70
     1
102
RTVSPropertyOp56
 70
     1
102
RTVSPropertyOp57
 70
     1
102
RTVSPropertyOp58
 70
     1
102
RTVSPropertyOp59
 70
     1
102
RTVSPropertyOp60
 70
     1
102
RTVSPropertyOp61
 70
     1
102
RTVSPropertyOp62
 70
     1
  0
ENDSEC
  0
EOF
