  0
SECTION
  2
HEADER
  9
$ACADVER
  1
AC1009
  9
$INSBASE
 10
0.0
 20
0.0
 30
0.0
  9
$EXTMIN
 10
-83.959990660292448
 20
-24.990000000000009
 30
0.0
  9
$EXTMAX
 10
64.01782420417176
 20
54.000000000000007
 30
0.0
  9
$LIMMIN
 10
0.0
 20
0.0
  9
$LIMMAX
 10
297.0
 20
210.0
  9
$ORTHOMODE
 70
     0
  9
$REGENMODE
 70
     1
  9
$FILLMODE
 70
     1
  9
$QTEXTMODE
 70
     0
  9
$MIRRTEXT
 70
     1
  9
$DRAGMODE
 70
     2
  9
$LTSCALE
 40
10.0
  9
$OSMODE
 70
    39
  9
$ATTMODE
 70
     1
  9
$TEXTSIZE
 40
3.0
  9
$TRACEWID
 40
1.0
  9
$TEXTSTYLE
  7
YOKO
  9
$CLAYER
  8
240
  9
$CELTYPE
  6
BYLAYER
  9
$CECOLOR
 62
   256
  9
$DIMSCALE
 40
1.0
  9
$DIMASZ
 40
2.2299999999999991
  9
$DIMEXO
 40
0.5
  9
$DIMDLI
 40
7.0
  9
$DIMRND
 40
0.0
  9
$DIMDLE
 40
0.0
  9
$DIMEXE
 40
1.0
  9
$DIMTP
 40
0.0
  9
$DIMTM
 40
0.01
  9
$DIMTXT
 40
2.799999999999998
  9
$DIMCEN
 40
0.0
  9
$DIMTSZ
 40
0.0
  9
$DIMTOL
 70
     0
  9
$DIMLIM
 70
     0
  9
$DIMTIH
 70
     0
  9
$DIMTOH
 70
     0
  9
$DIMSE1
 70
     0
  9
$DIMSE2
 70
     0
  9
$DIMTAD
 70
     3
  9
$DIMZIN
 70
     9
  9
$DIMBLK
  1
OPEN
  9
$DIMASO
 70
     1
  9
$DIMSHO
 70
     1
  9
$DIMPOST
  1

  9
$DIMAPOST
  1

  9
$DIMALT
 70
     0
  9
$DIMALTD
 70
     2
  9
$DIMALTF
 40
25.399999999999999
  9
$DIMLFAC
 40
1.0
  9
$DIMTOFL
 70
     1
  9
$DIMTVP
 40
0.0
  9
$DIMTIX
 70
     1
  9
$DIMSOXD
 70
     0
  9
$DIMSAH
 70
     0
  9
$DIMBLK1
  1

  9
$DIMBLK2
  1

  9
$DIMSTYLE
  2
BIGT
  9
$DIMCLRD
 70
   256
  9
$DIMCLRE
 70
   256
  9
$DIMCLRT
 70
    40
  9
$DIMTFAC
 40
1.0
  9
$DIMGAP
 40
1.0
  9
$LUNITS
 70
     2
  9
$LUPREC
 70
     6
  9
$SKETCHINC
 40
1.0
  9
$FILLETRAD
 40
0.0
  9
$AUNITS
 70
     0
  9
$AUPREC
 70
     6
  9
$MENU
  1
.
  9
$ELEVATION
 40
0.0
  9
$PELEVATION
 40
0.0
  9
$THICKNESS
 40
0.0
  9
$LIMCHECK
 70
     0
  9
$BLIPMODE
 70
     0
  9
$CHAMFERA
 40
0.2
  9
$CHAMFERB
 40
0.2
  9
$SKPOLY
 70
     0
  9
$TDCREATE
 40
2457746.4606598262
  9
$TDUPDATE
 40
2459608.5329945949
  9
$TDINDWG
 40
0.0061904398
  9
$TDUSRTIMER
 40
0.0061903125
  9
$USRTIMER
 70
     1
  9
$ANGBASE
 50
0.0
  9
$ANGDIR
 70
     0
  9
$PDMODE
 70
     1
  9
$PDSIZE
 40
0.0
  9
$PLINEWID
 40
0.0
  9
$COORDS
 70
     1
  9
$SPLFRAME
 70
     0
  9
$SPLINETYPE
 70
     6
  9
$SPLINESEGS
 70
     4
  9
$ATTDIA
 70
     1
  9
$ATTREQ
 70
     1
  9
$HANDLING
 70
     1
  9
$HANDSEED
  5
4ADF
  9
$SURFTAB1
 70
     6
  9
$SURFTAB2
 70
     6
  9
$SURFTYPE
 70
     6
  9
$SURFU
 70
     6
  9
$SURFV
 70
     6
  9
$UCSNAME
  2

  9
$UCSORG
 10
0.0
 20
0.0
 30
0.0
  9
$UCSXDIR
 10
1.0
 20
0.0
 30
0.0
  9
$UCSYDIR
 10
0.0
 20
1.0
 30
0.0
  9
$PUCSNAME
  2

  9
$PUCSORG
 10
0.0
 20
0.0
 30
0.0
  9
$PUCSXDIR
 10
1.0
 20
0.0
 30
0.0
  9
$PUCSYDIR
 10
0.0
 20
1.0
 30
0.0
  9
$USERI1
 70
     1
  9
$USERI2
 70
     0
  9
$USERI3
 70
     0
  9
$USERI4
 70
     0
  9
$USERI5
 70
     0
  9
$USERR1
 40
0.0
  9
$USERR2
 40
0.0
  9
$USERR3
 40
0.0
  9
$USERR4
 40
0.0
  9
$USERR5
 40
0.0
  9
$WORLDVIEW
 70
     1
  9
$SHADEDGE
 70
     3
  9
$SHADEDIF
 70
    70
  9
$TILEMODE
 70
     1
  9
$MAXACTVP
 70
    16
  9
$PLIMCHECK
 70
     0
  9
$PEXTMIN
 10
1.0000000000000000E+020
 20
1.0000000000000000E+020
 30
1.0000000000000000E+020
  9
$PEXTMAX
 10
-1.0000000000000000E+020
 20
-1.0000000000000000E+020
 30
-1.0000000000000000E+020
  9
$PLIMMIN
 10
0.0
 20
0.0
  9
$PLIMMAX
 10
420.0
 20
297.0
  9
$UNITMODE
 70
     0
  9
$VISRETAIN
 70
     1
  9
$PLINEGEN
 70
     0
  9
$PSLTSCALE
 70
     1
  0
ENDSEC
  0
SECTION
  2
TABLES
  0
TABLE
  2
VPORT
 70
     1
  0
VPORT
  2
*ACTIVE
 70
     0
 10
0.0
 20
0.0
 11
1.0
 21
1.0
 12
-5.0481544754117493
 22
6.8713251677151126
 13
0.0
 23
0.0
 14
7.0
 24
7.0
 15
7.0
 25
7.0
 16
0.0
 26
0.0
 36
1.0
 17
0.0
 27
0.0
 37
0.0
 40
149.02403035118749
 41
1.488859764089121
 42
50.0
 43
0.0
 44
0.0
 50
0.0
 51
0.0
 71
     0
 72
  2000
 73
     1
 74
     0
 75
     0
 76
     1
 77
     0
 78
     0
  0
ENDTAB
  0
TABLE
  2
LTYPE
 70
    21
  0
LTYPE
  2
CONTINUOUS
 70
     0
  3
Solid line
 72
    65
 73
     0
 40
0.0
  0
LTYPE
  2
CENTER2
 70
     0
  3
___ _ ___ _ ___ _ ___ _ ___ _ ___ _ ___ _ ___ _
 72
    65
 73
     4
 40
1.125
 49
0.75
 49
-0.125
 49
0.125
 49
-0.125
  0
LTYPE
  2
HIDDEN2
 70
     0
  3
_ _ _ _ _ _ _ _ _ _ _ _ _ _ _ _ _ _ _ _ _ _ _ _
 72
    65
 73
     2
 40
0.1875
 49
0.125
 49
-0.0625
  0
LTYPE
  2
PHANTOM2
 70
     0
  3
___ _ _ ___ _ _ ___ _ _ ___ _ _ ___ _ _ ___ _ _
 72
    65
 73
     6
 40
1.25
 49
0.625
 49
-0.125
 49
0.125
 49
-0.125
 49
0.125
 49
-0.125
  0
LTYPE
  2
AMCONSTR
 70
     0
  3
_______________________
 72
    65
 73
     2
 40
9999.0
 49
9999.0
 49
0.0
  0
LTYPE
  2
HIDDEN
 70
     0
  3
Hidden __ __ __ __ __ __ __ __ __ __ __ __ __ _
 72
    65
 73
     2
 40
0.375
 49
0.25
 49
-0.125
  0
LTYPE
  2
CENTER
 70
     0
  3
Center ____ _ ____ _ ____ _ ____ _ ____ _ ____
 72
    65
 73
     4
 40
2.0
 49
1.25
 49
-0.25
 49
0.25
 49
-0.25
  0
LTYPE
  2
AMZIGZAG2
 70
     0
  3
/\/-/\/-/\/-/\/-/\/-/\/
 72
    65
 73
     2
 40
0.4401
 49
0.0001
 49
-0.4400000000000001
  0
LTYPE
  2
ACANSTGB
 70
     0
  3
__ . . __ . .
 72
    65
 73
     6
 40
0.35433070866
 49
0.15748031496
 49
-0.03937007874
 49
0.03937007874
 49
-0.03937007874
 49
0.03937007874
 49
-0.03937007874
  0
LTYPE
  2
ACANSTGL
 70
     0
  3
_ _ _ _ _
 72
    65
 73
     2
 40
0.11811023622
 49
0.07874015748
 49
-0.03937007874
  0
ENDTAB
  0
TABLE
  2
LAYER
 70
    10
  0
LAYER
  2
0
 70
     0
 62
     7
  6
CONTINUOUS
  0
LAYER
  2
240
 70
     0
 62
     4
  6
CONTINUOUS
  0
LAYER
  2
DEFPOINTS
 70
     0
 62
     7
  6
CONTINUOUS
  0
LAYER
  2
245
 70
     0
 62
     2
  6
CENTER2
  0
LAYER
  2
241
 70
     0
 62
   211
  6
CONTINUOUS
  0
LAYER
  2
242
 70
     0
 62
     3
  6
CONTINUOUS
  0
LAYER
  2
243
 70
     0
 62
   211
  6
HIDDEN2
  0
LAYER
  2
247
 70
     0
 62
    60
  6
CONTINUOUS
  0
LAYER
  2
250
 70
     0
 62
     3
  6
CONTINUOUS
  0
ENDTAB
  0
TABLE
  2
STYLE
 70
    10
  0
STYLE
  2
STANDARD
 70
     0
 40
0.0
 41
1.0
 50
0.0
 71
     0
 42
3.0
  3
romans.shx
  4
extfont.shx
  0
STYLE
  2
YOKO
 70
     0
 40
0.0
 41
1.0
 50
0.0
 71
     0
 42
3.0
  3
romans.shx
  4
extfont.shx
  0
STYLE
  2

 70
     1
 40
0.0
 41
1.0
 50
0.0
 71
     0
 42
3.0
  3
genltshp.shx
  4

  0
STYLE
  2
ACANSGDT
 70
     0
 40
0.0
 41
1.0
 50
0.0
 71
     0
 42
3.0
  3
amgdt.shx
  4

  0
ENDTAB
  0
TABLE
  2
VIEW
 70
     0
  0
ENDTAB
  0
TABLE
  2
UCS
 70
     0
  0
ENDTAB
  0
TABLE
  2
APPID
 70
    39
  0
APPID
  2
ACAD
 70
     0
  0
APPID
  2
ACADANNOTATIVE
 70
     0
  0
APPID
  2
GLOBAL
 70
     0
  0
APPID
  2
DETAIL
 70
     0
  0
APPID
  2
GRPNAME
 70
     0
  0
APPID
  2
GPARA
 70
     0
  0
APPID
  2
MCAD_NO_VIS
 70
     0
  0
APPID
  2
ACAD_TEMP_GRAPHIC
 70
     0
  0
APPID
  2
ACATTRIBSERVICES
 70
     0
  0
APPID
  2
GENIUS_GENSCREG_15
 70
     0
  0
APPID
  2
GENIUS_GENODEF_13
 70
     0
  0
APPID
  2
GENIUS_GENOBJ-N-SDF_13
 70
     0
  0
APPID
  2
GENIUS_GENREC_14
 70
     0
  0
APPID
  2
GENIUS_GENOBJ-N-REC_13
 70
     0
  0
APPID
  2
GENIUS_GENDIMSH_14
 70
     0
  0
APPID
  2
GENIUS_GENOBJ-N-DIM_13
 70
     0
  0
APPID
  2
GENIUS_GENDIM_13
 70
     0
  0
APPID
  2
GENIUS_GENDTOL_13
 70
     0
  0
APPID
  2
GENIUS_GENOLIS_13
 70
     0
  0
APPID
  2
GENIUS_GENOENT_13
 70
     0
  0
APPID
  2
GENIUS_GENOBJ-F-FEM_13
 70
     0
  0
APPID
  2
GENIUS_GENOREF_13
 70
     0
  0
APPID
  2
GENIUS_GEFFEM_13
 70
     0
  0
APPID
  2
GENIUS_GEFFEMP_13
 70
     0
  0
APPID
  2
AD_DRAW
 70
     0
  0
APPID
  2
DESIGNERASSEMBLIES
 70
     0
  0
APPID
  2
ACADM_DIM_EDIT
 70
     0
  0
APPID
  2
AMDT_DM_ADJ
 70
     0
  0
APPID
  2
ITEMNAME
 70
     0
  0
APPID
  2
GENIUS_GENOBJ-N-FIL_13
 70
     0
  0
APPID
  2
GENIUS_GENFIL_13
 70
     0
  0
APPID
  2
GENIUS_GENOBJ-N-CHA_13
 70
     0
  0
APPID
  2
ACAD_NAV_VCDISPLAY
 70
     0
  0
APPID
  2
ACAD_EXEMPT_FROM_CAD_STANDARDS
 70
     0
  0
APPID
  2
ACAD_DSTYLE_DIMINSPECT
 70
     0
  0
APPID
  2
ACAD_DSTYLE_DIMJAG
 70
     0
  0
APPID
  2
ACAD_DSTYLE_DIMBREAK
 70
     0
  0
APPID
  2
ACAD_MLEADERVER
 70
     0
  0
APPID
  2
ACAECLAYERSTANDARD
 70
     0
  0
ENDTAB
  0
TABLE
  2
DIMSTYLE
 70
    31
  0
DIMSTYLE
  2
STANDARD
 70
     0
  3

  4

  5

  6

  7

 40
1.0
 41
0.18
 42
0.0625
 43
0.38
 44
0.18
 45
0.0
 46
0.0
 47
0.0
 48
0.0
140
0.18
141
0.09
142
0.0
143
25.399999999999999
144
1.0
145
0.0
146
1.0
147
0.09
 71
     0
 72
     0
 73
     1
 74
     1
 75
     0
 76
     0
 77
     0
 78
     0
170
     0
171
     2
172
     0
173
     0
174
     0
175
     0
176
     0
177
     0
178
     0
  0
DIMSTYLE
  2
BIGT
 70
     0
  3

  4

  5

  6

  7

 40
1.0
 41
2.2299999999999991
 42
0.5
 43
7.0
 44
1.0
 45
0.0
 46
0.0
 47
0.0
 48
0.01
140
2.799999999999998
141
0.0
142
0.0
143
25.399999999999999
144
1.0
145
0.0
146
1.0
147
1.0
 71
     0
 72
     0
 73
     0
 74
     0
 75
     0
 76
     0
 77
     3
 78
     9
170
     0
171
     2
172
     1
173
     0
174
     1
175
     0
176
   256
177
   256
178
    40
  0
DIMSTYLE
  2
AM_ANSI
 70
     0
  3

  4
mm
  5

  6

  7

 40
1.0
 41
0.12
 42
0.05
 43
0.5
 44
0.1
 45
0.0
 46
0.0
 47
0.1
 48
0.1
140
0.12
141
0.0
142
0.0
143
25.399999999999999
144
1.0
145
0.0
146
0.71
147
0.06
 71
     0
 72
     0
 73
     1
 74
     1
 75
     0
 76
     0
 77
     0
 78
     7
170
     0
171
     2
172
     0
173
     0
174
     0
175
     0
176
   256
177
   256
178
     2
  0
DIMSTYLE
  2
AM_ANSI$3
 70
     0
  3

  4
mm
  5

  6

  7

 40
1.0
 41
0.12
 42
0.05
 43
0.5
 44
0.1
 45
0.0
 46
0.0
 47
0.1
 48
0.1
140
0.12
141
0.0
142
0.0
143
25.399999999999999
144
1.0
145
0.0
146
0.71
147
0.06
 71
     0
 72
     0
 73
     1
 74
     1
 75
     0
 76
     0
 77
     0
 78
     7
170
     0
171
     2
172
     0
173
     0
174
     0
175
     0
176
   256
177
   256
178
     2
  0
DIMSTYLE
  2
AM_ANSI$4
 70
     0
  3

  4
mm
  5

  6

  7

 40
1.0
 41
0.12
 42
0.05
 43
0.5
 44
0.1
 45
0.0
 46
0.0
 47
0.1
 48
0.1
140
0.12
141
0.0
142
0.0
143
25.399999999999999
144
1.0
145
0.0
146
0.71
147
0.06
 71
     0
 72
     0
 73
     1
 74
     1
 75
     0
 76
     0
 77
     0
 78
     7
170
     0
171
     2
172
     0
173
     0
174
     0
175
     0
176
   256
177
   256
178
     2
  0
DIMSTYLE
  2
AM_ANSI$7
 70
     0
  3

  4
mm
  5

  6

  7

 40
1.0
 41
0.12
 42
0.05
 43
0.5
 44
0.1
 45
0.0
 46
0.0
 47
0.1
 48
0.1
140
0.12
141
0.0
142
0.0
143
25.399999999999999
144
1.0
145
0.0
146
0.71
147
0.06
 71
     0
 72
     0
 73
     1
 74
     1
 75
     0
 76
     0
 77
     0
 78
     7
170
     0
171
     2
172
     0
173
     0
174
     0
175
     0
176
   256
177
   256
178
     2
  0
DIMSTYLE
  2
AM_ANSI$SF
 70
     0
  3

  4
mm
  5

  6

  7

 40
1.0
 41
0.12
 42
0.05
 43
0.5
 44
0.1
 45
0.0
 46
0.0
 47
0.1
 48
0.1
140
0.12
141
0.0
142
0.0
143
25.399999999999999
144
1.0
145
0.0
146
0.71
147
0.06
 71
     0
 72
     0
 73
     1
 74
     1
 75
     1
 76
     1
 77
     0
 78
     7
170
     0
171
     2
172
     0
173
     0
174
     0
175
     0
176
   256
177
   256
178
     2
  0
DIMSTYLE
  2
AM_ANSI$SH
 70
     0
  3

  4
mm
  5

  6
GENAXEH
  7

 40
1.0
 41
0.12
 42
0.05
 43
0.5
 44
0.1
 45
0.0
 46
0.0
 47
0.1
 48
0.1
140
0.12
141
0.0
142
0.0
143
25.399999999999999
144
1.0
145
0.0
146
0.71
147
0.06
 71
     0
 72
     0
 73
     1
 74
     1
 75
     1
 76
     1
 77
     0
 78
     7
170
     0
171
     2
172
     0
173
     1
174
     0
175
     0
176
   256
177
   256
178
     2
  0
ENDTAB
  0
ENDSEC
  0
SECTION
  2
BLOCKS
  0
BLOCK
  8
0
  2
$MODEL_SPACE
 70
     0
 10
0.0
 20
0.0
 30
0.0
  3
$MODEL_SPACE
  1

  0
ENDBLK
  5
4575
  8
0
  0
BLOCK
 67
     1
  8
0
  2
$PAPER_SPACE
 70
     0
 10
0.0
 20
0.0
 30
0.0
  3
$PAPER_SPACE
  1

  0
ENDBLK
  5
4571
 67
     1
  8
0
  0
BLOCK
  8
0
  2
_OPEN
 70
     0
 10
0.0
 20
0.0
 30
0.0
  3
_OPEN
  1

  0
LINE
  5
440C
  8
0
  6
BYBLOCK
 62
     0
 10
-1.0
 20
0.1666666666666666
 30
0.0
 11
0.0
 21
0.0
 31
0.0
  0
LINE
  5
440D
  8
0
  6
BYBLOCK
 62
     0
 10
-1.0
 20
-0.1666666666666666
 30
0.0
 11
0.0
 21
0.0
 31
0.0
  0
LINE
  5
440E
  8
0
  6
BYBLOCK
 62
     0
 10
0.0
 20
0.0
 30
0.0
 11
-1.0
 21
0.0
 31
0.0
  0
ENDBLK
  5
440F
  8
0
  0
BLOCK
  8
0
  2
GENAXEH
 70
     0
 10
0.0
 20
0.0
 30
0.0
  3
GENAXEH
  1

  0
LINE
  5
4447
  8
0
 10
-1.0
 20
0.0
 30
0.0
 11
1.0
 21
0.0
 31
0.0
  0
ENDBLK
  5
4448
  8
0
  0
BLOCK
  8
0
  2
_ACMFILLEDHALF
 70
     0
 10
0.0
 20
0.0
 30
0.0
  3
_ACMFILLEDHALF
  1

  0
TRACE
  5
4636
  8
240
 62
     0
 10
-0.8
 20
0.0
 30
0.0
 11
-1.0
 21
0.166666666
 31
0.0
 12
0.0
 22
0.0
 32
0.0
 13
0.0
 23
0.0
 33
0.0
  0
LINE
  5
4637
  8
240
 62
     0
 10
-1.0
 20
0.0
 30
0.0
 11
-0.8
 21
0.0
 31
0.0
  0
ENDBLK
  5
4635
  8
0
  0
ENDSEC
  0
SECTION
  2
ENTITIES
  0
LINE
  5
4229
  8
245
  6
CENTER2
 10
-31.0
 20
0.0
 30
0.0
 11
52.798310120474298
 21
0.0
 31
0.0
1001
GRPNAME
1000
PASTMD0U
  0
LINE
  5
422A
  8
240
  6
CONTINUOUS
 10
0.0
 20
-16.45500659935669
 30
0.0
 11
-30.0
 21
-15.704940578981221
 31
0.0
  0
LINE
  5
422B
  8
240
  6
CONTINUOUS
 10
0.0
 20
16.45500659935669
 30
0.0
 11
-30.0
 21
15.704940578981221
 31
0.0
  0
LINE
  5
422C
  8
240
  6
CONTINUOUS
 10
-30.0
 20
-15.704940578981221
 30
0.0
 11
-30.0
 21
15.704940578981221
 31
0.0
  0
LINE
  5
422D
  8
241
  6
CONTINUOUS
 10
-24.449999999999989
 20
-3.1365000000000101
 30
0.0
 11
-24.449999999999989
 21
3.1365000000000101
 31
0.0
  0
LINE
  5
422E
  8
241
  6
CONTINUOUS
 10
-30.0
 20
-3.1365000000000101
 30
0.0
 11
-24.449999999999989
 21
-3.1365000000000101
 31
0.0
  0
LINE
  5
422F
  8
241
  6
CONTINUOUS
 10
-30.0
 20
3.1364999999999821
 30
0.0
 11
-24.449999999999989
 21
3.1365000000000101
 31
0.0
  0
LINE
  5
4231
  8
240
  6
CONTINUOUS
 10
0.0
 20
-24.990000000000009
 30
0.0
 11
0.0
 21
-16.45500659935669
 31
0.0
  0
LINE
  5
4232
  8
241
  6
CONTINUOUS
 10
0.0
 20
16.455006599356661
 30
0.0
 11
0.0
 21
-16.455006599356661
 31
0.0
  0
LINE
  5
4233
  8
240
  6
CONTINUOUS
 10
0.0
 20
24.990000000000009
 30
0.0
 11
0.0
 21
16.45500659935669
 31
0.0
  0
LINE
  5
4234
  8
250
  6
CONTINUOUS
 10
-17.38864389586044
 20
-17.617856090630511
 30
0.0
 11
-16.09996876036638
 21
-16.0524719504686
 31
0.0
  0
LINE
  5
4235
  8
250
  6
CONTINUOUS
 10
-16.811293626862291
 20
-17.95118942429551
 30
0.0
 11
-16.09996876036638
 21
-16.0524719504686
 31
0.0
  0
LINE
  5
4236
  8
250
  6
CONTINUOUS
 10
-16.09996876036638
 20
-16.0524719504686
 30
0.0
 11
-17.099968761361371
 21
-17.784522757463009
 31
0.0
  0
LINE
  5
4237
  8
250
  6
CONTINUOUS
 10
-17.099968761361371
 20
-17.784522757463009
 30
0.0
 11
-21.011170980366391
 21
-24.55892371046858
 31
0.0
  0
TEXT
  5
4238
  8
250
  6
CONTINUOUS
 10
-28.87783764036638
 20
-23.55892371046858
 30
0.0
 40
2.799999999999998
  1
C5
  7
YOKO
  0
LINE
  5
4239
  8
250
  6
CONTINUOUS
 10
-21.011170980366391
 20
-24.55892371046858
 30
0.0
 11
-31.277837640366389
 21
-24.55892371046858
 31
0.0
1001
ITEMNAME
1000
LNSP2
  0
LINE
  5
423A
  8
247
  6
CONTINUOUS
 10
3.9999999999999432
 20
-10.75
 30
0.0
 11
4.0
 21
-6.1153846156700231
 31
0.0
  0
LINE
  5
423B
  8
247
  6
CONTINUOUS
 10
1.5
 20
-9.9548934999879464
 30
0.0
 11
3.5999999999160082
 21
-10.557058810057351
 31
0.0
  0
LINE
  5
423C
  8
247
  6
CONTINUOUS
 10
2.496153846113998
 20
-9.3251514035190421
 30
0.0
 11
2.496153846113998
 21
-10.240536018867029
 31
0.0
  0
ARC
  5
423D
  8
247
  6
CONTINUOUS
 10
1.8847190672940981
 20
-9.0872634019468101
 30
0.0
 40
0.3876715809326743
 50
72.997889675291773
 51
172.924166218512
  0
ARC
  5
423E
  8
247
  6
CONTINUOUS
 10
1.805223131028014
 20
-9.3824775568041048
 30
0.0
 40
0.6933047965358772
 50
4.7429368522022122
 51
73.849226273266297
1001
GENIUS_GENOBJ-N-FIL_13
1002
{
1000
OWNER
1000
GEN
1002
}
1001
GENIUS_GENODEF_13
1002
{
1000
HIER
1070
     0
1002
}
1002
{
1000
MANEDIT
1070
     0
1002
}
1002
{
1000
NOSEL
1070
     0
1002
}
1002
{
1000
BEHIND
1070
     0
1002
}
1002
{
1000
OTHER
1070
     0
1002
}
1002
{
1000
REACTOR
1002
}
  0
LINE
  5
423F
  8
247
  6
CONTINUOUS
 10
3.5999999999160082
 20
-9.6416741947093634
 30
0.0
 11
3.5999999999160082
 21
-10.557058810057351
 31
0.0
  0
LINE
  5
4240
  8
247
  6
CONTINUOUS
 10
1.5
 20
-9.9548934999879464
 30
0.0
 11
1.5
 21
-9.0395088846399272
 31
0.0
  0
ARC
  5
4241
  8
247
  6
CONTINUOUS
 10
2.8874169627678721
 20
-9.3783064762668271
 30
0.0
 40
0.394857301075386
 50
65.990941652528889
 51
172.26344345906909
  0
ARC
  5
4242
  8
247
  6
CONTINUOUS
 10
2.8912003273325682
 20
-9.7124466104269231
 30
0.0
 40
0.7123241612361686
 50
5.7019851642580841
 51
77.277338436822376
1001
GENIUS_GENOBJ-N-FIL_13
1002
{
1000
OWNER
1000
GEN
1002
}
1001
GENIUS_GENODEF_13
1002
{
1000
HIER
1070
     0
1002
}
1002
{
1000
MANEDIT
1070
     0
1002
}
1002
{
1000
NOSEL
1070
     0
1002
}
1002
{
1000
BEHIND
1070
     0
1002
}
1002
{
1000
OTHER
1070
     0
1002
}
1002
{
1000
REACTOR
1002
}
  0
LINE
  5
4243
  8
247
  6
CONTINUOUS
 10
3.5999999999160082
 20
-8.683981887063366
 30
0.0
 11
1.5
 21
-8.0818165769939583
 31
0.0
  0
LINE
  5
4244
  8
247
  6
CONTINUOUS
 10
1.5
 20
-6.5856627309079512
 30
0.0
 11
1.5
 21
-6.9816783643035762
 31
0.0
  0
LINE
  5
4245
  8
247
  6
CONTINUOUS
 10
3.5999999999160082
 20
-7.6087396539439531
 30
0.0
 11
3.5999999999160082
 21
-7.1779704231919652
 31
0.0
  0
ARC
  5
4246
  8
247
  6
CONTINUOUS
 10
2.9582995950833602
 20
-6.3818165770699684
 30
0.0
 40
1.576855057639547
 50
202.35948814152769
 51
254.99324854284609
  0
ARC
  5
4247
  8
247
  6
CONTINUOUS
 10
2.0658188585381341
 20
-6.8475113661332321
 30
0.0
 40
0.6234706797009447
 50
94.994589319075317
 51
155.1663289573039
1001
GENIUS_GENOBJ-N-FIL_13
1002
{
1000
OWNER
1000
GEN
1002
}
1001
GENIUS_GENODEF_13
1002
{
1000
HIER
1070
     0
1002
}
1002
{
1000
MANEDIT
1070
     0
1002
}
1002
{
1000
NOSEL
1070
     0
1002
}
1002
{
1000
BEHIND
1070
     0
1002
}
1002
{
1000
OTHER
1070
     0
1002
}
1002
{
1000
REACTOR
1002
}
  0
ARC
  5
4248
  8
247
  6
CONTINUOUS
 10
2.6621021219694381
 20
-7.4441839510327554
 30
0.0
 40
0.9749472149106983
 50
15.8460965557808
 51
82.325137004169065
  0
ARC
  5
4249
  8
247
  6
CONTINUOUS
 10
2.8714704019710662
 20
-7.035211638772207
 30
0.0
 40
0.9271945638692009
 50
249.7136016704969
 51
321.78874565640928
1001
GENIUS_GENOBJ-N-FIL_13
1002
{
1000
OWNER
1000
GEN
1002
}
1001
GENIUS_GENODEF_13
1002
{
1000
HIER
1070
     0
1002
}
1002
{
1000
MANEDIT
1070
     0
1002
}
1002
{
1000
NOSEL
1070
     0
1002
}
1002
{
1000
BEHIND
1070
     0
1002
}
1002
{
1000
OTHER
1070
     0
1002
}
1002
{
1000
REACTOR
1002
}
  0
LINE
  5
424A
  8
247
  6
CONTINUOUS
 10
2.792307692255974
 20
-6.962585807815965
 30
0.0
 11
2.792307692255974
 21
-6.4779704232199711
 31
0.0
  0
ARC
  5
424B
  8
247
  6
CONTINUOUS
 10
2.75
 20
-10.75
 30
0.0
 40
1.25
 50
180.0
 51
0.0
  0
LINE
  5
424C
  8
247
  6
CONTINUOUS
 10
1.5
 20
-10.75
 30
0.0
 11
1.5
 21
-10.30384615391398
 31
0.0
  0
ARC
  5
424D
  8
247
  6
CONTINUOUS
 10
2.75
 20
-6.115384615669992
 30
0.0
 40
1.25
 50
0.0
 51
180.0
  0
LINE
  5
4250
  8
241
  6
CONTINUOUS
 10
7.949853629974462
 20
7.1748188999999911
 30
0.0
 11
7.949853629974462
 21
23.937879479999989
 31
0.0
  0
LINE
  5
4251
  8
241
  6
CONTINUOUS
 10
12.04985362997448
 20
7.1748188999999911
 30
0.0
 11
12.04985362997448
 21
23.937879479999989
 31
0.0
  0
LINE
  5
4252
  8
241
  6
CONTINUOUS
 10
7.949853629974462
 20
7.1748188999999911
 30
0.0
 11
12.04985362997448
 21
7.1748188999999911
 31
0.0
  0
LINE
  5
4253
  8
241
  6
CONTINUOUS
 10
7.949853629974462
 20
23.937879479999989
 30
0.0
 11
12.04985362997448
 21
23.937879479999989
 31
0.0
  0
ARC
  5
4254
  8
241
  6
CONTINUOUS
 10
24.51236613052135
 20
15.55634918999999
 30
0.0
 40
18.562512500546848
 50
153.1581137773484
 51
206.84188622265151
  0
ARC
  5
4255
  8
241
  6
CONTINUOUS
 10
-4.5126588705724
 20
15.55634918999999
 30
0.0
 40
18.56251250054688
 50
333.15811377734849
 51
26.8418862226515
  0
LINE
  5
4256
  8
241
  6
CONTINUOUS
 10
7.949853629974462
 20
-7.1748188999999911
 30
0.0
 11
7.949853629974462
 21
-23.937879479999989
 31
0.0
  0
LINE
  5
4257
  8
241
  6
CONTINUOUS
 10
12.04985362997448
 20
-7.1748188999999911
 30
0.0
 11
12.04985362997448
 21
-23.937879479999989
 31
0.0
  0
LINE
  5
4258
  8
241
  6
CONTINUOUS
 10
7.949853629974462
 20
-7.1748188999999911
 30
0.0
 11
12.04985362997448
 21
-7.1748188999999911
 31
0.0
  0
LINE
  5
4259
  8
241
  6
CONTINUOUS
 10
7.949853629974462
 20
-23.937879479999989
 30
0.0
 11
12.04985362997448
 21
-23.937879479999989
 31
0.0
  0
ARC
  5
425A
  8
241
  6
CONTINUOUS
 10
24.51236613052135
 20
-15.55634918999999
 30
0.0
 40
18.562512500546848
 50
153.1581137773484
 51
206.84188622265151
  0
ARC
  5
425B
  8
241
  6
CONTINUOUS
 10
-4.5126588705724
 20
-15.55634918999999
 30
0.0
 40
18.56251250054688
 50
333.15811377734849
 51
26.8418862226515
  0
ARC
  5
425C
  8
241
  6
CONTINUOUS
 10
-26.117045743255812
 20
0.0
 30
0.0
 40
3.5519957432558109
 50
297.99058731019232
 51
62.00941268980776
  0
LINE
  5
4269
  8
240
  6
CONTINUOUS
 10
0.0
 20
-24.990000000000009
 30
0.0
 11
50.0
 21
-24.990000000000009
 31
0.0
1001
GRPNAME
1000
PASTMD1X
  0
LINE
  5
426A
  8
240
  6
CONTINUOUS
 10
50.0
 20
24.990000000000009
 30
0.0
 11
50.0
 21
-24.990000000000009
 31
0.0
1001
GRPNAME
1000
PASTMD1U
  0
LINE
  5
426B
  8
240
  6
CONTINUOUS
 10
0.0
 20
24.990000000000009
 30
0.0
 11
50.0
 21
24.990000000000009
 31
0.0
1001
GRPNAME
1000
PASTMD1X
  0
TEXT
  5
42EA
  8
241
  6
CONTINUOUS
 10
-30.0
 20
49.0
 30
0.0
 40
5.0
  1
C5-CKB5-50
  7
YOKO
 11
-30.0
 21
49.0
 31
0.0
 73
     1
  0
LINE
  5
430A
  8
243
  6
HIDDEN2
 10
50.0
 20
14.0
 30
0.0
 11
17.949999999999989
 21
14.0
 31
0.0
  0
LINE
  5
430B
  8
243
  6
HIDDEN2
 10
50.0
 20
-14.0
 30
0.0
 11
17.949999999999989
 21
-14.0
 31
0.0
  0
POLYLINE
  5
430C
  8
241
  6
CONTINUOUS
 66
     1
 10
0.0
 20
0.0
 30
0.0
 70
     1
  0
VERTEX
  5
430D
  8
241
  6
CONTINUOUS
 10
34.499999999999858
 20
-1.443375669999998
 30
0.0
  0
VERTEX
  5
430E
  8
241
  6
CONTINUOUS
 10
36.999999999999851
 20
-2.8867513499999991
 30
0.0
  0
VERTEX
  5
430F
  8
241
  6
CONTINUOUS
 10
39.499999999999851
 20
-1.443375669999998
 30
0.0
  0
VERTEX
  5
4310
  8
241
  6
CONTINUOUS
 10
39.499999999999851
 20
1.443375669999998
 30
0.0
  0
VERTEX
  5
4311
  8
241
  6
CONTINUOUS
 10
36.999999999999851
 20
2.8867513499999991
 30
0.0
  0
VERTEX
  5
4312
  8
241
  6
CONTINUOUS
 10
34.499999999999858
 20
1.443375669999998
 30
0.0
  0
SEQEND
  5
4313
  8
241
  6
CONTINUOUS
  0
CIRCLE
  5
4314
  8
242
 10
36.999999999999851
 20
0.0
 30
0.0
 40
4.5
  0
CIRCLE
  5
4315
  8
241
  6
CONTINUOUS
 10
36.999999999999851
 20
0.0
 30
0.0
 40
5.1500000000000004
  0
LINE
  5
4316
  8
245
  6
CENTER2
 10
36.999999999999851
 20
6.1982482399999981
 30
0.0
 11
36.999999999999851
 21
-6.1500000000000004
 31
0.0
  0
TEXT
  5
431C
  8
250
  6
CONTINUOUS
 10
55.09296324649128
 20
39.902749409999998
 30
0.0
 40
2.799999999999998
  1
CK5
  7
YOKO
1001
ITEMNAME
1000
LNSP3
1001
ACAD
1000
MTEXTBEGIN
1070
    73
1070
     1
1070
    44
1040
1.0
1070
    74
1070
     0
1000
MTEXTEND
1000
MTEXTBEGIN
1070
    73
1070
     1
1070
    44
1040
1.0
1070
    74
1070
     0
1000
MTEXTEND
1000
MTEXTBEGIN
1070
    73
1070
     1
1070
    44
1040
1.0
1070
    74
1070
     0
1000
MTEXTEND
  0
LINE
  5
431D
  8
250
  6
CONTINUOUS
 10
47.50267128466956
 20
26.565384140840571
 30
0.0
 11
46.213996149999858
 21
25.0
 31
0.0
  0
LINE
  5
431E
  8
250
  6
CONTINUOUS
 10
46.925321015495889
 20
26.898717474201529
 30
0.0
 11
46.213996149999858
 21
25.0
 31
0.0
  0
LINE
  5
431F
  8
250
  6
CONTINUOUS
 10
46.213996149999858
 20
25.0
 30
0.0
 11
47.213996150082707
 21
26.732050807521041
 31
0.0
  0
LINE
  5
4320
  8
250
  6
CONTINUOUS
 10
50.5
 20
24.990000000000009
 30
0.0
 11
64.0
 21
24.989999999999998
 31
0.0
  0
LINE
  5
4321
  8
250
  6
CONTINUOUS
 10
50.5
 20
-24.990000000000009
 30
0.0
 11
63.999999999999993
 21
-24.990000000000009
 31
0.0
  0
LINE
  5
4322
  8
250
  6
CONTINUOUS
 10
63.0
 20
22.760000000000009
 30
0.0
 11
63.0
 21
-22.760000000000009
 31
0.0
  0
TEXT
  5
4327
  8
250
  6
CONTINUOUS
 10
62.000000000000007
 20
-7.2666666666666542
 30
0.0
 40
2.799999999999998
  1
\U+220549.98
 50
90.0
  0
LINE
  5
4328
  8
250
  6
CONTINUOUS
 10
63.37166666666667
 20
-22.760000000000009
 30
0.0
 11
63.0
 21
-24.990000000000009
 31
0.0
  0
LINE
  5
4329
  8
250
  6
CONTINUOUS
 10
62.62833333333333
 20
-22.760000000000009
 30
0.0
 11
63.0
 21
-24.990000000000009
 31
0.0
  0
LINE
  5
432A
  8
250
  6
CONTINUOUS
 10
63.0
 20
-24.990000000000009
 30
0.0
 11
63.0
 21
-22.760000000000009
 31
0.0
  0
LINE
  5
432B
  8
250
  6
CONTINUOUS
 10
62.62833333333333
 20
22.760000000000009
 30
0.0
 11
63.0
 21
24.989999999999998
 31
0.0
  0
LINE
  5
432C
  8
250
  6
CONTINUOUS
 10
63.371666666666677
 20
22.760000000000009
 30
0.0
 11
63.0
 21
24.989999999999998
 31
0.0
  0
LINE
  5
432D
  8
250
  6
CONTINUOUS
 10
63.0
 20
24.989999999999998
 30
0.0
 11
63.0
 21
22.760000000000009
 31
0.0
  0
LINE
  5
432E
  8
250
  6
CONTINUOUS
 10
0.0
 20
25.490000000000009
 30
0.0
 11
0.0000000000000007
 21
36.0
 31
0.0
  0
LINE
  5
432F
  8
250
  6
CONTINUOUS
 10
50.0
 20
25.490000000000009
 30
0.0
 11
50.0
 21
36.0
 31
0.0
  0
LINE
  5
4330
  8
250
  6
CONTINUOUS
 10
2.2299999999999991
 20
35.0
 30
0.0
 11
47.770000000000003
 21
35.0
 31
0.0
  0
LINE
  5
4334
  8
250
  6
CONTINUOUS
 10
47.213996150082707
 20
26.732050807521041
 30
0.0
 11
54.240752265225993
 21
38.902749409999998
 31
0.0
1001
ACAD
1000
DSTYLE
1002
{
1070
     6
1000
OPEN
1070
    41
1040
2.0
1070
    42
1040
2.0
1070
    44
1040
2.0
1070
    79
1070
     2
1070
   140
1040
4.0
1070
   179
1070
     3
1070
   343
1005
0
1070
   371
1070
    -1
1070
   372
1070
    -1
1002
}
  0
LINE
  5
4335
  8
250
  6
CONTINUOUS
 10
54.240752265225993
 20
38.902749409999998
 30
0.0
 11
64.01782420417176
 21
38.902749409999998
 31
0.0
1001
ACAD
1000
DSTYLE
1002
{
1070
     6
1000
OPEN
1070
    41
1040
2.0
1070
    42
1040
2.0
1070
    44
1040
2.0
1070
    79
1070
     2
1070
   140
1040
4.0
1070
   179
1070
     3
1070
   343
1005
0
1070
   371
1070
    -1
1070
   372
1070
    -1
1002
}
  0
TEXT
  5
4336
  8
250
  6
CONTINUOUS
 10
22.333333333333339
 20
36.0
 30
0.0
 40
2.799999999999998
  1
50
  0
LINE
  5
4337
  8
250
  6
CONTINUOUS
 10
47.770000000000003
 20
35.37166666666667
 30
0.0
 11
50.0
 21
35.0
 31
0.0
  0
LINE
  5
4338
  8
250
  6
CONTINUOUS
 10
47.770000000000003
 20
34.62833333333333
 30
0.0
 11
50.0
 21
35.0
 31
0.0
  0
LINE
  5
4339
  8
250
  6
CONTINUOUS
 10
50.0
 20
35.0
 30
0.0
 11
47.770000000000003
 21
35.0
 31
0.0
  0
LINE
  5
433A
  8
250
  6
CONTINUOUS
 10
2.2299999999999991
 20
34.62833333333333
 30
0.0
 11
0.0000000000000006
 21
35.0
 31
0.0
  0
LINE
  5
433B
  8
250
  6
CONTINUOUS
 10
2.2299999999999991
 20
35.37166666666667
 30
0.0
 11
0.0000000000000006
 21
35.0
 31
0.0
  0
LINE
  5
433C
  8
250
  6
CONTINUOUS
 10
0.0000000000000006
 20
35.0
 30
0.0
 11
2.2299999999999991
 21
35.0
 31
0.0
  0
LINE
  5
4892
  8
245
  6
CENTER2
 10
-83.959990660292448
 20
0.0000000000000284
 30
0.0
 11
-42.04000933970741
 21
0.0000000000000284
 31
0.0
  0
LINE
  5
4893
  8
245
  6
CENTER2
 10
-62.999999999999972
 20
-20.959990660292501
 30
0.0
 11
-62.999999999999972
 21
20.959990660292561
 31
0.0
  0
CIRCLE
  5
4894
  8
241
  6
CONTINUOUS
 10
-62.999999999999901
 20
0.0000000000000284
 30
0.0
 40
7.2999999999999989
  0
CIRCLE
  5
4895
  8
241
  6
CONTINUOUS
 10
-62.999999999999901
 20
0.0000000000000284
 30
0.0
 40
10.5
  0
CIRCLE
  5
4896
  8
242
  6
CONTINUOUS
 10
-62.999999999999901
 20
0.0000000000000284
 30
0.0
 40
8.0
  0
ARC
  5
4897
  8
241
  6
CONTINUOUS
 10
-82.000043381809562
 20
-0.0208282551874282
 30
0.0
 40
5.0
 50
306.51022146512571
 51
54.665942943817818
  0
ARC
  5
4898
  8
241
  6
CONTINUOUS
 10
-41.750043381809569
 20
-0.0208282551874282
 30
0.0
 40
5.0
 50
131.4160892754532
 51
227.92889618021661
  0
POLYLINE
  5
4899
  8
240
 66
     1
 10
0.0
 20
0.0
 30
0.0
 70
     8
  0
VERTEX
  5
489A
  8
240
 10
-54.810000000000002
 20
14.185499999999999
 30
0.0
 70
    32
  0
VERTEX
  5
489B
  8
240
 10
-54.590800000000002
 20
14.0596
 30
0.0
 70
    32
  0
VERTEX
  5
489C
  8
240
 10
-54.372999999999998
 20
13.931800000000001
 30
0.0
 70
    32
  0
VERTEX
  5
489D
  8
240
 10
-54.156399999999991
 20
13.802199999999999
 30
0.0
 70
    32
  0
VERTEX
  5
489E
  8
240
 10
-53.941299999999998
 20
13.6707
 30
0.0
 70
    32
  0
VERTEX
  5
489F
  8
240
 10
-53.727499999999992
 20
13.5374
 30
0.0
 70
    32
  0
VERTEX
  5
48A0
  8
240
 10
-53.5152
 20
13.4024
 30
0.0
 70
    32
  0
VERTEX
  5
48A1
  8
240
 10
-53.304299999999991
 20
13.265499999999999
 30
0.0
 70
    32
  0
VERTEX
  5
48A2
  8
240
 10
-53.094999999999992
 20
13.126899999999999
 30
0.0
 70
    32
  0
VERTEX
  5
48A3
  8
240
 10
-52.8872
 20
12.986700000000001
 30
0.0
 70
    32
  0
VERTEX
  5
48A4
  8
240
 10
-52.680999999999997
 20
12.8447
 30
0.0
 70
    32
  0
VERTEX
  5
48A5
  8
240
 10
-52.476399999999998
 20
12.701000000000001
 30
0.0
 70
    32
  0
VERTEX
  5
48A6
  8
240
 10
-52.273499999999999
 20
12.5557
 30
0.0
 70
    32
  0
VERTEX
  5
48A7
  8
240
 10
-52.072200000000002
 20
12.408799999999999
 30
0.0
 70
    32
  0
VERTEX
  5
48A8
  8
240
 10
-51.872700000000002
 20
12.260300000000001
 30
0.0
 70
    32
  0
VERTEX
  5
48A9
  8
240
 10
-51.674999999999997
 20
12.110200000000001
 30
0.0
 70
    32
  0
VERTEX
  5
48AA
  8
240
 10
-51.479100000000003
 20
11.958500000000001
 30
0.0
 70
    32
  0
VERTEX
  5
48AB
  8
240
 10
-51.284999999999989
 20
11.805400000000001
 30
0.0
 70
    32
  0
VERTEX
  5
48AC
  8
240
 10
-51.0929
 20
11.650700000000001
 30
0.0
 70
    32
  0
VERTEX
  5
48AD
  8
240
 10
-50.9026
 20
11.4946
 30
0.0
 70
    32
  0
VERTEX
  5
48AE
  8
240
 10
-50.714300000000001
 20
11.337
 30
0.0
 70
    32
  0
VERTEX
  5
48AF
  8
240
 10
-50.527900000000002
 20
11.178000000000001
 30
0.0
 70
    32
  0
VERTEX
  5
48B0
  8
240
 10
-50.343600000000002
 20
11.0175
 30
0.0
 70
    32
  0
VERTEX
  5
48B1
  8
240
 10
-50.1614
 20
10.855700000000001
 30
0.0
 70
    32
  0
VERTEX
  5
48B2
  8
240
 10
-49.98129999999999
 20
10.692600000000001
 30
0.0
 70
    32
  0
VERTEX
  5
48B3
  8
240
 10
-49.8033
 20
10.5281
 30
0.0
 70
    32
  0
VERTEX
  5
48B4
  8
240
 10
-49.627400000000002
 20
10.362299999999999
 30
0.0
 70
    32
  0
VERTEX
  5
48B5
  8
240
 10
-49.453800000000001
 20
10.1952
 30
0.0
 70
    32
  0
VERTEX
  5
48B6
  8
240
 10
-49.282499999999999
 20
10.0268
 30
0.0
 70
    32
  0
VERTEX
  5
48B7
  8
240
 10
-49.113399999999999
 20
9.8572399999999991
 30
0.0
 70
    32
  0
VERTEX
  5
48B8
  8
240
 10
-48.946599999999997
 20
9.6864299999999997
 30
0.0
 70
    32
  0
VERTEX
  5
48B9
  8
240
 10
-48.782200000000003
 20
9.5144399999999987
 30
0.0
 70
    32
  0
VERTEX
  5
48BA
  8
240
 10
-48.620199999999997
 20
9.3412899999999972
 30
0.0
 70
    32
  0
VERTEX
  5
48BB
  8
240
 10
-48.460599999999999
 20
9.1669900000000002
 30
0.0
 70
    32
  0
VERTEX
  5
48BC
  8
240
 10
-48.3035
 20
8.9915800000000008
 30
0.0
 70
    32
  0
VERTEX
  5
48BD
  8
240
 10
-48.148899999999998
 20
8.8150700000000004
 30
0.0
 70
    32
  0
VERTEX
  5
48BE
  8
240
 10
-47.996899999999997
 20
8.6374899999999997
 30
0.0
 70
    32
  0
VERTEX
  5
48BF
  8
240
 10
-47.8474
 20
8.4588699999999992
 30
0.0
 70
    32
  0
VERTEX
  5
48C0
  8
240
 10
-47.700499999999998
 20
8.2792300000000001
 30
0.0
 70
    32
  0
VERTEX
  5
48C1
  8
240
 10
-47.5563
 20
8.0985899999999997
 30
0.0
 70
    32
  0
VERTEX
  5
48C2
  8
240
 10
-47.4148
 20
7.9169700000000001
 30
0.0
 70
    32
  0
VERTEX
  5
48C3
  8
240
 10
-47.276000000000003
 20
7.7344099999999996
 30
0.0
 70
    32
  0
VERTEX
  5
48C4
  8
240
 10
-47.13989999999999
 20
7.5509199999999987
 30
0.0
 70
    32
  0
VERTEX
  5
48C5
  8
240
 10
-47.006700000000002
 20
7.36653
 30
0.0
 70
    32
  0
VERTEX
  5
48C6
  8
240
 10
-46.876300000000001
 20
7.18126
 30
0.0
 70
    32
  0
VERTEX
  5
48C7
  8
240
 10
-46.748800000000003
 20
6.9951399999999992
 30
0.0
 70
    32
  0
VERTEX
  5
48C8
  8
240
 10
-46.624200000000002
 20
6.8081899999999989
 30
0.0
 70
    32
  0
VERTEX
  5
48C9
  8
240
 10
-46.502499999999991
 20
6.6204399999999994
 30
0.0
 70
    32
  0
VERTEX
  5
48CA
  8
240
 10
-46.383800000000001
 20
6.4318999999999988
 30
0.0
 70
    32
  0
VERTEX
  5
48CB
  8
240
 10
-46.26809999999999
 20
6.2426099999999991
 30
0.0
 70
    32
  0
VERTEX
  5
48CC
  8
240
 10
-46.155500000000004
 20
6.052579999999999
 30
0.0
 70
    32
  0
VERTEX
  5
48CD
  8
240
 10
-46.045999999999999
 20
5.8618399999999991
 30
0.0
 70
    32
  0
VERTEX
  5
48CE
  8
240
 10
-45.939599999999999
 20
5.67042
 30
0.0
 70
    32
  0
VERTEX
  5
48CF
  8
240
 10
-45.836300000000001
 20
5.4783299999999997
 30
0.0
 70
    32
  0
VERTEX
  5
48D0
  8
240
 10
-45.7363
 20
5.2856100000000001
 30
0.0
 70
    32
  0
VERTEX
  5
48D1
  8
240
 10
-45.639499999999998
 20
5.0922700000000001
 30
0.0
 70
    32
  0
VERTEX
  5
48D2
  8
240
 10
-45.545999999999992
 20
4.8983400000000001
 30
0.0
 70
    32
  0
VERTEX
  5
48D3
  8
240
 10
-45.455800000000004
 20
4.7038500000000001
 30
0.0
 70
    32
  0
VERTEX
  5
48D4
  8
240
 10
-45.369
 20
4.5088200000000001
 30
0.0
 70
    32
  0
VERTEX
  5
48D5
  8
240
 10
-45.285499999999999
 20
4.3132599999999988
 30
0.0
 70
    32
  0
VERTEX
  5
48D6
  8
240
 10
-45.205500000000001
 20
4.1172199999999988
 30
0.0
 70
    32
  0
VERTEX
  5
48D7
  8
240
 10
-45.128900000000002
 20
3.9207000000000001
 30
0.0
 70
    32
  0
VERTEX
  5
48D8
  8
240
 10
-45.055799999999998
 20
3.7237399999999998
 30
0.0
 70
    32
  0
VERTEX
  5
48D9
  8
240
 10
-44.9863
 20
3.5263599999999991
 30
0.0
 70
    32
  0
VERTEX
  5
48DA
  8
240
 10
-44.92029999999999
 20
3.3285800000000001
 30
0.0
 70
    32
  0
VERTEX
  5
48DB
  8
240
 10
-44.857900000000001
 20
3.1304199999999991
 30
0.0
 70
    32
  0
VERTEX
  5
48DC
  8
240
 10
-44.799199999999992
 20
2.9319099999999989
 30
0.0
 70
    32
  0
VERTEX
  5
48DD
  8
240
 10
-44.744199999999999
 20
2.7330799999999988
 30
0.0
 70
    32
  0
VERTEX
  5
48DE
  8
240
 10
-44.692799999999998
 20
2.533949999999999
 30
0.0
 70
    32
  0
VERTEX
  5
48DF
  8
240
 10
-44.645299999999992
 20
2.3345400000000001
 30
0.0
 70
    32
  0
VERTEX
  5
48E0
  8
240
 10
-44.601500000000001
 20
2.1348699999999998
 30
0.0
 70
    32
  0
VERTEX
  5
48E1
  8
240
 10
-44.561500000000002
 20
1.9349700000000001
 30
0.0
 70
    32
  0
VERTEX
  5
48E2
  8
240
 10
-44.525399999999991
 20
1.7348699999999999
 30
0.0
 70
    32
  0
VERTEX
  5
48E3
  8
240
 10
-44.493299999999991
 20
1.534589999999999
 30
0.0
 70
    32
  0
VERTEX
  5
48E4
  8
240
 10
-44.465000000000003
 20
1.334139999999999
 30
0.0
 70
    32
  0
VERTEX
  5
48E5
  8
240
 10
-44.440699999999993
 20
1.1335699999999991
 30
0.0
 70
    32
  0
VERTEX
  5
48E6
  8
240
 10
-44.420499999999997
 20
0.9328780000000001
 30
0.0
 70
    32
  0
VERTEX
  5
48E7
  8
240
 10
-44.404299999999999
 20
0.732104
 30
0.0
 70
    32
  0
VERTEX
  5
48E8
  8
240
 10
-44.392099999999999
 20
0.5312680000000001
 30
0.0
 70
    32
  0
VERTEX
  5
48E9
  8
240
 10
-44.384099999999997
 20
0.330393
 30
0.0
 70
    32
  0
VERTEX
  5
48EA
  8
240
 10
-44.380299999999998
 20
0.129503
 30
0.0
 70
    32
  0
VERTEX
  5
48EB
  8
240
 10
-44.380600000000001
 20
-0.0713766
 30
0.0
 70
    32
  0
VERTEX
  5
48EC
  8
240
 10
-44.38519999999999
 20
-0.272225
 30
0.0
 70
    32
  0
VERTEX
  5
48ED
  8
240
 10
-44.393900000000002
 20
-0.4730240000000001
 30
0.0
 70
    32
  0
VERTEX
  5
48EE
  8
240
 10
-44.406699999999987
 20
-0.673754
 30
0.0
 70
    32
  0
VERTEX
  5
48EF
  8
240
 10
-44.42369999999999
 20
-0.8743969999999999
 30
0.0
 70
    32
  0
VERTEX
  5
48F0
  8
240
 10
-44.444800000000001
 20
-1.07494
 30
0.0
 70
    32
  0
VERTEX
  5
48F1
  8
240
 10
-44.469900000000003
 20
-1.2753499999999991
 30
0.0
 70
    32
  0
VERTEX
  5
48F2
  8
240
 10
-44.499000000000002
 20
-1.4756199999999999
 30
0.0
 70
    32
  0
VERTEX
  5
48F3
  8
240
 10
-44.5321
 20
-1.6757299999999991
 30
0.0
 70
    32
  0
VERTEX
  5
48F4
  8
240
 10
-44.569099999999992
 20
-1.8756699999999999
 30
0.0
 70
    32
  0
VERTEX
  5
48F5
  8
240
 10
-44.610100000000003
 20
-2.0754000000000001
 30
0.0
 70
    32
  0
VERTEX
  5
48F6
  8
240
 10
-44.654899999999991
 20
-2.2749199999999998
 30
0.0
 70
    32
  0
VERTEX
  5
48F7
  8
240
 10
-44.703600000000002
 20
-2.4742099999999989
 30
0.0
 70
    32
  0
VERTEX
  5
48F8
  8
240
 10
-44.756100000000004
 20
-2.6732399999999998
 30
0.0
 70
    32
  0
VERTEX
  5
48F9
  8
240
 10
-44.81239999999999
 20
-2.871999999999999
 30
0.0
 70
    32
  0
VERTEX
  5
48FA
  8
240
 10
-44.872399999999992
 20
-3.0704699999999998
 30
0.0
 70
    32
  0
VERTEX
  5
48FB
  8
240
 10
-44.936199999999992
 20
-3.2686399999999991
 30
0.0
 70
    32
  0
VERTEX
  5
48FC
  8
240
 10
-45.003700000000002
 20
-3.4664799999999998
 30
0.0
 70
    32
  0
VERTEX
  5
48FD
  8
240
 10
-45.074800000000003
 20
-3.6639699999999991
 30
0.0
 70
    32
  0
VERTEX
  5
48FE
  8
240
 10
-45.149500000000003
 20
-3.8611
 30
0.0
 70
    32
  0
VERTEX
  5
48FF
  8
240
 10
-45.227899999999991
 20
-4.0578500000000002
 30
0.0
 70
    32
  0
VERTEX
  5
4900
  8
240
 10
-45.309800000000003
 20
-4.2541900000000004
 30
0.0
 70
    32
  0
VERTEX
  5
4901
  8
240
 10
-45.395200000000003
 20
-4.4501200000000001
 30
0.0
 70
    32
  0
VERTEX
  5
4902
  8
240
 10
-45.484099999999991
 20
-4.6456200000000001
 30
0.0
 70
    32
  0
VERTEX
  5
4903
  8
240
 10
-45.576500000000003
 20
-4.8406500000000001
 30
0.0
 70
    32
  0
VERTEX
  5
4904
  8
240
 10
-45.6723
 20
-5.0352199999999989
 30
0.0
 70
    32
  0
VERTEX
  5
4905
  8
240
 10
-45.771500000000003
 20
-5.2292899999999989
 30
0.0
 70
    32
  0
VERTEX
  5
4906
  8
240
 10
-45.874099999999999
 20
-5.4228500000000004
 30
0.0
 70
    32
  0
VERTEX
  5
4907
  8
240
 10
-45.97999999999999
 20
-5.6158799999999998
 30
0.0
 70
    32
  0
VERTEX
  5
4908
  8
240
 10
-46.089199999999998
 20
-5.8083599999999986
 30
0.0
 70
    32
  0
VERTEX
  5
4909
  8
240
 10
-46.201700000000002
 20
-6.0002800000000001
 30
0.0
 70
    32
  0
VERTEX
  5
490A
  8
240
 10
-46.317399999999992
 20
-6.1916099999999989
 30
0.0
 70
    32
  0
VERTEX
  5
490B
  8
240
 10
-46.436300000000003
 20
-6.3823400000000001
 30
0.0
 70
    32
  0
VERTEX
  5
490C
  8
240
 10
-46.558399999999999
 20
-6.572449999999999
 30
0.0
 70
    32
  0
VERTEX
  5
490D
  8
240
 10
-46.683599999999991
 20
-6.761919999999999
 30
0.0
 70
    32
  0
VERTEX
  5
490E
  8
240
 10
-46.811899999999987
 20
-6.9507300000000001
 30
0.0
 70
    32
  0
VERTEX
  5
490F
  8
240
 10
-46.943299999999986
 20
-7.1388600000000002
 30
0.0
 70
    32
  0
VERTEX
  5
4910
  8
240
 10
-47.077800000000003
 20
-7.3262999999999989
 30
0.0
 70
    32
  0
VERTEX
  5
4911
  8
240
 10
-47.215200000000003
 20
-7.5130299999999997
 30
0.0
 70
    32
  0
VERTEX
  5
4912
  8
240
 10
-47.355699999999999
 20
-7.6990199999999991
 30
0.0
 70
    32
  0
VERTEX
  5
4913
  8
240
 10
-47.499099999999991
 20
-7.884269999999999
 30
0.0
 70
    32
  0
VERTEX
  5
4914
  8
240
 10
-47.645400000000002
 20
-8.06874
 30
0.0
 70
    32
  0
VERTEX
  5
4915
  8
240
 10
-47.794499999999992
 20
-8.2524300000000004
 30
0.0
 70
    32
  0
VERTEX
  5
4916
  8
240
 10
-47.946599999999989
 20
-8.4353100000000012
 30
0.0
 70
    32
  0
VERTEX
  5
4917
  8
240
 10
-48.101399999999998
 20
-8.6173699999999993
 30
0.0
 70
    32
  0
VERTEX
  5
4918
  8
240
 10
-48.259
 20
-8.798589999999999
 30
0.0
 70
    32
  0
VERTEX
  5
4919
  8
240
 10
-48.41940000000001
 20
-8.9789399999999997
 30
0.0
 70
    32
  0
VERTEX
  5
491A
  8
240
 10
-48.582500000000003
 20
-9.1584199999999996
 30
0.0
 70
    32
  0
VERTEX
  5
491B
  8
240
 10
-48.7483
 20
-9.3369999999999997
 30
0.0
 70
    32
  0
VERTEX
  5
491C
  8
240
 10
-48.916699999999999
 20
-9.514660000000001
 30
0.0
 70
    32
  0
VERTEX
  5
491D
  8
240
 10
-49.087699999999998
 20
-9.6913900000000002
 30
0.0
 70
    32
  0
VERTEX
  5
491E
  8
240
 10
-49.261400000000002
 20
-9.8671600000000002
 30
0.0
 70
    32
  0
VERTEX
  5
491F
  8
240
 10
-49.43760000000001
 20
-10.042
 30
0.0
 70
    32
  0
VERTEX
  5
4920
  8
240
 10
-49.616300000000003
 20
-10.2158
 30
0.0
 70
    32
  0
VERTEX
  5
4921
  8
240
 10
-49.797499999999999
 20
-10.3886
 30
0.0
 70
    32
  0
VERTEX
  5
4922
  8
240
 10
-49.981200000000001
 20
-10.5604
 30
0.0
 70
    32
  0
VERTEX
  5
4923
  8
240
 10
-50.16729999999999
 20
-10.7311
 30
0.0
 70
    32
  0
VERTEX
  5
4924
  8
240
 10
-50.355800000000002
 20
-10.9008
 30
0.0
 70
    32
  0
VERTEX
  5
4925
  8
240
 10
-50.546599999999998
 20
-11.0694
 30
0.0
 70
    32
  0
VERTEX
  5
4926
  8
240
 10
-50.739800000000002
 20
-11.236800000000001
 30
0.0
 70
    32
  0
VERTEX
  5
4927
  8
240
 10
-50.935299999999998
 20
-11.4032
 30
0.0
 70
    32
  0
VERTEX
  5
4928
  8
240
 10
-51.133000000000003
 20
-11.5684
 30
0.0
 70
    32
  0
VERTEX
  5
4929
  8
240
 10
-51.332999999999998
 20
-11.7325
 30
0.0
 70
    32
  0
VERTEX
  5
492A
  8
240
 10
-51.535200000000003
 20
-11.8954
 30
0.0
 70
    32
  0
VERTEX
  5
492B
  8
240
 10
-51.73960000000001
 20
-12.0571
 30
0.0
 70
    32
  0
VERTEX
  5
492C
  8
240
 10
-51.945999999999998
 20
-12.217599999999999
 30
0.0
 70
    32
  0
VERTEX
  5
492D
  8
240
 10
-52.154600000000002
 20
-12.376899999999999
 30
0.0
 70
    32
  0
VERTEX
  5
492E
  8
240
 10
-52.365299999999998
 20
-12.5349
 30
0.0
 70
    32
  0
VERTEX
  5
492F
  8
240
 10
-52.578000000000003
 20
-12.691700000000001
 30
0.0
 70
    32
  0
VERTEX
  5
4930
  8
240
 10
-52.792700000000004
 20
-12.847099999999999
 30
0.0
 70
    32
  0
VERTEX
  5
4931
  8
240
 10
-53.009399999999999
 20
-13.001300000000001
 30
0.0
 70
    32
  0
VERTEX
  5
4932
  8
240
 10
-53.228000000000002
 20
-13.1541
 30
0.0
 70
    32
  0
VERTEX
  5
4933
  8
240
 10
-53.448500000000003
 20
-13.3056
 30
0.0
 70
    32
  0
VERTEX
  5
4934
  8
240
 10
-53.67090000000001
 20
-13.4558
 30
0.0
 70
    32
  0
VERTEX
  5
4935
  8
240
 10
-53.895200000000003
 20
-13.6046
 30
0.0
 70
    32
  0
VERTEX
  5
4936
  8
240
 10
-54.121299999999998
 20
-13.751899999999999
 30
0.0
 70
    32
  0
VERTEX
  5
4937
  8
240
 10
-54.3491
 20
-13.8979
 30
0.0
 70
    32
  0
VERTEX
  5
4938
  8
240
 10
-54.578699999999991
 20
-14.042400000000001
 30
0.0
 70
    32
  0
VERTEX
  5
4939
  8
240
 10
-54.810000000000002
 20
-14.185499999999999
 30
0.0
 70
    32
  0
SEQEND
  5
493A
  8
240
  0
POLYLINE
  5
493B
  8
240
 66
     1
 10
0.0
 20
0.0
 30
0.0
 70
     8
  0
VERTEX
  5
493C
  8
240
 10
-79.379999999999995
 20
0.0000000000002967
 30
0.0
 70
    32
  0
VERTEX
  5
493D
  8
240
 10
-79.380600000000001
 20
0.252745
 30
0.0
 70
    32
  0
VERTEX
  5
493E
  8
240
 10
-79.378799999999984
 20
0.505312
 30
0.0
 70
    32
  0
VERTEX
  5
493F
  8
240
 10
-79.374799999999993
 20
0.7576580000000001
 30
0.0
 70
    32
  0
VERTEX
  5
4940
  8
240
 10
-79.368600000000001
 20
1.009739999999999
 30
0.0
 70
    32
  0
VERTEX
  5
4941
  8
240
 10
-79.359999999999985
 20
1.2615099999999999
 30
0.0
 70
    32
  0
VERTEX
  5
4942
  8
240
 10
-79.349199999999996
 20
1.512929999999999
 30
0.0
 70
    32
  0
VERTEX
  5
4943
  8
240
 10
-79.336100000000002
 20
1.763949999999999
 30
0.0
 70
    32
  0
VERTEX
  5
4944
  8
240
 10
-79.320800000000006
 20
2.0145400000000002
 30
0.0
 70
    32
  0
VERTEX
  5
4945
  8
240
 10
-79.303200000000004
 20
2.2646399999999991
 30
0.0
 70
    32
  0
VERTEX
  5
4946
  8
240
 10
-79.283299999999997
 20
2.5142099999999989
 30
0.0
 70
    32
  0
VERTEX
  5
4947
  8
240
 10
-79.261200000000002
 20
2.7632099999999991
 30
0.0
 70
    32
  0
VERTEX
  5
4948
  8
240
 10
-79.236800000000002
 20
3.0115899999999991
 30
0.0
 70
    32
  0
VERTEX
  5
4949
  8
240
 10
-79.2102
 20
3.2593200000000002
 30
0.0
 70
    32
  0
VERTEX
  5
494A
  8
240
 10
-79.181299999999993
 20
3.5063399999999998
 30
0.0
 70
    32
  0
VERTEX
  5
494B
  8
240
 10
-79.150199999999998
 20
3.752619999999999
 30
0.0
 70
    32
  0
VERTEX
  5
494C
  8
240
 10
-79.116799999999998
 20
3.9981100000000001
 30
0.0
 70
    32
  0
VERTEX
  5
494D
  8
240
 10
-79.081199999999995
 20
4.2427599999999988
 30
0.0
 70
    32
  0
VERTEX
  5
494E
  8
240
 10
-79.043400000000005
 20
4.4865300000000001
 30
0.0
 70
    32
  0
VERTEX
  5
494F
  8
240
 10
-79.003299999999996
 20
4.729379999999999
 30
0.0
 70
    32
  0
VERTEX
  5
4950
  8
240
 10
-78.960999999999999
 20
4.9712699999999987
 30
0.0
 70
    32
  0
VERTEX
  5
4951
  8
240
 10
-78.916399999999996
 20
5.2121399999999989
 30
0.0
 70
    32
  0
VERTEX
  5
4952
  8
240
 10
-78.869699999999995
 20
5.4519599999999988
 30
0.0
 70
    32
  0
VERTEX
  5
4953
  8
240
 10
-78.820599999999999
 20
5.69069
 30
0.0
 70
    32
  0
VERTEX
  5
4954
  8
240
 10
-78.769400000000005
 20
5.9282699999999986
 30
0.0
 70
    32
  0
VERTEX
  5
4955
  8
240
 10
-78.715900000000005
 20
6.1646700000000001
 30
0.0
 70
    32
  0
VERTEX
  5
4956
  8
240
 10
-78.660300000000007
 20
6.3998400000000002
 30
0.0
 70
    32
  0
VERTEX
  5
4957
  8
240
 10
-78.602400000000003
 20
6.6337399999999986
 30
0.0
 70
    32
  0
VERTEX
  5
4958
  8
240
 10
-78.542299999999997
 20
6.8663199999999991
 30
0.0
 70
    32
  0
VERTEX
  5
4959
  8
240
 10
-78.479900000000001
 20
7.09755
 30
0.0
 70
    32
  0
VERTEX
  5
495A
  8
240
 10
-78.415400000000005
 20
7.3273699999999993
 30
0.0
 70
    32
  0
VERTEX
  5
495B
  8
240
 10
-78.348600000000005
 20
7.5557399999999992
 30
0.0
 70
    32
  0
VERTEX
  5
495C
  8
240
 10
-78.279700000000005
 20
7.7826199999999988
 30
0.0
 70
    32
  0
VERTEX
  5
495D
  8
240
 10
-78.208500000000001
 20
8.0079600000000006
 30
0.0
 70
    32
  0
VERTEX
  5
495E
  8
240
 10
-78.135199999999998
 20
8.2317300000000007
 30
0.0
 70
    32
  0
VERTEX
  5
495F
  8
240
 10
-78.059600000000003
 20
8.4538700000000002
 30
0.0
 70
    32
  0
VERTEX
  5
4960
  8
240
 10
-77.981899999999996
 20
8.6743399999999991
 30
0.0
 70
    32
  0
VERTEX
  5
4961
  8
240
 10
-77.901899999999983
 20
8.8931100000000001
 30
0.0
 70
    32
  0
VERTEX
  5
4962
  8
240
 10
-77.819800000000001
 20
9.1101200000000002
 30
0.0
 70
    32
  0
VERTEX
  5
4963
  8
240
 10
-77.735399999999998
 20
9.325330000000001
 30
0.0
 70
    32
  0
VERTEX
  5
4964
  8
240
 10
-77.648899999999998
 20
9.53871
 30
0.0
 70
    32
  0
VERTEX
  5
4965
  8
240
 10
-77.560199999999995
 20
9.7501899999999981
 30
0.0
 70
    32
  0
VERTEX
  5
4966
  8
240
 10
-77.469300000000004
 20
9.9597499999999997
 30
0.0
 70
    32
  0
VERTEX
  5
4967
  8
240
 10
-77.376199999999983
 20
10.167299999999999
 30
0.0
 70
    32
  0
VERTEX
  5
4968
  8
240
 10
-77.281000000000006
 20
10.3729
 30
0.0
 70
    32
  0
VERTEX
  5
4969
  8
240
 10
-77.183599999999998
 20
10.5764
 30
0.0
 70
    32
  0
VERTEX
  5
496A
  8
240
 10
-77.084000000000003
 20
10.777799999999999
 30
0.0
 70
    32
  0
VERTEX
  5
496B
  8
240
 10
-76.982200000000006
 20
10.9771
 30
0.0
 70
    32
  0
VERTEX
  5
496C
  8
240
 10
-76.878299999999996
 20
11.174099999999999
 30
0.0
 70
    32
  0
VERTEX
  5
496D
  8
240
 10
-76.772199999999998
 20
11.3689
 30
0.0
 70
    32
  0
VERTEX
  5
496E
  8
240
 10
-76.663899999999984
 20
11.561500000000001
 30
0.0
 70
    32
  0
VERTEX
  5
496F
  8
240
 10
-76.5535
 20
11.7517
 30
0.0
 70
    32
  0
VERTEX
  5
4970
  8
240
 10
-76.440899999999999
 20
11.9396
 30
0.0
 70
    32
  0
VERTEX
  5
4971
  8
240
 10
-76.3262
 20
12.125
 30
0.0
 70
    32
  0
VERTEX
  5
4972
  8
240
 10
-76.209299999999999
 20
12.308
 30
0.0
 70
    32
  0
VERTEX
  5
4973
  8
240
 10
-76.090299999999999
 20
12.4885
 30
0.0
 70
    32
  0
VERTEX
  5
4974
  8
240
 10
-75.969099999999997
 20
12.666399999999999
 30
0.0
 70
    32
  0
VERTEX
  5
4975
  8
240
 10
-75.845699999999994
 20
12.841799999999999
 30
0.0
 70
    32
  0
VERTEX
  5
4976
  8
240
 10
-75.720299999999995
 20
13.0145
 30
0.0
 70
    32
  0
VERTEX
  5
4977
  8
240
 10
-75.592600000000004
 20
13.1846
 30
0.0
 70
    32
  0
VERTEX
  5
4978
  8
240
 10
-75.462900000000005
 20
13.351900000000001
 30
0.0
 70
    32
  0
VERTEX
  5
4979
  8
240
 10
-75.331000000000003
 20
13.516500000000001
 30
0.0
 70
    32
  0
VERTEX
  5
497A
  8
240
 10
-75.196899999999999
 20
13.6782
 30
0.0
 70
    32
  0
VERTEX
  5
497B
  8
240
 10
-75.0608
 20
13.837199999999999
 30
0.0
 70
    32
  0
VERTEX
  5
497C
  8
240
 10
-74.922499999999999
 20
13.9932
 30
0.0
 70
    32
  0
VERTEX
  5
497D
  8
240
 10
-74.7821
 20
14.1463
 30
0.0
 70
    32
  0
VERTEX
  5
497E
  8
240
 10
-74.639499999999998
 20
14.2964
 30
0.0
 70
    32
  0
VERTEX
  5
497F
  8
240
 10
-74.494799999999998
 20
14.4435
 30
0.0
 70
    32
  0
VERTEX
  5
4980
  8
240
 10
-74.347999999999999
 20
14.5875
 30
0.0
 70
    32
  0
VERTEX
  5
4981
  8
240
 10
-74.199100000000001
 20
14.728400000000001
 30
0.0
 70
    32
  0
VERTEX
  5
4982
  8
240
 10
-74.048100000000005
 20
14.866099999999999
 30
0.0
 70
    32
  0
VERTEX
  5
4983
  8
240
 10
-73.894999999999996
 20
15.0007
 30
0.0
 70
    32
  0
VERTEX
  5
4984
  8
240
 10
-73.739699999999985
 20
15.132
 30
0.0
 70
    32
  0
VERTEX
  5
4985
  8
240
 10
-73.582400000000007
 20
15.26
 30
0.0
 70
    32
  0
VERTEX
  5
4986
  8
240
 10
-73.422899999999998
 20
15.3847
 30
0.0
 70
    32
  0
VERTEX
  5
4987
  8
240
 10
-73.261300000000006
 20
15.506
 30
0.0
 70
    32
  0
VERTEX
  5
4988
  8
240
 10
-73.097700000000003
 20
15.623900000000001
 30
0.0
 70
    32
  0
VERTEX
  5
4989
  8
240
 10
-72.931899999999999
 20
15.738300000000001
 30
0.0
 70
    32
  0
VERTEX
  5
498A
  8
240
 10
-72.763999999999996
 20
15.849299999999999
 30
0.0
 70
    32
  0
VERTEX
  5
498B
  8
240
 10
-72.594099999999983
 20
15.9566
 30
0.0
 70
    32
  0
VERTEX
  5
498C
  8
240
 10
-72.421999999999997
 20
16.060400000000001
 30
0.0
 70
    32
  0
VERTEX
  5
498D
  8
240
 10
-72.247900000000001
 20
16.160599999999999
 30
0.0
 70
    32
  0
VERTEX
  5
498E
  8
240
 10
-72.071700000000007
 20
16.257000000000001
 30
0.0
 70
    32
  0
VERTEX
  5
498F
  8
240
 10
-71.8934
 20
16.349900000000002
 30
0.0
 70
    32
  0
VERTEX
  5
4990
  8
240
 10
-71.713099999999997
 20
16.4391
 30
0.0
 70
    32
  0
VERTEX
  5
4991
  8
240
 10
-71.530900000000003
 20
16.524699999999999
 30
0.0
 70
    32
  0
VERTEX
  5
4992
  8
240
 10
-71.346699999999984
 20
16.6068
 30
0.0
 70
    32
  0
VERTEX
  5
4993
  8
240
 10
-71.160600000000002
 20
16.685199999999998
 30
0.0
 70
    32
  0
VERTEX
  5
4994
  8
240
 10
-70.9726
 20
16.760200000000001
 30
0.0
 70
    32
  0
VERTEX
  5
4995
  8
240
 10
-70.782700000000006
 20
16.831600000000002
 30
0.0
 70
    32
  0
VERTEX
  5
4996
  8
240
 10
-70.591099999999997
 20
16.8995
 30
0.0
 70
    32
  0
VERTEX
  5
4997
  8
240
 10
-70.397599999999997
 20
16.963899999999999
 30
0.0
 70
    32
  0
VERTEX
  5
4998
  8
240
 10
-70.202399999999997
 20
17.024799999999999
 30
0.0
 70
    32
  0
VERTEX
  5
4999
  8
240
 10
-70.005499999999998
 20
17.0823
 30
0.0
 70
    32
  0
VERTEX
  5
499A
  8
240
 10
-69.806899999999999
 20
17.136299999999999
 30
0.0
 70
    32
  0
VERTEX
  5
499B
  8
240
 10
-69.6066
 20
17.186900000000001
 30
0.0
 70
    32
  0
VERTEX
  5
499C
  8
240
 10
-69.404700000000005
 20
17.234200000000001
 30
0.0
 70
    32
  0
VERTEX
  5
499D
  8
240
 10
-69.2012
 20
17.277999999999999
 30
0.0
 70
    32
  0
VERTEX
  5
499E
  8
240
 10
-68.996099999999998
 20
17.3185
 30
0.0
 70
    32
  0
VERTEX
  5
499F
  8
240
 10
-68.789500000000004
 20
17.355699999999999
 30
0.0
 70
    32
  0
VERTEX
  5
49A0
  8
240
 10
-68.581400000000002
 20
17.389500000000002
 30
0.0
 70
    32
  0
VERTEX
  5
49A1
  8
240
 10
-68.371899999999997
 20
17.420000000000002
 30
0.0
 70
    32
  0
VERTEX
  5
49A2
  8
240
 10
-68.160899999999984
 20
17.447299999999998
 30
0.0
 70
    32
  0
VERTEX
  5
49A3
  8
240
 10
-67.948499999999996
 20
17.471299999999999
 30
0.0
 70
    32
  0
VERTEX
  5
49A4
  8
240
 10
-67.734700000000004
 20
17.492000000000001
 30
0.0
 70
    32
  0
VERTEX
  5
49A5
  8
240
 10
-67.519599999999997
 20
17.509499999999999
 30
0.0
 70
    32
  0
VERTEX
  5
49A6
  8
240
 10
-67.303200000000004
 20
17.523900000000001
 30
0.0
 70
    32
  0
VERTEX
  5
49A7
  8
240
 10
-67.085599999999999
 20
17.535
 30
0.0
 70
    32
  0
VERTEX
  5
49A8
  8
240
 10
-66.866600000000005
 20
17.542899999999999
 30
0.0
 70
    32
  0
VERTEX
  5
49A9
  8
240
 10
-66.646500000000003
 20
17.547699999999999
 30
0.0
 70
    32
  0
VERTEX
  5
49AA
  8
240
 10
-66.425200000000004
 20
17.549399999999999
 30
0.0
 70
    32
  0
VERTEX
  5
49AB
  8
240
 10
-66.202799999999996
 20
17.547899999999998
 30
0.0
 70
    32
  0
VERTEX
  5
49AC
  8
240
 10
-65.979200000000006
 20
17.543399999999998
 30
0.0
 70
    32
  0
VERTEX
  5
49AD
  8
240
 10
-65.754599999999996
 20
17.535799999999998
 30
0.0
 70
    32
  0
VERTEX
  5
49AE
  8
240
 10
-65.528899999999993
 20
17.525099999999998
 30
0.0
 70
    32
  0
VERTEX
  5
49AF
  8
240
 10
-65.302199999999985
 20
17.511399999999998
 30
0.0
 70
    32
  0
VERTEX
  5
49B0
  8
240
 10
-65.0745
 20
17.494599999999998
 30
0.0
 70
    32
  0
VERTEX
  5
49B1
  8
240
 10
-64.8459
 20
17.474900000000002
 30
0.0
 70
    32
  0
VERTEX
  5
49B2
  8
240
 10
-64.616299999999995
 20
17.452200000000001
 30
0.0
 70
    32
  0
VERTEX
  5
49B3
  8
240
 10
-64.385900000000007
 20
17.426500000000001
 30
0.0
 70
    32
  0
VERTEX
  5
49B4
  8
240
 10
-64.154600000000002
 20
17.3979
 30
0.0
 70
    32
  0
VERTEX
  5
49B5
  8
240
 10
-63.922499999999999
 20
17.366299999999999
 30
0.0
 70
    32
  0
VERTEX
  5
49B6
  8
240
 10
-63.689599999999999
 20
17.331900000000001
 30
0.0
 70
    32
  0
VERTEX
  5
49B7
  8
240
 10
-63.4559
 20
17.294499999999999
 30
0.0
 70
    32
  0
VERTEX
  5
49B8
  8
240
 10
-63.221499999999999
 20
17.254300000000001
 30
0.0
 70
    32
  0
VERTEX
  5
49B9
  8
240
 10
-62.986400000000003
 20
17.211300000000001
 30
0.0
 70
    32
  0
VERTEX
  5
49BA
  8
240
 10
-62.750700000000002
 20
17.165400000000002
 30
0.0
 70
    32
  0
VERTEX
  5
49BB
  8
240
 10
-62.514299999999999
 20
17.116700000000002
 30
0.0
 70
    32
  0
VERTEX
  5
49BC
  8
240
 10
-62.277299999999997
 20
17.065100000000001
 30
0.0
 70
    32
  0
VERTEX
  5
49BD
  8
240
 10
-62.0398
 20
17.010899999999999
 30
0.0
 70
    32
  0
VERTEX
  5
49BE
  8
240
 10
-61.801699999999997
 20
16.953800000000001
 30
0.0
 70
    32
  0
VERTEX
  5
49BF
  8
240
 10
-61.563099999999999
 20
16.894100000000002
 30
0.0
 70
    32
  0
VERTEX
  5
49C0
  8
240
 10
-61.324100000000001
 20
16.831600000000002
 30
0.0
 70
    32
  0
VERTEX
  5
49C1
  8
240
 10
-61.084600000000002
 20
16.766400000000001
 30
0.0
 70
    32
  0
VERTEX
  5
49C2
  8
240
 10
-60.844700000000003
 20
16.698499999999999
 30
0.0
 70
    32
  0
VERTEX
  5
49C3
  8
240
 10
-60.604500000000002
 20
16.628
 30
0.0
 70
    32
  0
VERTEX
  5
49C4
  8
240
 10
-60.363900000000001
 20
16.5548
 30
0.0
 70
    32
  0
VERTEX
  5
49C5
  8
240
 10
-60.12299999999999
 20
16.478999999999999
 30
0.0
 70
    32
  0
VERTEX
  5
49C6
  8
240
 10
-59.881799999999991
 20
16.400600000000001
 30
0.0
 70
    32
  0
VERTEX
  5
49C7
  8
240
 10
-59.640300000000011
 20
16.319600000000001
 30
0.0
 70
    32
  0
VERTEX
  5
49C8
  8
240
 10
-59.398699999999991
 20
16.2361
 30
0.0
 70
    32
  0
VERTEX
  5
49C9
  8
240
 10
-59.1569
 20
16.149899999999999
 30
0.0
 70
    32
  0
VERTEX
  5
49CA
  8
240
 10
-58.91490000000001
 20
16.061299999999999
 30
0.0
 70
    32
  0
VERTEX
  5
49CB
  8
240
 10
-58.672800000000002
 20
15.9702
 30
0.0
 70
    32
  0
VERTEX
  5
49CC
  8
240
 10
-58.430700000000002
 20
15.8765
 30
0.0
 70
    32
  0
VERTEX
  5
49CD
  8
240
 10
-58.188400000000001
 20
15.7804
 30
0.0
 70
    32
  0
VERTEX
  5
49CE
  8
240
 10
-57.946199999999997
 20
15.681800000000001
 30
0.0
 70
    32
  0
VERTEX
  5
49CF
  8
240
 10
-57.704000000000001
 20
15.5808
 30
0.0
 70
    32
  0
VERTEX
  5
49D0
  8
240
 10
-57.46179999999999
 20
15.477399999999999
 30
0.0
 70
    32
  0
VERTEX
  5
49D1
  8
240
 10
-57.219700000000003
 20
15.371499999999999
 30
0.0
 70
    32
  0
VERTEX
  5
49D2
  8
240
 10
-56.977699999999999
 20
15.263299999999999
 30
0.0
 70
    32
  0
VERTEX
  5
49D3
  8
240
 10
-56.735900000000001
 20
15.152799999999999
 30
0.0
 70
    32
  0
VERTEX
  5
49D4
  8
240
 10
-56.494199999999999
 20
15.039899999999999
 30
0.0
 70
    32
  0
VERTEX
  5
49D5
  8
240
 10
-56.252699999999997
 20
14.9246
 30
0.0
 70
    32
  0
VERTEX
  5
49D6
  8
240
 10
-56.011499999999998
 20
14.8071
 30
0.0
 70
    32
  0
VERTEX
  5
49D7
  8
240
 10
-55.770499999999991
 20
14.6873
 30
0.0
 70
    32
  0
VERTEX
  5
49D8
  8
240
 10
-55.529800000000002
 20
14.565200000000001
 30
0.0
 70
    32
  0
VERTEX
  5
49D9
  8
240
 10
-55.289499999999997
 20
14.440799999999999
 30
0.0
 70
    32
  0
VERTEX
  5
49DA
  8
240
 10
-55.049599999999998
 20
14.314299999999999
 30
0.0
 70
    32
  0
VERTEX
  5
49DB
  8
240
 10
-54.810000000000002
 20
14.185499999999999
 30
0.0
 70
    32
  0
SEQEND
  5
49DC
  8
240
  0
POLYLINE
  5
49DD
  8
240
 66
     1
 10
0.0
 20
0.0
 30
0.0
 70
     8
  0
VERTEX
  5
49DE
  8
240
 10
-54.810000000000002
 20
-14.185499999999999
 30
0.0
 70
    32
  0
VERTEX
  5
49DF
  8
240
 10
-55.028599999999997
 20
-14.3123
 30
0.0
 70
    32
  0
VERTEX
  5
49E0
  8
240
 10
-55.248199999999997
 20
-14.437099999999999
 30
0.0
 70
    32
  0
VERTEX
  5
49E1
  8
240
 10
-55.468699999999998
 20
-14.559900000000001
 30
0.0
 70
    32
  0
VERTEX
  5
49E2
  8
240
 10
-55.690199999999997
 20
-14.6805
 30
0.0
 70
    32
  0
VERTEX
  5
49E3
  8
240
 10
-55.912500000000001
 20
-14.7989
 30
0.0
 70
    32
  0
VERTEX
  5
49E4
  8
240
 10
-56.13559999999999
 20
-14.9153
 30
0.0
 70
    32
  0
VERTEX
  5
49E5
  8
240
 10
-56.3596
 20
-15.029500000000001
 30
0.0
 70
    32
  0
VERTEX
  5
49E6
  8
240
 10
-56.584200000000003
 20
-15.141500000000001
 30
0.0
 70
    32
  0
VERTEX
  5
49E7
  8
240
 10
-56.809600000000003
 20
-15.251300000000001
 30
0.0
 70
    32
  0
VERTEX
  5
49E8
  8
240
 10
-57.035699999999999
 20
-15.3589
 30
0.0
 70
    32
  0
VERTEX
  5
49E9
  8
240
 10
-57.2624
 20
-15.4642
 30
0.0
 70
    32
  0
VERTEX
  5
49EA
  8
240
 10
-57.489699999999992
 20
-15.567299999999999
 30
0.0
 70
    32
  0
VERTEX
  5
49EB
  8
240
 10
-57.717599999999997
 20
-15.668100000000001
 30
0.0
 70
    32
  0
VERTEX
  5
49EC
  8
240
 10
-57.945900000000002
 20
-15.7666
 30
0.0
 70
    32
  0
VERTEX
  5
49ED
  8
240
 10
-58.174799999999991
 20
-15.8628
 30
0.0
 70
    32
  0
VERTEX
  5
49EE
  8
240
 10
-58.404000000000003
 20
-15.9567
 30
0.0
 70
    32
  0
VERTEX
  5
49EF
  8
240
 10
-58.63369999999999
 20
-16.048100000000002
 30
0.0
 70
    32
  0
VERTEX
  5
49F0
  8
240
 10
-58.863799999999991
 20
-16.1373
 30
0.0
 70
    32
  0
VERTEX
  5
49F1
  8
240
 10
-59.094099999999997
 20
-16.224
 30
0.0
 70
    32
  0
VERTEX
  5
49F2
  8
240
 10
-59.3247
 20
-16.308299999999999
 30
0.0
 70
    32
  0
VERTEX
  5
49F3
  8
240
 10
-59.555599999999998
 20
-16.3901
 30
0.0
 70
    32
  0
VERTEX
  5
49F4
  8
240
 10
-59.78670000000001
 20
-16.4695
 30
0.0
 70
    32
  0
VERTEX
  5
49F5
  8
240
 10
-60.018000000000001
 20
-16.546399999999998
 30
0.0
 70
    32
  0
VERTEX
  5
49F6
  8
240
 10
-60.249299999999998
 20
-16.620799999999999
 30
0.0
 70
    32
  0
VERTEX
  5
49F7
  8
240
 10
-60.480800000000002
 20
-16.692699999999999
 30
0.0
 70
    32
  0
VERTEX
  5
49F8
  8
240
 10
-60.712299999999992
 20
-16.7621
 30
0.0
 70
    32
  0
VERTEX
  5
49F9
  8
240
 10
-60.94380000000001
 20
-16.828900000000001
 30
0.0
 70
    32
  0
VERTEX
  5
49FA
  8
240
 10
-61.1753
 20
-16.8931
 30
0.0
 70
    32
  0
VERTEX
  5
49FB
  8
240
 10
-61.406700000000001
 20
-16.954799999999999
 30
0.0
 70
    32
  0
VERTEX
  5
49FC
  8
240
 10
-61.637999999999998
 20
-17.0138
 30
0.0
 70
    32
  0
VERTEX
  5
49FD
  8
240
 10
-61.86910000000001
 20
-17.0702
 30
0.0
 70
    32
  0
VERTEX
  5
49FE
  8
240
 10
-62.100099999999998
 20
-17.123899999999999
 30
0.0
 70
    32
  0
VERTEX
  5
49FF
  8
240
 10
-62.330800000000011
 20
-17.174900000000001
 30
0.0
 70
    32
  0
VERTEX
  5
4A00
  8
240
 10
-62.561300000000003
 20
-17.223299999999998
 30
0.0
 70
    32
  0
VERTEX
  5
4A01
  8
240
 10
-62.791499999999999
 20
-17.268899999999999
 30
0.0
 70
    32
  0
VERTEX
  5
4A02
  8
240
 10
-63.021299999999997
 20
-17.311800000000002
 30
0.0
 70
    32
  0
VERTEX
  5
4A03
  8
240
 10
-63.250700000000002
 20
-17.352
 30
0.0
 70
    32
  0
VERTEX
  5
4A04
  8
240
 10
-63.479700000000001
 20
-17.389299999999999
 30
0.0
 70
    32
  0
VERTEX
  5
4A05
  8
240
 10
-63.708300000000001
 20
-17.4239
 30
0.0
 70
    32
  0
VERTEX
  5
4A06
  8
240
 10
-63.936300000000003
 20
-17.4557
 30
0.0
 70
    32
  0
VERTEX
  5
4A07
  8
240
 10
-64.163799999999995
 20
-17.4846
 30
0.0
 70
    32
  0
VERTEX
  5
4A08
  8
240
 10
-64.390699999999995
 20
-17.5107
 30
0.0
 70
    32
  0
VERTEX
  5
4A09
  8
240
 10
-64.617000000000004
 20
-17.533899999999999
 30
0.0
 70
    32
  0
VERTEX
  5
4A0A
  8
240
 10
-64.842699999999994
 20
-17.554200000000002
 30
0.0
 70
    32
  0
VERTEX
  5
4A0B
  8
240
 10
-65.067599999999985
 20
-17.5715
 30
0.0
 70
    32
  0
VERTEX
  5
4A0C
  8
240
 10
-65.291899999999984
 20
-17.585999999999999
 30
0.0
 70
    32
  0
VERTEX
  5
4A0D
  8
240
 10
-65.515299999999996
 20
-17.5975
 30
0.0
 70
    32
  0
VERTEX
  5
4A0E
  8
240
 10
-65.737899999999996
 20
-17.606000000000002
 30
0.0
 70
    32
  0
VERTEX
  5
4A0F
  8
240
 10
-65.959699999999998
 20
-17.611499999999999
 30
0.0
 70
    32
  0
VERTEX
  5
4A10
  8
240
 10
-66.180599999999984
 20
-17.614100000000001
 30
0.0
 70
    32
  0
VERTEX
  5
4A11
  8
240
 10
-66.400499999999994
 20
-17.613499999999998
 30
0.0
 70
    32
  0
VERTEX
  5
4A12
  8
240
 10
-66.619500000000002
 20
-17.609999999999999
 30
0.0
 70
    32
  0
VERTEX
  5
4A13
  8
240
 10
-66.837500000000006
 20
-17.603300000000001
 30
0.0
 70
    32
  0
VERTEX
  5
4A14
  8
240
 10
-67.054400000000001
 20
-17.593599999999999
 30
0.0
 70
    32
  0
VERTEX
  5
4A15
  8
240
 10
-67.270200000000003
 20
-17.5807
 30
0.0
 70
    32
  0
VERTEX
  5
4A16
  8
240
 10
-67.484899999999996
 20
-17.564800000000002
 30
0.0
 70
    32
  0
VERTEX
  5
4A17
  8
240
 10
-67.698400000000007
 20
-17.5456
 30
0.0
 70
    32
  0
VERTEX
  5
4A18
  8
240
 10
-67.910799999999995
 20
-17.523299999999999
 30
0.0
 70
    32
  0
VERTEX
  5
4A19
  8
240
 10
-68.121799999999993
 20
-17.497800000000002
 30
0.0
 70
    32
  0
VERTEX
  5
4A1A
  8
240
 10
-68.331599999999995
 20
-17.469100000000001
 30
0.0
 70
    32
  0
VERTEX
  5
4A1B
  8
240
 10
-68.540099999999995
 20
-17.437200000000001
 30
0.0
 70
    32
  0
VERTEX
  5
4A1C
  8
240
 10
-68.747200000000007
 20
-17.402000000000001
 30
0.0
 70
    32
  0
VERTEX
  5
4A1D
  8
240
 10
-68.9529
 20
-17.363499999999998
 30
0.0
 70
    32
  0
VERTEX
  5
4A1E
  8
240
 10
-69.157200000000003
 20
-17.3218
 30
0.0
 70
    32
  0
VERTEX
  5
4A1F
  8
240
 10
-69.359999999999985
 20
-17.276700000000002
 30
0.0
 70
    32
  0
VERTEX
  5
4A20
  8
240
 10
-69.561300000000003
 20
-17.228300000000001
 30
0.0
 70
    32
  0
VERTEX
  5
4A21
  8
240
 10
-69.760999999999996
 20
-17.176600000000001
 30
0.0
 70
    32
  0
VERTEX
  5
4A22
  8
240
 10
-69.959100000000007
 20
-17.121400000000001
 30
0.0
 70
    32
  0
VERTEX
  5
4A23
  8
240
 10
-70.155600000000007
 20
-17.062899999999999
 30
0.0
 70
    32
  0
VERTEX
  5
4A24
  8
240
 10
-70.350399999999993
 20
-17.001000000000001
 30
0.0
 70
    32
  0
VERTEX
  5
4A25
  8
240
 10
-70.543499999999995
 20
-16.935700000000001
 30
0.0
 70
    32
  0
VERTEX
  5
4A26
  8
240
 10
-70.734800000000007
 20
-16.866900000000001
 30
0.0
 70
    32
  0
VERTEX
  5
4A27
  8
240
 10
-70.924400000000006
 20
-16.794599999999999
 30
0.0
 70
    32
  0
VERTEX
  5
4A28
  8
240
 10
-71.112099999999984
 20
-16.718800000000002
 30
0.0
 70
    32
  0
VERTEX
  5
4A29
  8
240
 10
-71.297899999999984
 20
-16.639600000000002
 30
0.0
 70
    32
  0
VERTEX
  5
4A2A
  8
240
 10
-71.481899999999996
 20
-16.556799999999999
 30
0.0
 70
    32
  0
VERTEX
  5
4A2B
  8
240
 10
-71.663899999999984
 20
-16.470400000000001
 30
0.0
 70
    32
  0
VERTEX
  5
4A2C
  8
240
 10
-71.843800000000002
 20
-16.380500000000001
 30
0.0
 70
    32
  0
VERTEX
  5
4A2D
  8
240
 10
-72.021799999999999
 20
-16.286999999999999
 30
0.0
 70
    32
  0
VERTEX
  5
4A2E
  8
240
 10
-72.197699999999998
 20
-16.189900000000002
 30
0.0
 70
    32
  0
VERTEX
  5
4A2F
  8
240
 10
-72.371499999999983
 20
-16.089200000000002
 30
0.0
 70
    32
  0
VERTEX
  5
4A30
  8
240
 10
-72.543199999999985
 20
-15.9848
 30
0.0
 70
    32
  0
VERTEX
  5
4A31
  8
240
 10
-72.712699999999998
 20
-15.876899999999999
 30
0.0
 70
    32
  0
VERTEX
  5
4A32
  8
240
 10
-72.880099999999985
 20
-15.7654
 30
0.0
 70
    32
  0
VERTEX
  5
4A33
  8
240
 10
-73.045400000000001
 20
-15.6503
 30
0.0
 70
    32
  0
VERTEX
  5
4A34
  8
240
 10
-73.208500000000001
 20
-15.5318
 30
0.0
 70
    32
  0
VERTEX
  5
4A35
  8
240
 10
-73.369600000000005
 20
-15.4099
 30
0.0
 70
    32
  0
VERTEX
  5
4A36
  8
240
 10
-73.528400000000005
 20
-15.2845
 30
0.0
 70
    32
  0
VERTEX
  5
4A37
  8
240
 10
-73.685199999999995
 20
-15.155799999999999
 30
0.0
 70
    32
  0
VERTEX
  5
4A38
  8
240
 10
-73.839799999999997
 20
-15.0238
 30
0.0
 70
    32
  0
VERTEX
  5
4A39
  8
240
 10
-73.9923
 20
-14.888500000000001
 30
0.0
 70
    32
  0
VERTEX
  5
4A3A
  8
240
 10
-74.142700000000005
 20
-14.7499
 30
0.0
 70
    32
  0
VERTEX
  5
4A3B
  8
240
 10
-74.290899999999993
 20
-14.6081
 30
0.0
 70
    32
  0
VERTEX
  5
4A3C
  8
240
 10
-74.436999999999983
 20
-14.463100000000001
 30
0.0
 70
    32
  0
VERTEX
  5
4A3D
  8
240
 10
-74.581000000000003
 20
-14.3149
 30
0.0
 70
    32
  0
VERTEX
  5
4A3E
  8
240
 10
-74.722899999999996
 20
-14.1637
 30
0.0
 70
    32
  0
VERTEX
  5
4A3F
  8
240
 10
-74.8626
 20
-14.009399999999999
 30
0.0
 70
    32
  0
VERTEX
  5
4A40
  8
240
 10
-75.000200000000007
 20
-13.852
 30
0.0
 70
    32
  0
VERTEX
  5
4A41
  8
240
 10
-75.1357
 20
-13.691700000000001
 30
0.0
 70
    32
  0
VERTEX
  5
4A42
  8
240
 10
-75.269000000000005
 20
-13.5284
 30
0.0
 70
    32
  0
VERTEX
  5
4A43
  8
240
 10
-75.400300000000001
 20
-13.3622
 30
0.0
 70
    32
  0
VERTEX
  5
4A44
  8
240
 10
-75.529399999999995
 20
-13.193099999999999
 30
0.0
 70
    32
  0
VERTEX
  5
4A45
  8
240
 10
-75.656300000000002
 20
-13.0212
 30
0.0
 70
    32
  0
VERTEX
  5
4A46
  8
240
 10
-75.781199999999998
 20
-12.846399999999999
 30
0.0
 70
    32
  0
VERTEX
  5
4A47
  8
240
 10
-75.903899999999993
 20
-12.668900000000001
 30
0.0
 70
    32
  0
VERTEX
  5
4A48
  8
240
 10
-76.024500000000003
 20
-12.4886
 30
0.0
 70
    32
  0
VERTEX
  5
4A49
  8
240
 10
-76.143000000000001
 20
-12.3057
 30
0.0
 70
    32
  0
VERTEX
  5
4A4A
  8
240
 10
-76.259299999999996
 20
-12.120100000000001
 30
0.0
 70
    32
  0
VERTEX
  5
4A4B
  8
240
 10
-76.373500000000007
 20
-11.931800000000001
 30
0.0
 70
    32
  0
VERTEX
  5
4A4C
  8
240
 10
-76.485600000000005
 20
-11.741
 30
0.0
 70
    32
  0
VERTEX
  5
4A4D
  8
240
 10
-76.595600000000005
 20
-11.547700000000001
 30
0.0
 70
    32
  0
VERTEX
  5
4A4E
  8
240
 10
-76.703400000000002
 20
-11.351800000000001
 30
0.0
 70
    32
  0
VERTEX
  5
4A4F
  8
240
 10
-76.809100000000001
 20
-11.1534
 30
0.0
 70
    32
  0
VERTEX
  5
4A50
  8
240
 10
-76.912700000000001
 20
-10.9526
 30
0.0
 70
    32
  0
VERTEX
  5
4A51
  8
240
 10
-77.014200000000002
 20
-10.749499999999999
 30
0.0
 70
    32
  0
VERTEX
  5
4A52
  8
240
 10
-77.113500000000002
 20
-10.543900000000001
 30
0.0
 70
    32
  0
VERTEX
  5
4A53
  8
240
 10
-77.210800000000006
 20
-10.336
 30
0.0
 70
    32
  0
VERTEX
  5
4A54
  8
240
 10
-77.305899999999994
 20
-10.1259
 30
0.0
 70
    32
  0
VERTEX
  5
4A55
  8
240
 10
-77.398899999999983
 20
-9.9134799999999998
 30
0.0
 70
    32
  0
VERTEX
  5
4A56
  8
240
 10
-77.489699999999985
 20
-9.6988599999999998
 30
0.0
 70
    32
  0
VERTEX
  5
4A57
  8
240
 10
-77.578400000000002
 20
-9.4820700000000002
 30
0.0
 70
    32
  0
VERTEX
  5
4A58
  8
240
 10
-77.665099999999995
 20
-9.2631399999999982
 30
0.0
 70
    32
  0
VERTEX
  5
4A59
  8
240
 10
-77.749499999999998
 20
-9.0420999999999996
 30
0.0
 70
    32
  0
VERTEX
  5
4A5A
  8
240
 10
-77.831900000000005
 20
-8.8190100000000005
 30
0.0
 70
    32
  0
VERTEX
  5
4A5B
  8
240
 10
-77.912199999999999
 20
-8.5938800000000004
 30
0.0
 70
    32
  0
VERTEX
  5
4A5C
  8
240
 10
-77.990300000000005
 20
-8.3667699999999972
 30
0.0
 70
    32
  0
VERTEX
  5
4A5D
  8
240
 10
-78.066299999999998
 20
-8.1377100000000002
 30
0.0
 70
    32
  0
VERTEX
  5
4A5E
  8
240
 10
-78.140199999999993
 20
-7.9067299999999996
 30
0.0
 70
    32
  0
VERTEX
  5
4A5F
  8
240
 10
-78.2119
 20
-7.6738799999999996
 30
0.0
 70
    32
  0
VERTEX
  5
4A60
  8
240
 10
-78.281599999999997
 20
-7.4391800000000003
 30
0.0
 70
    32
  0
VERTEX
  5
4A61
  8
240
 10
-78.349100000000007
 20
-7.2026799999999991
 30
0.0
 70
    32
  0
VERTEX
  5
4A62
  8
240
 10
-78.414500000000004
 20
-6.9644199999999987
 30
0.0
 70
    32
  0
VERTEX
  5
4A63
  8
240
 10
-78.477800000000002
 20
-6.724429999999999
 30
0.0
 70
    32
  0
VERTEX
  5
4A64
  8
240
 10
-78.539000000000001
 20
-6.4827399999999988
 30
0.0
 70
    32
  0
VERTEX
  5
4A65
  8
240
 10
-78.597999999999985
 20
-6.2393999999999989
 30
0.0
 70
    32
  0
VERTEX
  5
4A66
  8
240
 10
-78.655000000000001
 20
-5.9944499999999987
 30
0.0
 70
    32
  0
VERTEX
  5
4A67
  8
240
 10
-78.709800000000001
 20
-5.7479199999999988
 30
0.0
 70
    32
  0
VERTEX
  5
4A68
  8
240
 10
-78.762500000000003
 20
-5.499839999999999
 30
0.0
 70
    32
  0
VERTEX
  5
4A69
  8
240
 10
-78.813000000000002
 20
-5.250259999999999
 30
0.0
 70
    32
  0
VERTEX
  5
4A6A
  8
240
 10
-78.861500000000007
 20
-4.9992199999999993
 30
0.0
 70
    32
  0
VERTEX
  5
4A6B
  8
240
 10
-78.907799999999995
 20
-4.7467399999999991
 30
0.0
 70
    32
  0
VERTEX
  5
4A6C
  8
240
 10
-78.951999999999984
 20
-4.492869999999999
 30
0.0
 70
    32
  0
VERTEX
  5
4A6D
  8
240
 10
-78.994100000000003
 20
-4.237639999999999
 30
0.0
 70
    32
  0
VERTEX
  5
4A6E
  8
240
 10
-79.034099999999995
 20
-3.98109
 30
0.0
 70
    32
  0
VERTEX
  5
4A6F
  8
240
 10
-79.072000000000003
 20
-3.723269999999999
 30
0.0
 70
    32
  0
VERTEX
  5
4A70
  8
240
 10
-79.107699999999994
 20
-3.4641999999999991
 30
0.0
 70
    32
  0
VERTEX
  5
4A71
  8
240
 10
-79.141400000000004
 20
-3.2039200000000001
 30
0.0
 70
    32
  0
VERTEX
  5
4A72
  8
240
 10
-79.172899999999998
 20
-2.9424700000000001
 30
0.0
 70
    32
  0
VERTEX
  5
4A73
  8
240
 10
-79.202299999999994
 20
-2.6798899999999999
 30
0.0
 70
    32
  0
VERTEX
  5
4A74
  8
240
 10
-79.229600000000005
 20
-2.4162099999999991
 30
0.0
 70
    32
  0
VERTEX
  5
4A75
  8
240
 10
-79.254800000000003
 20
-2.1514799999999989
 30
0.0
 70
    32
  0
VERTEX
  5
4A76
  8
240
 10
-79.277799999999999
 20
-1.885729999999999
 30
0.0
 70
    32
  0
VERTEX
  5
4A77
  8
240
 10
-79.2988
 20
-1.618989999999999
 30
0.0
 70
    32
  0
VERTEX
  5
4A78
  8
240
 10
-79.317599999999999
 20
-1.35131
 30
0.0
 70
    32
  0
VERTEX
  5
4A79
  8
240
 10
-79.334299999999999
 20
-1.0827100000000001
 30
0.0
 70
    32
  0
VERTEX
  5
4A7A
  8
240
 10
-79.3489
 20
-0.81325
 30
0.0
 70
    32
  0
VERTEX
  5
4A7B
  8
240
 10
-79.361400000000003
 20
-0.5429520000000001
 30
0.0
 70
    32
  0
VERTEX
  5
4A7C
  8
240
 10
-79.371700000000004
 20
-0.271856
 30
0.0
 70
    32
  0
VERTEX
  5
4A7D
  8
240
 10
-79.379999999999995
 20
-0.0000000000122917
 30
0.0
 70
    32
  0
SEQEND
  5
4A7E
  8
240
  0
VIEWPORT
  5
22
 67
     1
  8
0
 10
261.51769911504419
 20
148.5
 30
0.0
 40
523.0353982300885
 41
297.0
 68
     1
 69
     1
1001
ACAD
1000
MVIEW
1002
{
1070
    16
1010
0.0
1020
0.0
1030
0.0
1010
0.0
1020
0.0
1030
1.0
1040
0.0
1040
297.0
1040
261.51769911504419
1040
148.5
1040
50.0
1040
0.0
1040
0.0
1070
     0
1070
   100
1070
     1
1070
     1
1070
     0
1070
     0
1070
     0
1070
     0
1040
0.0
1040
0.0
1040
0.0
1040
1.0
1040
1.0
1040
10.0
1040
10.0
1070
     0
1002
{
1002
}
1002
}
1001
GENIUS_GENODEF_13
1002
{
1000
HIER
1070
     0
1002
}
1002
{
1000
MANEDIT
1070
     0
1002
}
1002
{
1000
NOSEL
1070
     0
1002
}
1002
{
1000
BEHIND
1070
     0
1002
}
1002
{
1000
OTHER
1070
     0
1002
}
1002
{
1000
REACTOR
1002
}
1001
GENIUS_GENOBJ-N-SDF_13
1002
{
1000
OWNER
1000
GEN
1002
}
1001
GENIUS_GENSCREG_15
1000
PF
1040
1.0
1000
DF
1040
1.0
1000
MIN
1011
0.0
1021
0.0
1031
0.0
1021
0.0
1031
0.0
1000
MAX
1011
523.0353982300885
1021
0.0
1031
0.0
1021
297.0
1031
0.0
1000
FLAGS
1070
     4
  0
ENDSEC
  0
EOF
