  0
SECTION
  2
HEADER
  9
$ACADVER
  1
AC1009
  9
$INSBASE
 10
0.0
 20
0.0
 30
0.0
  9
$EXTMIN
 10
-83.959990660292448
 20
-25.0
 30
0.0
  9
$EXTMAX
 10
87.520770370000179
 20
53.999999999999979
 30
0.0
  9
$LIMMIN
 10
0.0
 20
0.0
  9
$LIMMAX
 10
297.0
 20
210.0
  9
$ORTHOMODE
 70
     0
  9
$REGENMODE
 70
     1
  9
$FILLMODE
 70
     1
  9
$QTEXTMODE
 70
     0
  9
$MIRRTEXT
 70
     1
  9
$DRAGMODE
 70
     2
  9
$LTSCALE
 40
10.0
  9
$OSMODE
 70
    39
  9
$ATTMODE
 70
     1
  9
$TEXTSIZE
 40
3.0
  9
$TRACEWID
 40
1.0
  9
$TEXTSTYLE
  7
YOKO
  9
$CLAYER
  8
240
  9
$CELTYPE
  6
BYLAYER
  9
$CECOLOR
 62
   256
  9
$DIMSCALE
 40
1.0
  9
$DIMASZ
 40
2.2299999999999991
  9
$DIMEXO
 40
0.5
  9
$DIMDLI
 40
7.0
  9
$DIMRND
 40
0.0
  9
$DIMDLE
 40
0.0
  9
$DIMEXE
 40
1.0
  9
$DIMTP
 40
0.0
  9
$DIMTM
 40
0.01
  9
$DIMTXT
 40
2.799999999999998
  9
$DIMCEN
 40
0.0
  9
$DIMTSZ
 40
0.0
  9
$DIMTOL
 70
     0
  9
$DIMLIM
 70
     0
  9
$DIMTIH
 70
     0
  9
$DIMTOH
 70
     0
  9
$DIMSE1
 70
     0
  9
$DIMSE2
 70
     0
  9
$DIMTAD
 70
     3
  9
$DIMZIN
 70
     9
  9
$DIMBLK
  1
OPEN
  9
$DIMASO
 70
     1
  9
$DIMSHO
 70
     1
  9
$DIMPOST
  1

  9
$DIMAPOST
  1

  9
$DIMALT
 70
     0
  9
$DIMALTD
 70
     2
  9
$DIMALTF
 40
25.399999999999999
  9
$DIMLFAC
 40
1.0
  9
$DIMTOFL
 70
     1
  9
$DIMTVP
 40
0.0
  9
$DIMTIX
 70
     1
  9
$DIMSOXD
 70
     0
  9
$DIMSAH
 70
     0
  9
$DIMBLK1
  1

  9
$DIMBLK2
  1

  9
$DIMSTYLE
  2
BIGT
  9
$DIMCLRD
 70
   256
  9
$DIMCLRE
 70
   256
  9
$DIMCLRT
 70
    40
  9
$DIMTFAC
 40
1.0
  9
$DIMGAP
 40
1.0
  9
$LUNITS
 70
     2
  9
$LUPREC
 70
     6
  9
$SKETCHINC
 40
1.0
  9
$FILLETRAD
 40
5.0
  9
$AUNITS
 70
     0
  9
$AUPREC
 70
     6
  9
$MENU
  1
.
  9
$ELEVATION
 40
0.0
  9
$PELEVATION
 40
0.0
  9
$THICKNESS
 40
0.0
  9
$LIMCHECK
 70
     0
  9
$BLIPMODE
 70
     0
  9
$CHAMFERA
 40
0.2
  9
$CHAMFERB
 40
0.2
  9
$SKPOLY
 70
     0
  9
$TDCREATE
 40
2457745.7788988538
  9
$TDUPDATE
 40
2459608.529688484
  9
$TDINDWG
 40
0.0113898495
  9
$TDUSRTIMER
 40
0.0113898032
  9
$USRTIMER
 70
     1
  9
$ANGBASE
 50
0.0
  9
$ANGDIR
 70
     0
  9
$PDMODE
 70
     1
  9
$PDSIZE
 40
0.0
  9
$PLINEWID
 40
0.0
  9
$COORDS
 70
     1
  9
$SPLFRAME
 70
     0
  9
$SPLINETYPE
 70
     6
  9
$SPLINESEGS
 70
     4
  9
$ATTDIA
 70
     1
  9
$ATTREQ
 70
     1
  9
$HANDLING
 70
     1
  9
$HANDSEED
  5
4A58
  9
$SURFTAB1
 70
     6
  9
$SURFTAB2
 70
     6
  9
$SURFTYPE
 70
     6
  9
$SURFU
 70
     6
  9
$SURFV
 70
     6
  9
$UCSNAME
  2

  9
$UCSORG
 10
0.0
 20
0.0
 30
0.0
  9
$UCSXDIR
 10
1.0
 20
0.0
 30
0.0
  9
$UCSYDIR
 10
0.0
 20
1.0
 30
0.0
  9
$PUCSNAME
  2

  9
$PUCSORG
 10
0.0
 20
0.0
 30
0.0
  9
$PUCSXDIR
 10
1.0
 20
0.0
 30
0.0
  9
$PUCSYDIR
 10
0.0
 20
1.0
 30
0.0
  9
$USERI1
 70
     1
  9
$USERI2
 70
     0
  9
$USERI3
 70
     0
  9
$USERI4
 70
     0
  9
$USERI5
 70
     0
  9
$USERR1
 40
0.0
  9
$USERR2
 40
0.0
  9
$USERR3
 40
0.0
  9
$USERR4
 40
0.0
  9
$USERR5
 40
0.0
  9
$WORLDVIEW
 70
     1
  9
$SHADEDGE
 70
     3
  9
$SHADEDIF
 70
    70
  9
$TILEMODE
 70
     1
  9
$MAXACTVP
 70
    16
  9
$PLIMCHECK
 70
     0
  9
$PEXTMIN
 10
1.0000000000000000E+020
 20
1.0000000000000000E+020
 30
1.0000000000000000E+020
  9
$PEXTMAX
 10
-1.0000000000000000E+020
 20
-1.0000000000000000E+020
 30
-1.0000000000000000E+020
  9
$PLIMMIN
 10
0.0
 20
0.0
  9
$PLIMMAX
 10
420.0
 20
297.0
  9
$UNITMODE
 70
     0
  9
$VISRETAIN
 70
     1
  9
$PLINEGEN
 70
     0
  9
$PSLTSCALE
 70
     1
  0
ENDSEC
  0
SECTION
  2
TABLES
  0
TABLE
  2
VPORT
 70
     1
  0
VPORT
  2
*ACTIVE
 70
     0
 10
0.0
 20
0.0
 11
1.0
 21
1.0
 12
7.4479699195230182
 22
7.4741896487664681
 13
0.0
 23
0.0
 14
7.0
 24
7.0
 15
7.0
 25
7.0
 16
0.0
 26
0.0
 36
1.0
 17
0.0
 27
0.0
 37
0.0
 40
132.21914420005101
 41
1.488859764089121
 42
50.0
 43
0.0
 44
0.0
 50
0.0
 51
0.0
 71
     0
 72
  2000
 73
     1
 74
     0
 75
     0
 76
     1
 77
     0
 78
     0
  0
ENDTAB
  0
TABLE
  2
LTYPE
 70
    21
  0
LTYPE
  2
CONTINUOUS
 70
     0
  3
Solid line
 72
    65
 73
     0
 40
0.0
  0
LTYPE
  2
CENTER2
 70
     0
  3
___ _ ___ _ ___ _ ___ _ ___ _ ___ _ ___ _ ___ _
 72
    65
 73
     4
 40
1.125
 49
0.75
 49
-0.125
 49
0.125
 49
-0.125
  0
LTYPE
  2
HIDDEN2
 70
     0
  3
_ _ _ _ _ _ _ _ _ _ _ _ _ _ _ _ _ _ _ _ _ _ _ _
 72
    65
 73
     2
 40
0.1875
 49
0.125
 49
-0.0625
  0
LTYPE
  2
PHANTOM2
 70
     0
  3
___ _ _ ___ _ _ ___ _ _ ___ _ _ ___ _ _ ___ _ _
 72
    65
 73
     6
 40
1.25
 49
0.625
 49
-0.125
 49
0.125
 49
-0.125
 49
0.125
 49
-0.125
  0
LTYPE
  2
AMCONSTR
 70
     0
  3
_______________________
 72
    65
 73
     2
 40
9999.0
 49
9999.0
 49
0.0
  0
LTYPE
  2
HIDDEN
 70
     0
  3
Hidden __ __ __ __ __ __ __ __ __ __ __ __ __ _
 72
    65
 73
     2
 40
0.375
 49
0.25
 49
-0.125
  0
LTYPE
  2
CENTER
 70
     0
  3
Center ____ _ ____ _ ____ _ ____ _ ____ _ ____
 72
    65
 73
     4
 40
2.0
 49
1.25
 49
-0.25
 49
0.25
 49
-0.25
  0
LTYPE
  2
AMZIGZAG2
 70
     0
  3
/\/-/\/-/\/-/\/-/\/-/\/
 72
    65
 73
     2
 40
0.4401
 49
0.0001
 49
-0.4400000000000001
  0
LTYPE
  2
ACANSTGB
 70
     0
  3
__ . . __ . .
 72
    65
 73
     6
 40
0.35433070866
 49
0.15748031496
 49
-0.03937007874
 49
0.03937007874
 49
-0.03937007874
 49
0.03937007874
 49
-0.03937007874
  0
LTYPE
  2
ACANSTGL
 70
     0
  3
_ _ _ _ _
 72
    65
 73
     2
 40
0.11811023622
 49
0.07874015748
 49
-0.03937007874
  0
ENDTAB
  0
TABLE
  2
LAYER
 70
    10
  0
LAYER
  2
0
 70
     0
 62
     7
  6
CONTINUOUS
  0
LAYER
  2
240
 70
     0
 62
     4
  6
CONTINUOUS
  0
LAYER
  2
DEFPOINTS
 70
     0
 62
     7
  6
CONTINUOUS
  0
LAYER
  2
245
 70
     0
 62
     2
  6
CENTER2
  0
LAYER
  2
241
 70
     0
 62
   211
  6
CONTINUOUS
  0
LAYER
  2
242
 70
     0
 62
     3
  6
CONTINUOUS
  0
LAYER
  2
243
 70
     0
 62
   211
  6
HIDDEN2
  0
LAYER
  2
247
 70
     0
 62
    60
  6
CONTINUOUS
  0
LAYER
  2
250
 70
     0
 62
     3
  6
CONTINUOUS
  0
ENDTAB
  0
TABLE
  2
STYLE
 70
    10
  0
STYLE
  2
STANDARD
 70
     0
 40
0.0
 41
1.0
 50
0.0
 71
     0
 42
3.0
  3
romans.shx
  4
extfont.shx
  0
STYLE
  2
YOKO
 70
     0
 40
0.0
 41
1.0
 50
0.0
 71
     0
 42
3.0
  3
romans.shx
  4
extfont.shx
  0
STYLE
  2

 70
     1
 40
0.0
 41
1.0
 50
0.0
 71
     0
 42
3.0
  3
genltshp.shx
  4

  0
STYLE
  2
ACANSGDT
 70
     0
 40
0.0
 41
1.0
 50
0.0
 71
     0
 42
3.0
  3
amgdt.shx
  4

  0
ENDTAB
  0
TABLE
  2
VIEW
 70
     0
  0
ENDTAB
  0
TABLE
  2
UCS
 70
     0
  0
ENDTAB
  0
TABLE
  2
APPID
 70
    38
  0
APPID
  2
ACAD
 70
     0
  0
APPID
  2
ACADANNOTATIVE
 70
     0
  0
APPID
  2
GLOBAL
 70
     0
  0
APPID
  2
DETAIL
 70
     0
  0
APPID
  2
GRPNAME
 70
     0
  0
APPID
  2
GPARA
 70
     0
  0
APPID
  2
MCAD_NO_VIS
 70
     0
  0
APPID
  2
ACAD_TEMP_GRAPHIC
 70
     0
  0
APPID
  2
ACATTRIBSERVICES
 70
     0
  0
APPID
  2
GENIUS_GENSCREG_15
 70
     0
  0
APPID
  2
GENIUS_GENODEF_13
 70
     0
  0
APPID
  2
GENIUS_GENOBJ-N-SDF_13
 70
     0
  0
APPID
  2
GENIUS_GENREC_14
 70
     0
  0
APPID
  2
GENIUS_GENOBJ-N-REC_13
 70
     0
  0
APPID
  2
GENIUS_GENDIMSH_14
 70
     0
  0
APPID
  2
GENIUS_GENOBJ-N-DIM_13
 70
     0
  0
APPID
  2
GENIUS_GENDIM_13
 70
     0
  0
APPID
  2
GENIUS_GENDTOL_13
 70
     0
  0
APPID
  2
GENIUS_GENOLIS_13
 70
     0
  0
APPID
  2
GENIUS_GENOENT_13
 70
     0
  0
APPID
  2
GENIUS_GENOBJ-F-FEM_13
 70
     0
  0
APPID
  2
GENIUS_GENOREF_13
 70
     0
  0
APPID
  2
GENIUS_GEFFEM_13
 70
     0
  0
APPID
  2
GENIUS_GEFFEMP_13
 70
     0
  0
APPID
  2
AD_DRAW
 70
     0
  0
APPID
  2
DESIGNERASSEMBLIES
 70
     0
  0
APPID
  2
ACADM_DIM_EDIT
 70
     0
  0
APPID
  2
AMDT_DM_ADJ
 70
     0
  0
APPID
  2
ITEMNAME
 70
     0
  0
APPID
  2
GENIUS_GENOBJ-N-FIL_13
 70
     0
  0
APPID
  2
GENIUS_GENFIL_13
 70
     0
  0
APPID
  2
GENIUS_GENOBJ-N-CHA_13
 70
     0
  0
APPID
  2
ACAD_NAV_VCDISPLAY
 70
     0
  0
APPID
  2
ACAD_DSTYLE_DIMJAG
 70
     0
  0
APPID
  2
ACAD_DSTYLE_DIMBREAK
 70
     0
  0
APPID
  2
ACAD_MLEADERVER
 70
     0
  0
APPID
  2
ACAECLAYERSTANDARD
 70
     0
  0
APPID
  2
ACAD_DSTYLE_DIMINSPECT
 70
     0
  0
ENDTAB
  0
TABLE
  2
DIMSTYLE
 70
    31
  0
DIMSTYLE
  2
STANDARD
 70
     0
  3

  4

  5

  6

  7

 40
1.0
 41
0.18
 42
0.0625
 43
0.38
 44
0.18
 45
0.0
 46
0.0
 47
0.0
 48
0.0
140
0.18
141
0.09
142
0.0
143
25.399999999999999
144
1.0
145
0.0
146
1.0
147
0.09
 71
     0
 72
     0
 73
     1
 74
     1
 75
     0
 76
     0
 77
     0
 78
     0
170
     0
171
     2
172
     0
173
     0
174
     0
175
     0
176
     0
177
     0
178
     0
  0
DIMSTYLE
  2
BIGT
 70
     0
  3

  4

  5

  6

  7

 40
1.0
 41
2.2299999999999991
 42
0.5
 43
7.0
 44
1.0
 45
0.0
 46
0.0
 47
0.0
 48
0.01
140
2.799999999999998
141
0.0
142
0.0
143
25.399999999999999
144
1.0
145
0.0
146
1.0
147
1.0
 71
     0
 72
     0
 73
     0
 74
     0
 75
     0
 76
     0
 77
     3
 78
     9
170
     0
171
     2
172
     1
173
     0
174
     1
175
     0
176
   256
177
   256
178
    40
  0
DIMSTYLE
  2
AM_ANSI
 70
     0
  3

  4
mm
  5

  6

  7

 40
1.0
 41
0.12
 42
0.05
 43
0.5
 44
0.1
 45
0.0
 46
0.0
 47
0.1
 48
0.1
140
0.12
141
0.0
142
0.0
143
25.399999999999999
144
1.0
145
0.0
146
0.71
147
0.06
 71
     0
 72
     0
 73
     1
 74
     1
 75
     0
 76
     0
 77
     0
 78
     7
170
     0
171
     2
172
     0
173
     0
174
     0
175
     0
176
   256
177
   256
178
     2
  0
DIMSTYLE
  2
AM_ANSI$3
 70
     0
  3

  4
mm
  5

  6

  7

 40
1.0
 41
0.12
 42
0.05
 43
0.5
 44
0.1
 45
0.0
 46
0.0
 47
0.1
 48
0.1
140
0.12
141
0.0
142
0.0
143
25.399999999999999
144
1.0
145
0.0
146
0.71
147
0.06
 71
     0
 72
     0
 73
     1
 74
     1
 75
     0
 76
     0
 77
     0
 78
     7
170
     0
171
     2
172
     0
173
     0
174
     0
175
     0
176
   256
177
   256
178
     2
  0
DIMSTYLE
  2
AM_ANSI$4
 70
     0
  3

  4
mm
  5

  6

  7

 40
1.0
 41
0.12
 42
0.05
 43
0.5
 44
0.1
 45
0.0
 46
0.0
 47
0.1
 48
0.1
140
0.12
141
0.0
142
0.0
143
25.399999999999999
144
1.0
145
0.0
146
0.71
147
0.06
 71
     0
 72
     0
 73
     1
 74
     1
 75
     0
 76
     0
 77
     0
 78
     7
170
     0
171
     2
172
     0
173
     0
174
     0
175
     0
176
   256
177
   256
178
     2
  0
DIMSTYLE
  2
AM_ANSI$7
 70
     0
  3

  4
mm
  5

  6

  7

 40
1.0
 41
0.12
 42
0.05
 43
0.5
 44
0.1
 45
0.0
 46
0.0
 47
0.1
 48
0.1
140
0.12
141
0.0
142
0.0
143
25.399999999999999
144
1.0
145
0.0
146
0.71
147
0.06
 71
     0
 72
     0
 73
     1
 74
     1
 75
     0
 76
     0
 77
     0
 78
     7
170
     0
171
     2
172
     0
173
     0
174
     0
175
     0
176
   256
177
   256
178
     2
  0
DIMSTYLE
  2
AM_ANSI$SF
 70
     0
  3

  4
mm
  5

  6

  7

 40
1.0
 41
0.12
 42
0.05
 43
0.5
 44
0.1
 45
0.0
 46
0.0
 47
0.1
 48
0.1
140
0.12
141
0.0
142
0.0
143
25.399999999999999
144
1.0
145
0.0
146
0.71
147
0.06
 71
     0
 72
     0
 73
     1
 74
     1
 75
     1
 76
     1
 77
     0
 78
     7
170
     0
171
     2
172
     0
173
     0
174
     0
175
     0
176
   256
177
   256
178
     2
  0
DIMSTYLE
  2
AM_ANSI$SH
 70
     0
  3

  4
mm
  5

  6
GENAXEH
  7

 40
1.0
 41
0.12
 42
0.05
 43
0.5
 44
0.1
 45
0.0
 46
0.0
 47
0.1
 48
0.1
140
0.12
141
0.0
142
0.0
143
25.399999999999999
144
1.0
145
0.0
146
0.71
147
0.06
 71
     0
 72
     0
 73
     1
 74
     1
 75
     1
 76
     1
 77
     0
 78
     7
170
     0
171
     2
172
     0
173
     1
174
     0
175
     0
176
   256
177
   256
178
     2
  0
ENDTAB
  0
ENDSEC
  0
SECTION
  2
BLOCKS
  0
BLOCK
  8
0
  2
$MODEL_SPACE
 70
     0
 10
0.0
 20
0.0
 30
0.0
  3
$MODEL_SPACE
  1

  0
ENDBLK
  5
44FA
  8
0
  0
BLOCK
 67
     1
  8
0
  2
$PAPER_SPACE
 70
     0
 10
0.0
 20
0.0
 30
0.0
  3
$PAPER_SPACE
  1

  0
ENDBLK
  5
44F6
 67
     1
  8
0
  0
BLOCK
  8
0
  2
_OPEN
 70
     0
 10
0.0
 20
0.0
 30
0.0
  3
_OPEN
  1

  0
LINE
  5
4391
  8
0
  6
BYBLOCK
 62
     0
 10
-1.0
 20
0.1666666666666666
 30
0.0
 11
0.0
 21
0.0
 31
0.0
  0
LINE
  5
4392
  8
0
  6
BYBLOCK
 62
     0
 10
-1.0
 20
-0.1666666666666666
 30
0.0
 11
0.0
 21
0.0
 31
0.0
  0
LINE
  5
4393
  8
0
  6
BYBLOCK
 62
     0
 10
0.0
 20
0.0
 30
0.0
 11
-1.0
 21
0.0
 31
0.0
  0
ENDBLK
  5
4394
  8
0
  0
BLOCK
  8
0
  2
GENAXEH
 70
     0
 10
0.0
 20
0.0
 30
0.0
  3
GENAXEH
  1

  0
LINE
  5
43CC
  8
0
 10
-1.0
 20
0.0
 30
0.0
 11
1.0
 21
0.0
 31
0.0
  0
ENDBLK
  5
43CD
  8
0
  0
BLOCK
  8
0
  2
_ACMFILLEDHALF
 70
     0
 10
0.0
 20
0.0
 30
0.0
  3
_ACMFILLEDHALF
  1

  0
TRACE
  5
45B9
  8
240
 62
     0
 10
-0.8
 20
0.0
 30
0.0
 11
-1.0
 21
0.166666666
 31
0.0
 12
0.0
 22
0.0
 32
0.0
 13
0.0
 23
0.0
 33
0.0
  0
LINE
  5
45BA
  8
240
 62
     0
 10
-1.0
 20
0.0
 30
0.0
 11
-0.8
 21
0.0
 31
0.0
  0
ENDBLK
  5
45B8
  8
0
  0
ENDSEC
  0
SECTION
  2
ENTITIES
  0
LINE
  5
41B5
  8
240
  6
CONTINUOUS
 10
72.500000000000199
 20
9.4999999999999432
 30
0.0
 11
25.0
 21
9.5
 31
0.0
1001
GRPNAME
1000
PASTMD0W
  0
LINE
  5
41B6
  8
240
  6
CONTINUOUS
 10
72.500000000000199
 20
-9.5000000000000284
 30
0.0
 11
24.999999999999989
 21
-9.5000000000002007
 31
0.0
1001
GRPNAME
1000
PASTMD0W
  0
LINE
  5
41B7
  8
240
  6
CONTINUOUS
 10
72.500000000000199
 20
-9.5000000000000284
 30
0.0
 11
72.500000000000199
 21
9.4999999999999432
 31
0.0
1001
GRPNAME
1000
PASTMD0W
  0
LINE
  5
4237
  8
245
  6
CENTER2
 10
-31.0
 20
0.0
 30
0.0
 11
74.78111346386126
 21
-0.0000000000000426
 31
0.0
1001
GRPNAME
1000
PASTMD0U
  0
LINE
  5
4238
  8
240
  6
CONTINUOUS
 10
0.0
 20
-16.45500659935669
 30
0.0
 11
-30.0
 21
-15.704940578981221
 31
0.0
  0
LINE
  5
4239
  8
240
  6
CONTINUOUS
 10
0.0
 20
16.45500659935669
 30
0.0
 11
-30.0
 21
15.704940578981221
 31
0.0
  0
LINE
  5
423A
  8
240
  6
CONTINUOUS
 10
-30.0
 20
-15.704940578981221
 30
0.0
 11
-30.0
 21
15.704940578981221
 31
0.0
  0
LINE
  5
423B
  8
241
  6
CONTINUOUS
 10
-24.449999999999989
 20
-3.1365000000000101
 30
0.0
 11
-24.449999999999989
 21
3.1365000000000101
 31
0.0
  0
LINE
  5
423C
  8
241
  6
CONTINUOUS
 10
-30.0
 20
-3.1365000000000101
 30
0.0
 11
-24.449999999999989
 21
-3.1365000000000101
 31
0.0
  0
LINE
  5
423D
  8
241
  6
CONTINUOUS
 10
-30.0
 20
3.1364999999999821
 30
0.0
 11
-24.449999999999989
 21
3.1365000000000101
 31
0.0
  0
LINE
  5
423E
  8
240
  6
CONTINUOUS
 10
20.0
 20
-25.0
 30
0.0
 11
20.0
 21
-14.500000000000201
 31
0.0
  0
LINE
  5
423F
  8
240
  6
CONTINUOUS
 10
0.0
 20
-25.0
 30
0.0
 11
0.0
 21
-16.45500659935669
 31
0.0
  0
LINE
  5
4240
  8
241
  6
CONTINUOUS
 10
0.0
 20
16.455006599356661
 30
0.0
 11
0.0
 21
-16.455006599356661
 31
0.0
  0
LINE
  5
4241
  8
240
  6
CONTINUOUS
 10
0.0
 20
25.0
 30
0.0
 11
0.0
 21
16.45500659935669
 31
0.0
  0
LINE
  5
4242
  8
250
  6
CONTINUOUS
 10
-17.38864389586044
 20
-17.617856090630511
 30
0.0
 11
-16.09996876036638
 21
-16.0524719504686
 31
0.0
  0
LINE
  5
4243
  8
250
  6
CONTINUOUS
 10
-16.811293626862291
 20
-17.95118942429551
 30
0.0
 11
-16.09996876036638
 21
-16.0524719504686
 31
0.0
  0
LINE
  5
4244
  8
250
  6
CONTINUOUS
 10
-16.09996876036638
 20
-16.0524719504686
 30
0.0
 11
-17.099968761361371
 21
-17.784522757463009
 31
0.0
  0
LINE
  5
4245
  8
250
  6
CONTINUOUS
 10
-17.099968761361371
 20
-17.784522757463009
 30
0.0
 11
-21.011170980366391
 21
-24.55892371046858
 31
0.0
  0
TEXT
  5
4246
  8
250
  6
CONTINUOUS
 10
-28.87783764036638
 20
-23.55892371046858
 30
0.0
 40
2.799999999999998
  1
C5
  7
YOKO
  0
LINE
  5
4247
  8
250
  6
CONTINUOUS
 10
-21.011170980366391
 20
-24.55892371046858
 30
0.0
 11
-31.277837640366389
 21
-24.55892371046858
 31
0.0
1001
ITEMNAME
1000
LNSP2
  0
LINE
  5
4248
  8
247
  6
CONTINUOUS
 10
3.9999999999999432
 20
-10.75
 30
0.0
 11
4.0
 21
-6.1153846156700231
 31
0.0
  0
LINE
  5
4249
  8
247
  6
CONTINUOUS
 10
1.5
 20
-9.9548934999879464
 30
0.0
 11
3.5999999999160082
 21
-10.557058810057351
 31
0.0
  0
LINE
  5
424A
  8
247
  6
CONTINUOUS
 10
2.496153846113998
 20
-9.3251514035190421
 30
0.0
 11
2.496153846113998
 21
-10.240536018867029
 31
0.0
  0
ARC
  5
424B
  8
247
  6
CONTINUOUS
 10
1.8847190672940981
 20
-9.0872634019468101
 30
0.0
 40
0.3876715809326743
 50
72.997889675291773
 51
172.924166218512
  0
ARC
  5
424C
  8
247
  6
CONTINUOUS
 10
1.805223131028014
 20
-9.3824775568041048
 30
0.0
 40
0.6933047965358772
 50
4.7429368522022122
 51
73.849226273266297
1001
GENIUS_GENOBJ-N-FIL_13
1002
{
1000
OWNER
1000
GEN
1002
}
1001
GENIUS_GENODEF_13
1002
{
1000
HIER
1070
     0
1002
}
1002
{
1000
MANEDIT
1070
     0
1002
}
1002
{
1000
NOSEL
1070
     0
1002
}
1002
{
1000
BEHIND
1070
     0
1002
}
1002
{
1000
OTHER
1070
     0
1002
}
1002
{
1000
REACTOR
1002
}
  0
LINE
  5
424D
  8
247
  6
CONTINUOUS
 10
3.5999999999160082
 20
-9.6416741947093634
 30
0.0
 11
3.5999999999160082
 21
-10.557058810057351
 31
0.0
  0
LINE
  5
424E
  8
247
  6
CONTINUOUS
 10
1.5
 20
-9.9548934999879464
 30
0.0
 11
1.5
 21
-9.0395088846399272
 31
0.0
  0
ARC
  5
424F
  8
247
  6
CONTINUOUS
 10
2.8874169627678721
 20
-9.3783064762668271
 30
0.0
 40
0.394857301075386
 50
65.990941652528889
 51
172.26344345906909
  0
ARC
  5
4250
  8
247
  6
CONTINUOUS
 10
2.8912003273325682
 20
-9.7124466104269231
 30
0.0
 40
0.7123241612361686
 50
5.7019851642580841
 51
77.277338436822376
1001
GENIUS_GENOBJ-N-FIL_13
1002
{
1000
OWNER
1000
GEN
1002
}
1001
GENIUS_GENODEF_13
1002
{
1000
HIER
1070
     0
1002
}
1002
{
1000
MANEDIT
1070
     0
1002
}
1002
{
1000
NOSEL
1070
     0
1002
}
1002
{
1000
BEHIND
1070
     0
1002
}
1002
{
1000
OTHER
1070
     0
1002
}
1002
{
1000
REACTOR
1002
}
  0
LINE
  5
4251
  8
247
  6
CONTINUOUS
 10
3.5999999999160082
 20
-8.683981887063366
 30
0.0
 11
1.5
 21
-8.0818165769939583
 31
0.0
  0
LINE
  5
4252
  8
247
  6
CONTINUOUS
 10
1.5
 20
-6.5856627309079512
 30
0.0
 11
1.5
 21
-6.9816783643035762
 31
0.0
  0
LINE
  5
4253
  8
247
  6
CONTINUOUS
 10
3.5999999999160082
 20
-7.6087396539439531
 30
0.0
 11
3.5999999999160082
 21
-7.1779704231919652
 31
0.0
  0
ARC
  5
4254
  8
247
  6
CONTINUOUS
 10
2.9582995950833602
 20
-6.3818165770699684
 30
0.0
 40
1.576855057639547
 50
202.35948814152769
 51
254.99324854284609
  0
ARC
  5
4255
  8
247
  6
CONTINUOUS
 10
2.0658188585381341
 20
-6.8475113661332321
 30
0.0
 40
0.6234706797009447
 50
94.994589319075317
 51
155.1663289573039
1001
GENIUS_GENOBJ-N-FIL_13
1002
{
1000
OWNER
1000
GEN
1002
}
1001
GENIUS_GENODEF_13
1002
{
1000
HIER
1070
     0
1002
}
1002
{
1000
MANEDIT
1070
     0
1002
}
1002
{
1000
NOSEL
1070
     0
1002
}
1002
{
1000
BEHIND
1070
     0
1002
}
1002
{
1000
OTHER
1070
     0
1002
}
1002
{
1000
REACTOR
1002
}
  0
ARC
  5
4256
  8
247
  6
CONTINUOUS
 10
2.6621021219694381
 20
-7.4441839510327554
 30
0.0
 40
0.9749472149106983
 50
15.8460965557808
 51
82.325137004169065
  0
ARC
  5
4257
  8
247
  6
CONTINUOUS
 10
2.8714704019710662
 20
-7.035211638772207
 30
0.0
 40
0.9271945638692009
 50
249.7136016704969
 51
321.78874565640928
1001
GENIUS_GENOBJ-N-FIL_13
1002
{
1000
OWNER
1000
GEN
1002
}
1001
GENIUS_GENODEF_13
1002
{
1000
HIER
1070
     0
1002
}
1002
{
1000
MANEDIT
1070
     0
1002
}
1002
{
1000
NOSEL
1070
     0
1002
}
1002
{
1000
BEHIND
1070
     0
1002
}
1002
{
1000
OTHER
1070
     0
1002
}
1002
{
1000
REACTOR
1002
}
  0
LINE
  5
4258
  8
247
  6
CONTINUOUS
 10
2.792307692255974
 20
-6.962585807815965
 30
0.0
 11
2.792307692255974
 21
-6.4779704232199711
 31
0.0
  0
ARC
  5
4259
  8
247
  6
CONTINUOUS
 10
2.75
 20
-10.75
 30
0.0
 40
1.25
 50
180.0
 51
0.0
  0
LINE
  5
425A
  8
247
  6
CONTINUOUS
 10
1.5
 20
-10.75
 30
0.0
 11
1.5
 21
-10.30384615391398
 31
0.0
  0
ARC
  5
425B
  8
247
  6
CONTINUOUS
 10
2.75
 20
-6.115384615669992
 30
0.0
 40
1.25
 50
0.0
 51
180.0
  0
LINE
  5
425C
  8
240
  6
CONTINUOUS
 10
0.0
 20
-25.0
 30
0.0
 11
20.0
 21
-25.0
 31
0.0
1001
GRPNAME
1000
PASTMD0U
  0
LINE
  5
425D
  8
240
  6
CONTINUOUS
 10
0.0
 20
25.0
 30
0.0
 11
20.0
 21
25.0
 31
0.0
1001
GRPNAME
1000
PASTMD0U
  0
LINE
  5
425E
  8
241
  6
CONTINUOUS
 10
7.949853629974462
 20
7.1748188999999911
 30
0.0
 11
7.949853629974462
 21
23.937879479999989
 31
0.0
  0
LINE
  5
425F
  8
241
  6
CONTINUOUS
 10
12.04985362997448
 20
7.1748188999999911
 30
0.0
 11
12.04985362997448
 21
23.937879479999989
 31
0.0
  0
LINE
  5
4260
  8
241
  6
CONTINUOUS
 10
7.949853629974462
 20
7.1748188999999911
 30
0.0
 11
12.04985362997448
 21
7.1748188999999911
 31
0.0
  0
LINE
  5
4261
  8
241
  6
CONTINUOUS
 10
7.949853629974462
 20
23.937879479999989
 30
0.0
 11
12.04985362997448
 21
23.937879479999989
 31
0.0
  0
ARC
  5
4262
  8
241
  6
CONTINUOUS
 10
24.51236613052135
 20
15.55634918999999
 30
0.0
 40
18.562512500546848
 50
153.1581137773484
 51
206.84188622265151
  0
ARC
  5
4263
  8
241
  6
CONTINUOUS
 10
-4.5126588705724
 20
15.55634918999999
 30
0.0
 40
18.56251250054688
 50
333.15811377734849
 51
26.8418862226515
  0
LINE
  5
4264
  8
241
  6
CONTINUOUS
 10
7.949853629974462
 20
-7.1748188999999911
 30
0.0
 11
7.949853629974462
 21
-23.937879479999989
 31
0.0
  0
LINE
  5
4265
  8
241
  6
CONTINUOUS
 10
12.04985362997448
 20
-7.1748188999999911
 30
0.0
 11
12.04985362997448
 21
-23.937879479999989
 31
0.0
  0
LINE
  5
4266
  8
241
  6
CONTINUOUS
 10
7.949853629974462
 20
-7.1748188999999911
 30
0.0
 11
12.04985362997448
 21
-7.1748188999999911
 31
0.0
  0
LINE
  5
4267
  8
241
  6
CONTINUOUS
 10
7.949853629974462
 20
-23.937879479999989
 30
0.0
 11
12.04985362997448
 21
-23.937879479999989
 31
0.0
  0
ARC
  5
4268
  8
241
  6
CONTINUOUS
 10
24.51236613052135
 20
-15.55634918999999
 30
0.0
 40
18.562512500546848
 50
153.1581137773484
 51
206.84188622265151
  0
ARC
  5
4269
  8
241
  6
CONTINUOUS
 10
-4.5126588705724
 20
-15.55634918999999
 30
0.0
 40
18.56251250054688
 50
333.15811377734849
 51
26.8418862226515
  0
ARC
  5
426A
  8
241
  6
CONTINUOUS
 10
-26.117045743255812
 20
0.0
 30
0.0
 40
3.5519957432558109
 50
297.99058731019232
 51
62.00941268980776
  0
ARC
  5
426B
  8
240
  6
CONTINUOUS
 10
25.0
 20
14.5
 30
0.0
 40
5.0
 50
180.0
 51
269.99999999999989
1001
GENIUS_GENODEF_13
1002
{
1000
HIER
1070
     0
1002
}
1002
{
1000
MANEDIT
1070
     0
1002
}
1002
{
1000
NOSEL
1070
     0
1002
}
1002
{
1000
BEHIND
1070
     0
1002
}
1002
{
1000
OTHER
1070
     0
1002
}
1002
{
1000
REACTOR
1002
}
1001
GENIUS_GENOBJ-N-FIL_13
1002
{
1000
OWNER
1000
GEN
1002
}
  0
ARC
  5
426D
  8
240
  6
CONTINUOUS
 10
25.0
 20
-14.500000000000201
 30
0.0
 40
5.0
 50
90.000000000000185
 51
180.0
1001
GENIUS_GENOBJ-N-FIL_13
1002
{
1000
OWNER
1000
GEN
1002
}
1001
GENIUS_GENODEF_13
1002
{
1000
HIER
1070
     0
1002
}
1002
{
1000
MANEDIT
1070
     0
1002
}
1002
{
1000
NOSEL
1070
     0
1002
}
1002
{
1000
BEHIND
1070
     0
1002
}
1002
{
1000
OTHER
1070
     0
1002
}
1002
{
1000
REACTOR
1002
}
  0
LINE
  5
4274
  8
240
  6
CONTINUOUS
 10
20.0
 20
14.5
 30
0.0
 11
20.0
 21
25.0
 31
0.0
  0
LINE
  5
4275
  8
241
  6
CONTINUOUS
 10
20.0
 20
-14.500000000000201
 30
0.0
 11
20.0
 21
14.5
 31
0.0
  0
LINE
  5
429C
  8
243
  6
HIDDEN2
 10
72.500000000000199
 20
5.4999999999999529
 30
0.0
 11
58.45000000000023
 21
5.4999999999999547
 31
0.0
  0
LINE
  5
429D
  8
250
  6
CONTINUOUS
 10
75.254103700000186
 20
21.579815859999918
 30
0.0
 11
87.520770370000179
 21
21.579815859999918
 31
0.0
1001
ITEMNAME
1000
LNSP2
  0
CIRCLE
  5
429E
  8
241
  6
CONTINUOUS
 10
67.500000000000227
 20
-0.0000000000000719
 30
0.0
 40
2.1000000000000001
  0
POLYLINE
  5
429F
  8
241
  6
CONTINUOUS
 66
     1
 10
0.0
 20
0.0
 30
0.0
 70
     1
  0
VERTEX
  5
42A0
  8
241
  6
CONTINUOUS
 10
66.500000000000227
 20
-0.5773502700000721
 30
0.0
  0
VERTEX
  5
42A1
  8
241
  6
CONTINUOUS
 10
67.500000000000227
 20
-1.1547005400000721
 30
0.0
  0
VERTEX
  5
42A2
  8
241
  6
CONTINUOUS
 10
68.500000000000213
 20
-0.5773502700000721
 30
0.0
  0
VERTEX
  5
42A3
  8
241
  6
CONTINUOUS
 10
68.500000000000213
 20
0.5773502699999283
 30
0.0
  0
VERTEX
  5
42A4
  8
241
  6
CONTINUOUS
 10
67.500000000000227
 20
1.1547005399999271
 30
0.0
  0
VERTEX
  5
42A5
  8
241
  6
CONTINUOUS
 10
66.500000000000227
 20
0.5773502699999283
 30
0.0
  0
SEQEND
  5
42A6
  8
241
  6
CONTINUOUS
  0
CIRCLE
  5
42A7
  8
242
  6
CONTINUOUS
 10
67.500000000000227
 20
-0.0000000000000719
 30
0.0
 40
1.75
  0
LINE
  5
42A8
  8
245
  6
CENTER2
 10
67.500000000000227
 20
3.0999999999999281
 30
0.0
 11
67.500000000000227
 21
-3.1000000000000711
 31
0.0
  0
TEXT
  5
42A9
  8
250
  6
CONTINUOUS
 10
77.654103700000192
 20
22.579815859999901
 30
0.0
 40
2.799999999999998
  1
CK1
  7
YOKO
1001
ITEMNAME
1000
LNSP3
1001
ACAD
1000
MTEXTBEGIN
1070
    73
1070
     1
1070
    44
1040
1.0
1070
    74
1070
     0
1000
MTEXTEND
1000
MTEXTBEGIN
1070
    73
1070
     1
1070
    44
1040
1.0
1070
    74
1070
     0
1000
MTEXTEND
  0
LINE
  5
42AA
  8
250
  6
CONTINUOUS
 10
73.000000000000199
 20
-9.5000000000000728
 30
0.0
 11
82.000000000000199
 21
-9.5000000000000728
 31
0.0
  0
LINE
  5
42AB
  8
250
  6
CONTINUOUS
 10
73.000000000000199
 20
9.4999999999999272
 30
0.0
 11
82.000000000000199
 21
9.4999999999999272
 31
0.0
  0
LINE
  5
42AC
  8
250
  6
CONTINUOUS
 10
81.000000000000199
 20
-7.2700000000000671
 30
0.0
 11
81.000000000000199
 21
7.2699999999999232
 31
0.0
  0
LINE
  5
42AD
  8
250
  6
CONTINUOUS
 10
69.279818760158037
 20
11.23205080747765
 30
0.0
 11
75.254103700000186
 21
21.579815859999918
 31
0.0
1001
ACAD
1000
DSTYLE
1002
{
1070
     6
1000
OPEN
1070
    41
1040
2.0
1070
    42
1040
2.0
1070
    44
1040
2.0
1070
    79
1070
     2
1070
   140
1040
4.0
1070
   179
1070
     3
1070
   343
1005
0
1070
   371
1070
    -1
1070
   372
1070
    -1
1002
}
  0
TEXT
  5
42AE
  8
250
  6
CONTINUOUS
 10
80.000000000000185
 20
-3.866666666666736
 30
0.0
 40
2.799999999999998
  1
\U+220519
 50
90.0
1001
ACAD
1000
MTEXTBEGIN
1070
    73
1070
     1
1070
    44
1040
1.0
1070
    74
1070
     0
1000
MTEXTEND
  0
LINE
  5
42AF
  8
250
  6
CONTINUOUS
 10
80.628333333333558
 20
7.2699999999999232
 30
0.0
 11
81.000000000000199
 21
9.4999999999999272
 31
0.0
  0
LINE
  5
42B0
  8
250
  6
CONTINUOUS
 10
81.371666666666883
 20
7.2699999999999232
 30
0.0
 11
81.000000000000199
 21
9.4999999999999272
 31
0.0
  0
LINE
  5
42B1
  8
250
  6
CONTINUOUS
 10
81.000000000000199
 20
9.4999999999999272
 30
0.0
 11
81.000000000000199
 21
7.2699999999999232
 31
0.0
  0
LINE
  5
42B2
  8
250
  6
CONTINUOUS
 10
81.371666666666883
 20
-7.2700000000000671
 30
0.0
 11
81.000000000000199
 21
-9.5000000000000728
 31
0.0
  0
LINE
  5
42B3
  8
250
  6
CONTINUOUS
 10
80.628333333333558
 20
-7.2700000000000671
 30
0.0
 11
81.000000000000199
 21
-9.5000000000000728
 31
0.0
  0
LINE
  5
42B4
  8
250
  6
CONTINUOUS
 10
81.000000000000199
 20
-9.5000000000000728
 30
0.0
 11
81.000000000000199
 21
-7.2700000000000671
 31
0.0
  0
LINE
  5
42B5
  8
250
  6
CONTINUOUS
 10
69.568493894737657
 20
11.06538414078468
 30
0.0
 11
68.279818760000197
 21
9.4999999999999112
 31
0.0
  0
LINE
  5
42B6
  8
250
  6
CONTINUOUS
 10
68.991143625578417
 20
11.398717474170599
 30
0.0
 11
68.279818760000197
 21
9.4999999999999112
 31
0.0
  0
LINE
  5
42B7
  8
250
  6
CONTINUOUS
 10
68.279818760000197
 20
9.4999999999999112
 30
0.0
 11
69.279818760158037
 21
11.23205080747765
 31
0.0
  0
LINE
  5
42B8
  8
243
  6
HIDDEN2
 10
72.500000000000199
 20
-5.5000000000000968
 30
0.0
 11
58.45000000000023
 21
-5.5000000000001004
 31
0.0
  0
LINE
  5
42CB
  8
250
  6
CONTINUOUS
 10
0.0
 20
25.489999999999991
 30
0.0
 11
0.0
 21
36.0
 31
0.0
  0
LINE
  5
42CC
  8
250
  6
CONTINUOUS
 10
72.5
 20
9.999999999999984
 30
0.0
 11
72.5
 21
36.0
 31
0.0
  0
LINE
  5
42CD
  8
250
  6
CONTINUOUS
 10
2.0
 20
35.0
 30
0.0
 11
70.5
 21
35.0
 31
0.0
  0
LINE
  5
42CE
  8
250
  6
CONTINUOUS
 10
2.0
 20
34.66666666666665
 30
0.0
 11
0.0
 21
35.0
 31
0.0
  0
LINE
  5
42CF
  8
250
  6
CONTINUOUS
 10
2.0
 20
35.333333333333321
 30
0.0
 11
0.0
 21
35.0
 31
0.0
  0
LINE
  5
42D0
  8
250
  6
CONTINUOUS
 10
0.0
 20
35.0
 30
0.0
 11
2.0
 21
35.0
 31
0.0
  0
LINE
  5
42D1
  8
250
  6
CONTINUOUS
 10
70.5
 20
35.333333333333321
 30
0.0
 11
72.5
 21
35.0
 31
0.0
  0
LINE
  5
42D2
  8
250
  6
CONTINUOUS
 10
70.5
 20
34.66666666666665
 30
0.0
 11
72.5
 21
35.0
 31
0.0
  0
LINE
  5
42D3
  8
250
  6
CONTINUOUS
 10
72.5
 20
35.0
 30
0.0
 11
70.5
 21
35.0
 31
0.0
  0
TEXT
  5
42D4
  8
250
  6
CONTINUOUS
 10
31.25
 20
36.0
 30
0.0
 40
3.0
  1
72.5
1001
ACAD
1000
MTEXTBEGIN
1070
    73
1070
     1
1070
    44
1040
1.0
1070
    74
1070
     0
1000
MTEXTEND
  0
TEXT
  5
42D5
  8
241
  6
CONTINUOUS
 10
-30.0
 20
48.999999999999979
 30
0.0
 40
5.0
  1
C5-CKB1-73
  7
YOKO
 11
-30.0
 21
48.999999999999979
 31
0.0
 73
     1
  0
LINE
  5
4800
  8
245
  6
CENTER2
 10
-83.959990660292448
 20
0.0000000000000142
 30
0.0
 11
-42.04000933970741
 21
0.0000000000000142
 31
0.0
  0
LINE
  5
4801
  8
245
  6
CENTER2
 10
-62.999999999999972
 20
-20.959990660292512
 30
0.0
 11
-62.999999999999972
 21
20.95999066029254
 31
0.0
  0
CIRCLE
  5
4802
  8
241
  6
CONTINUOUS
 10
-62.999999999999901
 20
0.0000000000000142
 30
0.0
 40
7.2999999999999989
  0
CIRCLE
  5
4803
  8
241
  6
CONTINUOUS
 10
-62.999999999999901
 20
0.0000000000000142
 30
0.0
 40
10.5
  0
CIRCLE
  5
4804
  8
242
  6
CONTINUOUS
 10
-62.999999999999901
 20
0.0000000000000142
 30
0.0
 40
8.0
  0
ARC
  5
4805
  8
241
  6
CONTINUOUS
 10
-82.000043381809562
 20
-0.0208282551874424
 30
0.0
 40
5.0
 50
306.51022146512571
 51
54.665942943817818
  0
ARC
  5
4806
  8
241
  6
CONTINUOUS
 10
-41.750043381809569
 20
-0.0208282551874424
 30
0.0
 40
5.0
 50
131.4160892754532
 51
227.92889618021661
  0
POLYLINE
  5
4807
  8
240
 66
     1
 10
0.0
 20
0.0
 30
0.0
 70
     8
  0
VERTEX
  5
4808
  8
240
 10
-54.810000000000002
 20
14.18549999999998
 30
0.0
 70
    32
  0
VERTEX
  5
4809
  8
240
 10
-54.590800000000002
 20
14.05959999999998
 30
0.0
 70
    32
  0
VERTEX
  5
480A
  8
240
 10
-54.372999999999998
 20
13.93179999999998
 30
0.0
 70
    32
  0
VERTEX
  5
480B
  8
240
 10
-54.156399999999991
 20
13.80219999999998
 30
0.0
 70
    32
  0
VERTEX
  5
480C
  8
240
 10
-53.941299999999998
 20
13.670699999999981
 30
0.0
 70
    32
  0
VERTEX
  5
480D
  8
240
 10
-53.727499999999992
 20
13.53739999999998
 30
0.0
 70
    32
  0
VERTEX
  5
480E
  8
240
 10
-53.5152
 20
13.402399999999981
 30
0.0
 70
    32
  0
VERTEX
  5
480F
  8
240
 10
-53.304299999999991
 20
13.26549999999998
 30
0.0
 70
    32
  0
VERTEX
  5
4810
  8
240
 10
-53.094999999999992
 20
13.12689999999998
 30
0.0
 70
    32
  0
VERTEX
  5
4811
  8
240
 10
-52.8872
 20
12.986699999999979
 30
0.0
 70
    32
  0
VERTEX
  5
4812
  8
240
 10
-52.680999999999997
 20
12.84469999999998
 30
0.0
 70
    32
  0
VERTEX
  5
4813
  8
240
 10
-52.476399999999998
 20
12.700999999999979
 30
0.0
 70
    32
  0
VERTEX
  5
4814
  8
240
 10
-52.273499999999999
 20
12.55569999999998
 30
0.0
 70
    32
  0
VERTEX
  5
4815
  8
240
 10
-52.072200000000002
 20
12.40879999999998
 30
0.0
 70
    32
  0
VERTEX
  5
4816
  8
240
 10
-51.872700000000002
 20
12.26029999999999
 30
0.0
 70
    32
  0
VERTEX
  5
4817
  8
240
 10
-51.674999999999997
 20
12.110199999999979
 30
0.0
 70
    32
  0
VERTEX
  5
4818
  8
240
 10
-51.479100000000003
 20
11.958499999999979
 30
0.0
 70
    32
  0
VERTEX
  5
4819
  8
240
 10
-51.284999999999989
 20
11.805399999999979
 30
0.0
 70
    32
  0
VERTEX
  5
481A
  8
240
 10
-51.0929
 20
11.650699999999979
 30
0.0
 70
    32
  0
VERTEX
  5
481B
  8
240
 10
-50.9026
 20
11.494599999999981
 30
0.0
 70
    32
  0
VERTEX
  5
481C
  8
240
 10
-50.714300000000001
 20
11.33699999999998
 30
0.0
 70
    32
  0
VERTEX
  5
481D
  8
240
 10
-50.527900000000002
 20
11.17799999999999
 30
0.0
 70
    32
  0
VERTEX
  5
481E
  8
240
 10
-50.343600000000002
 20
11.017499999999981
 30
0.0
 70
    32
  0
VERTEX
  5
481F
  8
240
 10
-50.1614
 20
10.855699999999979
 30
0.0
 70
    32
  0
VERTEX
  5
4820
  8
240
 10
-49.98129999999999
 20
10.692599999999979
 30
0.0
 70
    32
  0
VERTEX
  5
4821
  8
240
 10
-49.8033
 20
10.528099999999981
 30
0.0
 70
    32
  0
VERTEX
  5
4822
  8
240
 10
-49.627400000000002
 20
10.36229999999998
 30
0.0
 70
    32
  0
VERTEX
  5
4823
  8
240
 10
-49.453800000000001
 20
10.19519999999998
 30
0.0
 70
    32
  0
VERTEX
  5
4824
  8
240
 10
-49.282499999999999
 20
10.02679999999998
 30
0.0
 70
    32
  0
VERTEX
  5
4825
  8
240
 10
-49.113399999999999
 20
9.8572399999999831
 30
0.0
 70
    32
  0
VERTEX
  5
4826
  8
240
 10
-48.946599999999997
 20
9.6864299999999854
 30
0.0
 70
    32
  0
VERTEX
  5
4827
  8
240
 10
-48.782200000000003
 20
9.5144399999999845
 30
0.0
 70
    32
  0
VERTEX
  5
4828
  8
240
 10
-48.620199999999997
 20
9.3412899999999848
 30
0.0
 70
    32
  0
VERTEX
  5
4829
  8
240
 10
-48.460599999999999
 20
9.1669899999999842
 30
0.0
 70
    32
  0
VERTEX
  5
482A
  8
240
 10
-48.3035
 20
8.9915799999999866
 30
0.0
 70
    32
  0
VERTEX
  5
482B
  8
240
 10
-48.148899999999998
 20
8.8150699999999862
 30
0.0
 70
    32
  0
VERTEX
  5
482C
  8
240
 10
-47.996899999999997
 20
8.6374899999999855
 30
0.0
 70
    32
  0
VERTEX
  5
482D
  8
240
 10
-47.8474
 20
8.458869999999985
 30
0.0
 70
    32
  0
VERTEX
  5
482E
  8
240
 10
-47.700499999999998
 20
8.2792299999999859
 30
0.0
 70
    32
  0
VERTEX
  5
482F
  8
240
 10
-47.5563
 20
8.0985899999999855
 30
0.0
 70
    32
  0
VERTEX
  5
4830
  8
240
 10
-47.4148
 20
7.916969999999985
 30
0.0
 70
    32
  0
VERTEX
  5
4831
  8
240
 10
-47.276000000000003
 20
7.7344099999999862
 30
0.0
 70
    32
  0
VERTEX
  5
4832
  8
240
 10
-47.13989999999999
 20
7.5509199999999854
 30
0.0
 70
    32
  0
VERTEX
  5
4833
  8
240
 10
-47.006700000000002
 20
7.3665299999999849
 30
0.0
 70
    32
  0
VERTEX
  5
4834
  8
240
 10
-46.876300000000001
 20
7.1812599999999858
 30
0.0
 70
    32
  0
VERTEX
  5
4835
  8
240
 10
-46.748800000000003
 20
6.995139999999985
 30
0.0
 70
    32
  0
VERTEX
  5
4836
  8
240
 10
-46.624200000000002
 20
6.8081899999999846
 30
0.0
 70
    32
  0
VERTEX
  5
4837
  8
240
 10
-46.502499999999991
 20
6.6204399999999852
 30
0.0
 70
    32
  0
VERTEX
  5
4838
  8
240
 10
-46.383800000000001
 20
6.4318999999999846
 30
0.0
 70
    32
  0
VERTEX
  5
4839
  8
240
 10
-46.26809999999999
 20
6.2426099999999849
 30
0.0
 70
    32
  0
VERTEX
  5
483A
  8
240
 10
-46.155500000000004
 20
6.0525799999999848
 30
0.0
 70
    32
  0
VERTEX
  5
483B
  8
240
 10
-46.045999999999999
 20
5.8618399999999848
 30
0.0
 70
    32
  0
VERTEX
  5
483C
  8
240
 10
-45.939599999999999
 20
5.6704199999999849
 30
0.0
 70
    32
  0
VERTEX
  5
483D
  8
240
 10
-45.836300000000001
 20
5.4783299999999864
 30
0.0
 70
    32
  0
VERTEX
  5
483E
  8
240
 10
-45.7363
 20
5.285609999999985
 30
0.0
 70
    32
  0
VERTEX
  5
483F
  8
240
 10
-45.639499999999998
 20
5.092269999999985
 30
0.0
 70
    32
  0
VERTEX
  5
4840
  8
240
 10
-45.545999999999992
 20
4.898339999999985
 30
0.0
 70
    32
  0
VERTEX
  5
4841
  8
240
 10
-45.455800000000004
 20
4.703849999999985
 30
0.0
 70
    32
  0
VERTEX
  5
4842
  8
240
 10
-45.369
 20
4.508819999999985
 30
0.0
 70
    32
  0
VERTEX
  5
4843
  8
240
 10
-45.285499999999999
 20
4.3132599999999854
 30
0.0
 70
    32
  0
VERTEX
  5
4844
  8
240
 10
-45.205500000000001
 20
4.1172199999999846
 30
0.0
 70
    32
  0
VERTEX
  5
4845
  8
240
 10
-45.128900000000002
 20
3.920699999999985
 30
0.0
 70
    32
  0
VERTEX
  5
4846
  8
240
 10
-45.055799999999998
 20
3.7237399999999861
 30
0.0
 70
    32
  0
VERTEX
  5
4847
  8
240
 10
-44.9863
 20
3.5263599999999848
 30
0.0
 70
    32
  0
VERTEX
  5
4848
  8
240
 10
-44.92029999999999
 20
3.328579999999985
 30
0.0
 70
    32
  0
VERTEX
  5
4849
  8
240
 10
-44.857900000000001
 20
3.1304199999999849
 30
0.0
 70
    32
  0
VERTEX
  5
484A
  8
240
 10
-44.799199999999992
 20
2.9319099999999851
 30
0.0
 70
    32
  0
VERTEX
  5
484B
  8
240
 10
-44.744199999999999
 20
2.7330799999999851
 30
0.0
 70
    32
  0
VERTEX
  5
484C
  8
240
 10
-44.692799999999998
 20
2.5339499999999848
 30
0.0
 70
    32
  0
VERTEX
  5
484D
  8
240
 10
-44.645299999999992
 20
2.334539999999985
 30
0.0
 70
    32
  0
VERTEX
  5
484E
  8
240
 10
-44.601500000000001
 20
2.1348699999999861
 30
0.0
 70
    32
  0
VERTEX
  5
484F
  8
240
 10
-44.561500000000002
 20
1.934969999999985
 30
0.0
 70
    32
  0
VERTEX
  5
4850
  8
240
 10
-44.525399999999991
 20
1.734869999999985
 30
0.0
 70
    32
  0
VERTEX
  5
4851
  8
240
 10
-44.493299999999991
 20
1.534589999999985
 30
0.0
 70
    32
  0
VERTEX
  5
4852
  8
240
 10
-44.465000000000003
 20
1.334139999999985
 30
0.0
 70
    32
  0
VERTEX
  5
4853
  8
240
 10
-44.440699999999993
 20
1.1335699999999851
 30
0.0
 70
    32
  0
VERTEX
  5
4854
  8
240
 10
-44.420499999999997
 20
0.9328779999999859
 30
0.0
 70
    32
  0
VERTEX
  5
4855
  8
240
 10
-44.404299999999999
 20
0.7321039999999858
 30
0.0
 70
    32
  0
VERTEX
  5
4856
  8
240
 10
-44.392099999999999
 20
0.5312679999999859
 30
0.0
 70
    32
  0
VERTEX
  5
4857
  8
240
 10
-44.384099999999997
 20
0.3303929999999858
 30
0.0
 70
    32
  0
VERTEX
  5
4858
  8
240
 10
-44.380299999999998
 20
0.1295029999999858
 30
0.0
 70
    32
  0
VERTEX
  5
4859
  8
240
 10
-44.380600000000001
 20
-0.0713766000000142
 30
0.0
 70
    32
  0
VERTEX
  5
485A
  8
240
 10
-44.38519999999999
 20
-0.2722250000000142
 30
0.0
 70
    32
  0
VERTEX
  5
485B
  8
240
 10
-44.393900000000002
 20
-0.4730240000000143
 30
0.0
 70
    32
  0
VERTEX
  5
485C
  8
240
 10
-44.406699999999987
 20
-0.6737540000000142
 30
0.0
 70
    32
  0
VERTEX
  5
485D
  8
240
 10
-44.42369999999999
 20
-0.8743970000000141
 30
0.0
 70
    32
  0
VERTEX
  5
485E
  8
240
 10
-44.444800000000001
 20
-1.074940000000014
 30
0.0
 70
    32
  0
VERTEX
  5
485F
  8
240
 10
-44.469900000000003
 20
-1.275350000000014
 30
0.0
 70
    32
  0
VERTEX
  5
4860
  8
240
 10
-44.499000000000002
 20
-1.4756200000000139
 30
0.0
 70
    32
  0
VERTEX
  5
4861
  8
240
 10
-44.5321
 20
-1.6757300000000139
 30
0.0
 70
    32
  0
VERTEX
  5
4862
  8
240
 10
-44.569099999999992
 20
-1.8756700000000139
 30
0.0
 70
    32
  0
VERTEX
  5
4863
  8
240
 10
-44.610100000000003
 20
-2.0754000000000139
 30
0.0
 70
    32
  0
VERTEX
  5
4864
  8
240
 10
-44.654899999999991
 20
-2.274920000000014
 30
0.0
 70
    32
  0
VERTEX
  5
4865
  8
240
 10
-44.703600000000002
 20
-2.474210000000014
 30
0.0
 70
    32
  0
VERTEX
  5
4866
  8
240
 10
-44.756100000000004
 20
-2.673240000000014
 30
0.0
 70
    32
  0
VERTEX
  5
4867
  8
240
 10
-44.81239999999999
 20
-2.8720000000000141
 30
0.0
 70
    32
  0
VERTEX
  5
4868
  8
240
 10
-44.872399999999992
 20
-3.070470000000014
 30
0.0
 70
    32
  0
VERTEX
  5
4869
  8
240
 10
-44.936199999999992
 20
-3.2686400000000142
 30
0.0
 70
    32
  0
VERTEX
  5
486A
  8
240
 10
-45.003700000000002
 20
-3.466480000000014
 30
0.0
 70
    32
  0
VERTEX
  5
486B
  8
240
 10
-45.074800000000003
 20
-3.6639700000000128
 30
0.0
 70
    32
  0
VERTEX
  5
486C
  8
240
 10
-45.149500000000003
 20
-3.8611000000000142
 30
0.0
 70
    32
  0
VERTEX
  5
486D
  8
240
 10
-45.227899999999991
 20
-4.0578500000000144
 30
0.0
 70
    32
  0
VERTEX
  5
486E
  8
240
 10
-45.309800000000003
 20
-4.2541900000000137
 30
0.0
 70
    32
  0
VERTEX
  5
486F
  8
240
 10
-45.395200000000003
 20
-4.4501200000000143
 30
0.0
 70
    32
  0
VERTEX
  5
4870
  8
240
 10
-45.484099999999991
 20
-4.6456200000000143
 30
0.0
 70
    32
  0
VERTEX
  5
4871
  8
240
 10
-45.576500000000003
 20
-4.8406500000000143
 30
0.0
 70
    32
  0
VERTEX
  5
4872
  8
240
 10
-45.6723
 20
-5.035220000000014
 30
0.0
 70
    32
  0
VERTEX
  5
4873
  8
240
 10
-45.771500000000003
 20
-5.2292900000000131
 30
0.0
 70
    32
  0
VERTEX
  5
4874
  8
240
 10
-45.874099999999999
 20
-5.4228500000000137
 30
0.0
 70
    32
  0
VERTEX
  5
4875
  8
240
 10
-45.97999999999999
 20
-5.615880000000014
 30
0.0
 70
    32
  0
VERTEX
  5
4876
  8
240
 10
-46.089199999999998
 20
-5.8083600000000128
 30
0.0
 70
    32
  0
VERTEX
  5
4877
  8
240
 10
-46.201700000000002
 20
-6.0002800000000143
 30
0.0
 70
    32
  0
VERTEX
  5
4878
  8
240
 10
-46.317399999999992
 20
-6.191610000000014
 30
0.0
 70
    32
  0
VERTEX
  5
4879
  8
240
 10
-46.436300000000003
 20
-6.3823400000000143
 30
0.0
 70
    32
  0
VERTEX
  5
487A
  8
240
 10
-46.558399999999999
 20
-6.5724500000000141
 30
0.0
 70
    32
  0
VERTEX
  5
487B
  8
240
 10
-46.683599999999991
 20
-6.7619200000000141
 30
0.0
 70
    32
  0
VERTEX
  5
487C
  8
240
 10
-46.811899999999987
 20
-6.9507300000000143
 30
0.0
 70
    32
  0
VERTEX
  5
487D
  8
240
 10
-46.943299999999986
 20
-7.1388600000000144
 30
0.0
 70
    32
  0
VERTEX
  5
487E
  8
240
 10
-47.077800000000003
 20
-7.326300000000014
 30
0.0
 70
    32
  0
VERTEX
  5
487F
  8
240
 10
-47.215200000000003
 20
-7.5130300000000139
 30
0.0
 70
    32
  0
VERTEX
  5
4880
  8
240
 10
-47.355699999999999
 20
-7.6990200000000142
 30
0.0
 70
    32
  0
VERTEX
  5
4881
  8
240
 10
-47.499099999999991
 20
-7.8842700000000141
 30
0.0
 70
    32
  0
VERTEX
  5
4882
  8
240
 10
-47.645400000000002
 20
-8.0687400000000142
 30
0.0
 70
    32
  0
VERTEX
  5
4883
  8
240
 10
-47.794499999999992
 20
-8.2524300000000146
 30
0.0
 70
    32
  0
VERTEX
  5
4884
  8
240
 10
-47.946599999999989
 20
-8.4353100000000154
 30
0.0
 70
    32
  0
VERTEX
  5
4885
  8
240
 10
-48.101399999999998
 20
-8.6173700000000135
 30
0.0
 70
    32
  0
VERTEX
  5
4886
  8
240
 10
-48.259
 20
-8.7985900000000132
 30
0.0
 70
    32
  0
VERTEX
  5
4887
  8
240
 10
-48.41940000000001
 20
-8.9789400000000121
 30
0.0
 70
    32
  0
VERTEX
  5
4888
  8
240
 10
-48.582500000000003
 20
-9.1584200000000138
 30
0.0
 70
    32
  0
VERTEX
  5
4889
  8
240
 10
-48.7483
 20
-9.3370000000000122
 30
0.0
 70
    32
  0
VERTEX
  5
488A
  8
240
 10
-48.916699999999999
 20
-9.5146600000000152
 30
0.0
 70
    32
  0
VERTEX
  5
488B
  8
240
 10
-49.087699999999998
 20
-9.6913900000000144
 30
0.0
 70
    32
  0
VERTEX
  5
488C
  8
240
 10
-49.261400000000002
 20
-9.8671600000000144
 30
0.0
 70
    32
  0
VERTEX
  5
488D
  8
240
 10
-49.43760000000001
 20
-10.04200000000001
 30
0.0
 70
    32
  0
VERTEX
  5
488E
  8
240
 10
-49.616300000000003
 20
-10.21580000000001
 30
0.0
 70
    32
  0
VERTEX
  5
488F
  8
240
 10
-49.797499999999999
 20
-10.388600000000009
 30
0.0
 70
    32
  0
VERTEX
  5
4890
  8
240
 10
-49.981200000000001
 20
-10.56040000000001
 30
0.0
 70
    32
  0
VERTEX
  5
4891
  8
240
 10
-50.16729999999999
 20
-10.73110000000001
 30
0.0
 70
    32
  0
VERTEX
  5
4892
  8
240
 10
-50.355800000000002
 20
-10.900800000000009
 30
0.0
 70
    32
  0
VERTEX
  5
4893
  8
240
 10
-50.546599999999998
 20
-11.069400000000011
 30
0.0
 70
    32
  0
VERTEX
  5
4894
  8
240
 10
-50.739800000000002
 20
-11.236800000000009
 30
0.0
 70
    32
  0
VERTEX
  5
4895
  8
240
 10
-50.935299999999998
 20
-11.403200000000011
 30
0.0
 70
    32
  0
VERTEX
  5
4896
  8
240
 10
-51.133000000000003
 20
-11.568400000000009
 30
0.0
 70
    32
  0
VERTEX
  5
4897
  8
240
 10
-51.332999999999998
 20
-11.732500000000011
 30
0.0
 70
    32
  0
VERTEX
  5
4898
  8
240
 10
-51.535200000000003
 20
-11.895400000000009
 30
0.0
 70
    32
  0
VERTEX
  5
4899
  8
240
 10
-51.73960000000001
 20
-12.057100000000011
 30
0.0
 70
    32
  0
VERTEX
  5
489A
  8
240
 10
-51.945999999999998
 20
-12.21760000000001
 30
0.0
 70
    32
  0
VERTEX
  5
489B
  8
240
 10
-52.154600000000002
 20
-12.37690000000001
 30
0.0
 70
    32
  0
VERTEX
  5
489C
  8
240
 10
-52.365299999999998
 20
-12.534900000000009
 30
0.0
 70
    32
  0
VERTEX
  5
489D
  8
240
 10
-52.578000000000003
 20
-12.69170000000001
 30
0.0
 70
    32
  0
VERTEX
  5
489E
  8
240
 10
-52.792700000000004
 20
-12.84710000000001
 30
0.0
 70
    32
  0
VERTEX
  5
489F
  8
240
 10
-53.009399999999999
 20
-13.001300000000009
 30
0.0
 70
    32
  0
VERTEX
  5
48A0
  8
240
 10
-53.228000000000002
 20
-13.15410000000001
 30
0.0
 70
    32
  0
VERTEX
  5
48A1
  8
240
 10
-53.448500000000003
 20
-13.305600000000011
 30
0.0
 70
    32
  0
VERTEX
  5
48A2
  8
240
 10
-53.67090000000001
 20
-13.455800000000011
 30
0.0
 70
    32
  0
VERTEX
  5
48A3
  8
240
 10
-53.895200000000003
 20
-13.60460000000001
 30
0.0
 70
    32
  0
VERTEX
  5
48A4
  8
240
 10
-54.121299999999998
 20
-13.75190000000001
 30
0.0
 70
    32
  0
VERTEX
  5
48A5
  8
240
 10
-54.3491
 20
-13.897900000000011
 30
0.0
 70
    32
  0
VERTEX
  5
48A6
  8
240
 10
-54.578699999999991
 20
-14.04240000000001
 30
0.0
 70
    32
  0
VERTEX
  5
48A7
  8
240
 10
-54.810000000000002
 20
-14.18550000000001
 30
0.0
 70
    32
  0
SEQEND
  5
48A8
  8
240
  0
POLYLINE
  5
48A9
  8
240
 66
     1
 10
0.0
 20
0.0
 30
0.0
 70
     8
  0
VERTEX
  5
48AA
  8
240
 10
-79.379999999999995
 20
0.0000000000002825
 30
0.0
 70
    32
  0
VERTEX
  5
48AB
  8
240
 10
-79.380600000000001
 20
0.2527449999999858
 30
0.0
 70
    32
  0
VERTEX
  5
48AC
  8
240
 10
-79.378799999999984
 20
0.5053119999999858
 30
0.0
 70
    32
  0
VERTEX
  5
48AD
  8
240
 10
-79.374799999999993
 20
0.7576579999999858
 30
0.0
 70
    32
  0
VERTEX
  5
48AE
  8
240
 10
-79.368600000000001
 20
1.009739999999985
 30
0.0
 70
    32
  0
VERTEX
  5
48AF
  8
240
 10
-79.359999999999985
 20
1.261509999999985
 30
0.0
 70
    32
  0
VERTEX
  5
48B0
  8
240
 10
-79.349199999999996
 20
1.512929999999985
 30
0.0
 70
    32
  0
VERTEX
  5
48B1
  8
240
 10
-79.336100000000002
 20
1.763949999999985
 30
0.0
 70
    32
  0
VERTEX
  5
48B2
  8
240
 10
-79.320800000000006
 20
2.014539999999986
 30
0.0
 70
    32
  0
VERTEX
  5
48B3
  8
240
 10
-79.303200000000004
 20
2.2646399999999849
 30
0.0
 70
    32
  0
VERTEX
  5
48B4
  8
240
 10
-79.283299999999997
 20
2.5142099999999852
 30
0.0
 70
    32
  0
VERTEX
  5
48B5
  8
240
 10
-79.261200000000002
 20
2.7632099999999848
 30
0.0
 70
    32
  0
VERTEX
  5
48B6
  8
240
 10
-79.236800000000002
 20
3.0115899999999849
 30
0.0
 70
    32
  0
VERTEX
  5
48B7
  8
240
 10
-79.2102
 20
3.259319999999986
 30
0.0
 70
    32
  0
VERTEX
  5
48B8
  8
240
 10
-79.181299999999993
 20
3.506339999999986
 30
0.0
 70
    32
  0
VERTEX
  5
48B9
  8
240
 10
-79.150199999999998
 20
3.7526199999999852
 30
0.0
 70
    32
  0
VERTEX
  5
48BA
  8
240
 10
-79.116799999999998
 20
3.998109999999985
 30
0.0
 70
    32
  0
VERTEX
  5
48BB
  8
240
 10
-79.081199999999995
 20
4.2427599999999854
 30
0.0
 70
    32
  0
VERTEX
  5
48BC
  8
240
 10
-79.043400000000005
 20
4.486529999999985
 30
0.0
 70
    32
  0
VERTEX
  5
48BD
  8
240
 10
-79.003299999999996
 20
4.7293799999999848
 30
0.0
 70
    32
  0
VERTEX
  5
48BE
  8
240
 10
-78.960999999999999
 20
4.9712699999999854
 30
0.0
 70
    32
  0
VERTEX
  5
48BF
  8
240
 10
-78.916399999999996
 20
5.2121399999999847
 30
0.0
 70
    32
  0
VERTEX
  5
48C0
  8
240
 10
-78.869699999999995
 20
5.4519599999999846
 30
0.0
 70
    32
  0
VERTEX
  5
48C1
  8
240
 10
-78.820599999999999
 20
5.6906899999999849
 30
0.0
 70
    32
  0
VERTEX
  5
48C2
  8
240
 10
-78.769400000000005
 20
5.9282699999999853
 30
0.0
 70
    32
  0
VERTEX
  5
48C3
  8
240
 10
-78.715900000000005
 20
6.164669999999985
 30
0.0
 70
    32
  0
VERTEX
  5
48C4
  8
240
 10
-78.660300000000007
 20
6.3998399999999851
 30
0.0
 70
    32
  0
VERTEX
  5
48C5
  8
240
 10
-78.602400000000003
 20
6.6337399999999853
 30
0.0
 70
    32
  0
VERTEX
  5
48C6
  8
240
 10
-78.542299999999997
 20
6.8663199999999849
 30
0.0
 70
    32
  0
VERTEX
  5
48C7
  8
240
 10
-78.479900000000001
 20
7.0975499999999849
 30
0.0
 70
    32
  0
VERTEX
  5
48C8
  8
240
 10
-78.415400000000005
 20
7.3273699999999851
 30
0.0
 70
    32
  0
VERTEX
  5
48C9
  8
240
 10
-78.348600000000005
 20
7.555739999999985
 30
0.0
 70
    32
  0
VERTEX
  5
48CA
  8
240
 10
-78.279700000000005
 20
7.7826199999999854
 30
0.0
 70
    32
  0
VERTEX
  5
48CB
  8
240
 10
-78.208500000000001
 20
8.0079599999999864
 30
0.0
 70
    32
  0
VERTEX
  5
48CC
  8
240
 10
-78.135199999999998
 20
8.2317299999999864
 30
0.0
 70
    32
  0
VERTEX
  5
48CD
  8
240
 10
-78.059600000000003
 20
8.453869999999986
 30
0.0
 70
    32
  0
VERTEX
  5
48CE
  8
240
 10
-77.981899999999996
 20
8.6743399999999848
 30
0.0
 70
    32
  0
VERTEX
  5
48CF
  8
240
 10
-77.901899999999983
 20
8.8931099999999859
 30
0.0
 70
    32
  0
VERTEX
  5
48D0
  8
240
 10
-77.819800000000001
 20
9.110119999999986
 30
0.0
 70
    32
  0
VERTEX
  5
48D1
  8
240
 10
-77.735399999999998
 20
9.3253299999999868
 30
0.0
 70
    32
  0
VERTEX
  5
48D2
  8
240
 10
-77.648899999999998
 20
9.5387099999999858
 30
0.0
 70
    32
  0
VERTEX
  5
48D3
  8
240
 10
-77.560199999999995
 20
9.7501899999999857
 30
0.0
 70
    32
  0
VERTEX
  5
48D4
  8
240
 10
-77.469300000000004
 20
9.9597499999999854
 30
0.0
 70
    32
  0
VERTEX
  5
48D5
  8
240
 10
-77.376199999999983
 20
10.16729999999998
 30
0.0
 70
    32
  0
VERTEX
  5
48D6
  8
240
 10
-77.281000000000006
 20
10.37289999999998
 30
0.0
 70
    32
  0
VERTEX
  5
48D7
  8
240
 10
-77.183599999999998
 20
10.57639999999998
 30
0.0
 70
    32
  0
VERTEX
  5
48D8
  8
240
 10
-77.084000000000003
 20
10.77779999999998
 30
0.0
 70
    32
  0
VERTEX
  5
48D9
  8
240
 10
-76.982200000000006
 20
10.977099999999981
 30
0.0
 70
    32
  0
VERTEX
  5
48DA
  8
240
 10
-76.878299999999996
 20
11.17409999999998
 30
0.0
 70
    32
  0
VERTEX
  5
48DB
  8
240
 10
-76.772199999999998
 20
11.36889999999998
 30
0.0
 70
    32
  0
VERTEX
  5
48DC
  8
240
 10
-76.663899999999984
 20
11.561499999999979
 30
0.0
 70
    32
  0
VERTEX
  5
48DD
  8
240
 10
-76.5535
 20
11.75169999999998
 30
0.0
 70
    32
  0
VERTEX
  5
48DE
  8
240
 10
-76.440899999999999
 20
11.939599999999979
 30
0.0
 70
    32
  0
VERTEX
  5
48DF
  8
240
 10
-76.3262
 20
12.12499999999998
 30
0.0
 70
    32
  0
VERTEX
  5
48E0
  8
240
 10
-76.209299999999999
 20
12.30799999999998
 30
0.0
 70
    32
  0
VERTEX
  5
48E1
  8
240
 10
-76.090299999999999
 20
12.488499999999981
 30
0.0
 70
    32
  0
VERTEX
  5
48E2
  8
240
 10
-75.969099999999997
 20
12.66639999999998
 30
0.0
 70
    32
  0
VERTEX
  5
48E3
  8
240
 10
-75.845699999999994
 20
12.84179999999998
 30
0.0
 70
    32
  0
VERTEX
  5
48E4
  8
240
 10
-75.720299999999995
 20
13.01449999999998
 30
0.0
 70
    32
  0
VERTEX
  5
48E5
  8
240
 10
-75.592600000000004
 20
13.18459999999998
 30
0.0
 70
    32
  0
VERTEX
  5
48E6
  8
240
 10
-75.462900000000005
 20
13.351899999999979
 30
0.0
 70
    32
  0
VERTEX
  5
48E7
  8
240
 10
-75.331000000000003
 20
13.516499999999979
 30
0.0
 70
    32
  0
VERTEX
  5
48E8
  8
240
 10
-75.196899999999999
 20
13.678199999999981
 30
0.0
 70
    32
  0
VERTEX
  5
48E9
  8
240
 10
-75.0608
 20
13.83719999999998
 30
0.0
 70
    32
  0
VERTEX
  5
48EA
  8
240
 10
-74.922499999999999
 20
13.99319999999998
 30
0.0
 70
    32
  0
VERTEX
  5
48EB
  8
240
 10
-74.7821
 20
14.146299999999981
 30
0.0
 70
    32
  0
VERTEX
  5
48EC
  8
240
 10
-74.639499999999998
 20
14.296399999999981
 30
0.0
 70
    32
  0
VERTEX
  5
48ED
  8
240
 10
-74.494799999999998
 20
14.443499999999981
 30
0.0
 70
    32
  0
VERTEX
  5
48EE
  8
240
 10
-74.347999999999999
 20
14.587499999999981
 30
0.0
 70
    32
  0
VERTEX
  5
48EF
  8
240
 10
-74.199100000000001
 20
14.728399999999979
 30
0.0
 70
    32
  0
VERTEX
  5
48F0
  8
240
 10
-74.048100000000005
 20
14.86609999999998
 30
0.0
 70
    32
  0
VERTEX
  5
48F1
  8
240
 10
-73.894999999999996
 20
15.000699999999981
 30
0.0
 70
    32
  0
VERTEX
  5
48F2
  8
240
 10
-73.739699999999985
 20
15.13199999999998
 30
0.0
 70
    32
  0
VERTEX
  5
48F3
  8
240
 10
-73.582400000000007
 20
15.25999999999998
 30
0.0
 70
    32
  0
VERTEX
  5
48F4
  8
240
 10
-73.422899999999998
 20
15.384699999999979
 30
0.0
 70
    32
  0
VERTEX
  5
48F5
  8
240
 10
-73.261300000000006
 20
15.505999999999981
 30
0.0
 70
    32
  0
VERTEX
  5
48F6
  8
240
 10
-73.097700000000003
 20
15.62389999999999
 30
0.0
 70
    32
  0
VERTEX
  5
48F7
  8
240
 10
-72.931899999999999
 20
15.738299999999979
 30
0.0
 70
    32
  0
VERTEX
  5
48F8
  8
240
 10
-72.763999999999996
 20
15.84929999999998
 30
0.0
 70
    32
  0
VERTEX
  5
48F9
  8
240
 10
-72.594099999999983
 20
15.95659999999998
 30
0.0
 70
    32
  0
VERTEX
  5
48FA
  8
240
 10
-72.421999999999997
 20
16.060399999999991
 30
0.0
 70
    32
  0
VERTEX
  5
48FB
  8
240
 10
-72.247900000000001
 20
16.160599999999981
 30
0.0
 70
    32
  0
VERTEX
  5
48FC
  8
240
 10
-72.071700000000007
 20
16.256999999999991
 30
0.0
 70
    32
  0
VERTEX
  5
48FD
  8
240
 10
-71.8934
 20
16.349899999999991
 30
0.0
 70
    32
  0
VERTEX
  5
48FE
  8
240
 10
-71.713099999999997
 20
16.439099999999979
 30
0.0
 70
    32
  0
VERTEX
  5
48FF
  8
240
 10
-71.530900000000003
 20
16.524699999999982
 30
0.0
 70
    32
  0
VERTEX
  5
4900
  8
240
 10
-71.346699999999984
 20
16.606799999999978
 30
0.0
 70
    32
  0
VERTEX
  5
4901
  8
240
 10
-71.160600000000002
 20
16.68519999999998
 30
0.0
 70
    32
  0
VERTEX
  5
4902
  8
240
 10
-70.9726
 20
16.76019999999998
 30
0.0
 70
    32
  0
VERTEX
  5
4903
  8
240
 10
-70.782700000000006
 20
16.831599999999991
 30
0.0
 70
    32
  0
VERTEX
  5
4904
  8
240
 10
-70.591099999999997
 20
16.899499999999978
 30
0.0
 70
    32
  0
VERTEX
  5
4905
  8
240
 10
-70.397599999999997
 20
16.963899999999981
 30
0.0
 70
    32
  0
VERTEX
  5
4906
  8
240
 10
-70.202399999999997
 20
17.024799999999981
 30
0.0
 70
    32
  0
VERTEX
  5
4907
  8
240
 10
-70.005499999999998
 20
17.082299999999979
 30
0.0
 70
    32
  0
VERTEX
  5
4908
  8
240
 10
-69.806899999999999
 20
17.136299999999981
 30
0.0
 70
    32
  0
VERTEX
  5
4909
  8
240
 10
-69.6066
 20
17.18689999999998
 30
0.0
 70
    32
  0
VERTEX
  5
490A
  8
240
 10
-69.404700000000005
 20
17.234199999999991
 30
0.0
 70
    32
  0
VERTEX
  5
490B
  8
240
 10
-69.2012
 20
17.277999999999981
 30
0.0
 70
    32
  0
VERTEX
  5
490C
  8
240
 10
-68.996099999999998
 20
17.318499999999979
 30
0.0
 70
    32
  0
VERTEX
  5
490D
  8
240
 10
-68.789500000000004
 20
17.355699999999981
 30
0.0
 70
    32
  0
VERTEX
  5
490E
  8
240
 10
-68.581400000000002
 20
17.389499999999991
 30
0.0
 70
    32
  0
VERTEX
  5
490F
  8
240
 10
-68.371899999999997
 20
17.419999999999991
 30
0.0
 70
    32
  0
VERTEX
  5
4910
  8
240
 10
-68.160899999999984
 20
17.447299999999981
 30
0.0
 70
    32
  0
VERTEX
  5
4911
  8
240
 10
-67.948499999999996
 20
17.471299999999982
 30
0.0
 70
    32
  0
VERTEX
  5
4912
  8
240
 10
-67.734700000000004
 20
17.49199999999999
 30
0.0
 70
    32
  0
VERTEX
  5
4913
  8
240
 10
-67.519599999999997
 20
17.509499999999981
 30
0.0
 70
    32
  0
VERTEX
  5
4914
  8
240
 10
-67.303200000000004
 20
17.52389999999999
 30
0.0
 70
    32
  0
VERTEX
  5
4915
  8
240
 10
-67.085599999999999
 20
17.534999999999979
 30
0.0
 70
    32
  0
VERTEX
  5
4916
  8
240
 10
-66.866600000000005
 20
17.542899999999982
 30
0.0
 70
    32
  0
VERTEX
  5
4917
  8
240
 10
-66.646500000000003
 20
17.547699999999981
 30
0.0
 70
    32
  0
VERTEX
  5
4918
  8
240
 10
-66.425200000000004
 20
17.549399999999981
 30
0.0
 70
    32
  0
VERTEX
  5
4919
  8
240
 10
-66.202799999999996
 20
17.547899999999981
 30
0.0
 70
    32
  0
VERTEX
  5
491A
  8
240
 10
-65.979200000000006
 20
17.543399999999981
 30
0.0
 70
    32
  0
VERTEX
  5
491B
  8
240
 10
-65.754599999999996
 20
17.535799999999981
 30
0.0
 70
    32
  0
VERTEX
  5
491C
  8
240
 10
-65.528899999999993
 20
17.525099999999981
 30
0.0
 70
    32
  0
VERTEX
  5
491D
  8
240
 10
-65.302199999999985
 20
17.511399999999981
 30
0.0
 70
    32
  0
VERTEX
  5
491E
  8
240
 10
-65.0745
 20
17.494599999999981
 30
0.0
 70
    32
  0
VERTEX
  5
491F
  8
240
 10
-64.8459
 20
17.474899999999991
 30
0.0
 70
    32
  0
VERTEX
  5
4920
  8
240
 10
-64.616299999999995
 20
17.452199999999991
 30
0.0
 70
    32
  0
VERTEX
  5
4921
  8
240
 10
-64.385900000000007
 20
17.426499999999979
 30
0.0
 70
    32
  0
VERTEX
  5
4922
  8
240
 10
-64.154600000000002
 20
17.397899999999979
 30
0.0
 70
    32
  0
VERTEX
  5
4923
  8
240
 10
-63.922499999999999
 20
17.366299999999981
 30
0.0
 70
    32
  0
VERTEX
  5
4924
  8
240
 10
-63.689599999999999
 20
17.33189999999998
 30
0.0
 70
    32
  0
VERTEX
  5
4925
  8
240
 10
-63.4559
 20
17.294499999999982
 30
0.0
 70
    32
  0
VERTEX
  5
4926
  8
240
 10
-63.221499999999999
 20
17.254299999999979
 30
0.0
 70
    32
  0
VERTEX
  5
4927
  8
240
 10
-62.986400000000003
 20
17.21129999999998
 30
0.0
 70
    32
  0
VERTEX
  5
4928
  8
240
 10
-62.750700000000002
 20
17.165399999999991
 30
0.0
 70
    32
  0
VERTEX
  5
4929
  8
240
 10
-62.514299999999999
 20
17.116699999999991
 30
0.0
 70
    32
  0
VERTEX
  5
492A
  8
240
 10
-62.277299999999997
 20
17.06509999999999
 30
0.0
 70
    32
  0
VERTEX
  5
492B
  8
240
 10
-62.0398
 20
17.010899999999982
 30
0.0
 70
    32
  0
VERTEX
  5
492C
  8
240
 10
-61.801699999999997
 20
16.95379999999999
 30
0.0
 70
    32
  0
VERTEX
  5
492D
  8
240
 10
-61.563099999999999
 20
16.89409999999998
 30
0.0
 70
    32
  0
VERTEX
  5
492E
  8
240
 10
-61.324100000000001
 20
16.831599999999991
 30
0.0
 70
    32
  0
VERTEX
  5
492F
  8
240
 10
-61.084600000000002
 20
16.76639999999999
 30
0.0
 70
    32
  0
VERTEX
  5
4930
  8
240
 10
-60.844700000000003
 20
16.698499999999981
 30
0.0
 70
    32
  0
VERTEX
  5
4931
  8
240
 10
-60.604500000000002
 20
16.627999999999979
 30
0.0
 70
    32
  0
VERTEX
  5
4932
  8
240
 10
-60.363900000000001
 20
16.554799999999979
 30
0.0
 70
    32
  0
VERTEX
  5
4933
  8
240
 10
-60.12299999999999
 20
16.478999999999981
 30
0.0
 70
    32
  0
VERTEX
  5
4934
  8
240
 10
-59.881799999999991
 20
16.40059999999999
 30
0.0
 70
    32
  0
VERTEX
  5
4935
  8
240
 10
-59.640300000000011
 20
16.31959999999998
 30
0.0
 70
    32
  0
VERTEX
  5
4936
  8
240
 10
-59.398699999999991
 20
16.236099999999979
 30
0.0
 70
    32
  0
VERTEX
  5
4937
  8
240
 10
-59.1569
 20
16.149899999999981
 30
0.0
 70
    32
  0
VERTEX
  5
4938
  8
240
 10
-58.91490000000001
 20
16.061299999999981
 30
0.0
 70
    32
  0
VERTEX
  5
4939
  8
240
 10
-58.672800000000002
 20
15.970199999999981
 30
0.0
 70
    32
  0
VERTEX
  5
493A
  8
240
 10
-58.430700000000002
 20
15.876499999999981
 30
0.0
 70
    32
  0
VERTEX
  5
493B
  8
240
 10
-58.188400000000001
 20
15.780399999999981
 30
0.0
 70
    32
  0
VERTEX
  5
493C
  8
240
 10
-57.946199999999997
 20
15.68179999999999
 30
0.0
 70
    32
  0
VERTEX
  5
493D
  8
240
 10
-57.704000000000001
 20
15.58079999999998
 30
0.0
 70
    32
  0
VERTEX
  5
493E
  8
240
 10
-57.46179999999999
 20
15.47739999999998
 30
0.0
 70
    32
  0
VERTEX
  5
493F
  8
240
 10
-57.219700000000003
 20
15.37149999999998
 30
0.0
 70
    32
  0
VERTEX
  5
4940
  8
240
 10
-56.977699999999999
 20
15.26329999999998
 30
0.0
 70
    32
  0
VERTEX
  5
4941
  8
240
 10
-56.735900000000001
 20
15.15279999999998
 30
0.0
 70
    32
  0
VERTEX
  5
4942
  8
240
 10
-56.494199999999999
 20
15.03989999999998
 30
0.0
 70
    32
  0
VERTEX
  5
4943
  8
240
 10
-56.252699999999997
 20
14.92459999999998
 30
0.0
 70
    32
  0
VERTEX
  5
4944
  8
240
 10
-56.011499999999998
 20
14.807099999999981
 30
0.0
 70
    32
  0
VERTEX
  5
4945
  8
240
 10
-55.770499999999991
 20
14.687299999999979
 30
0.0
 70
    32
  0
VERTEX
  5
4946
  8
240
 10
-55.529800000000002
 20
14.565199999999979
 30
0.0
 70
    32
  0
VERTEX
  5
4947
  8
240
 10
-55.289499999999997
 20
14.44079999999998
 30
0.0
 70
    32
  0
VERTEX
  5
4948
  8
240
 10
-55.049599999999998
 20
14.31429999999998
 30
0.0
 70
    32
  0
VERTEX
  5
4949
  8
240
 10
-54.810000000000002
 20
14.18549999999998
 30
0.0
 70
    32
  0
SEQEND
  5
494A
  8
240
  0
POLYLINE
  5
494B
  8
240
 66
     1
 10
0.0
 20
0.0
 30
0.0
 70
     8
  0
VERTEX
  5
494C
  8
240
 10
-54.810000000000002
 20
-14.18550000000001
 30
0.0
 70
    32
  0
VERTEX
  5
494D
  8
240
 10
-55.028599999999997
 20
-14.312300000000009
 30
0.0
 70
    32
  0
VERTEX
  5
494E
  8
240
 10
-55.248199999999997
 20
-14.43710000000001
 30
0.0
 70
    32
  0
VERTEX
  5
494F
  8
240
 10
-55.468699999999998
 20
-14.55990000000001
 30
0.0
 70
    32
  0
VERTEX
  5
4950
  8
240
 10
-55.690199999999997
 20
-14.680500000000009
 30
0.0
 70
    32
  0
VERTEX
  5
4951
  8
240
 10
-55.912500000000001
 20
-14.79890000000001
 30
0.0
 70
    32
  0
VERTEX
  5
4952
  8
240
 10
-56.13559999999999
 20
-14.915300000000011
 30
0.0
 70
    32
  0
VERTEX
  5
4953
  8
240
 10
-56.3596
 20
-15.029500000000009
 30
0.0
 70
    32
  0
VERTEX
  5
4954
  8
240
 10
-56.584200000000003
 20
-15.14150000000001
 30
0.0
 70
    32
  0
VERTEX
  5
4955
  8
240
 10
-56.809600000000003
 20
-15.251300000000009
 30
0.0
 70
    32
  0
VERTEX
  5
4956
  8
240
 10
-57.035699999999999
 20
-15.358900000000011
 30
0.0
 70
    32
  0
VERTEX
  5
4957
  8
240
 10
-57.2624
 20
-15.464200000000011
 30
0.0
 70
    32
  0
VERTEX
  5
4958
  8
240
 10
-57.489699999999992
 20
-15.56730000000001
 30
0.0
 70
    32
  0
VERTEX
  5
4959
  8
240
 10
-57.717599999999997
 20
-15.66810000000001
 30
0.0
 70
    32
  0
VERTEX
  5
495A
  8
240
 10
-57.945900000000002
 20
-15.766600000000009
 30
0.0
 70
    32
  0
VERTEX
  5
495B
  8
240
 10
-58.174799999999991
 20
-15.862800000000011
 30
0.0
 70
    32
  0
VERTEX
  5
495C
  8
240
 10
-58.404000000000003
 20
-15.95670000000001
 30
0.0
 70
    32
  0
VERTEX
  5
495D
  8
240
 10
-58.63369999999999
 20
-16.048100000000009
 30
0.0
 70
    32
  0
VERTEX
  5
495E
  8
240
 10
-58.863799999999991
 20
-16.13730000000001
 30
0.0
 70
    32
  0
VERTEX
  5
495F
  8
240
 10
-59.094099999999997
 20
-16.224000000000011
 30
0.0
 70
    32
  0
VERTEX
  5
4960
  8
240
 10
-59.3247
 20
-16.30830000000001
 30
0.0
 70
    32
  0
VERTEX
  5
4961
  8
240
 10
-59.555599999999998
 20
-16.390100000000011
 30
0.0
 70
    32
  0
VERTEX
  5
4962
  8
240
 10
-59.78670000000001
 20
-16.469500000000011
 30
0.0
 70
    32
  0
VERTEX
  5
4963
  8
240
 10
-60.018000000000001
 20
-16.546400000000009
 30
0.0
 70
    32
  0
VERTEX
  5
4964
  8
240
 10
-60.249299999999998
 20
-16.62080000000001
 30
0.0
 70
    32
  0
VERTEX
  5
4965
  8
240
 10
-60.480800000000002
 20
-16.692700000000009
 30
0.0
 70
    32
  0
VERTEX
  5
4966
  8
240
 10
-60.712299999999992
 20
-16.762100000000011
 30
0.0
 70
    32
  0
VERTEX
  5
4967
  8
240
 10
-60.94380000000001
 20
-16.828900000000012
 30
0.0
 70
    32
  0
VERTEX
  5
4968
  8
240
 10
-61.1753
 20
-16.893100000000011
 30
0.0
 70
    32
  0
VERTEX
  5
4969
  8
240
 10
-61.406700000000001
 20
-16.954800000000009
 30
0.0
 70
    32
  0
VERTEX
  5
496A
  8
240
 10
-61.637999999999998
 20
-17.01380000000001
 30
0.0
 70
    32
  0
VERTEX
  5
496B
  8
240
 10
-61.86910000000001
 20
-17.07020000000001
 30
0.0
 70
    32
  0
VERTEX
  5
496C
  8
240
 10
-62.100099999999998
 20
-17.12390000000001
 30
0.0
 70
    32
  0
VERTEX
  5
496D
  8
240
 10
-62.330800000000011
 20
-17.174900000000012
 30
0.0
 70
    32
  0
VERTEX
  5
496E
  8
240
 10
-62.561300000000003
 20
-17.223300000000009
 30
0.0
 70
    32
  0
VERTEX
  5
496F
  8
240
 10
-62.791499999999999
 20
-17.268900000000009
 30
0.0
 70
    32
  0
VERTEX
  5
4970
  8
240
 10
-63.021299999999997
 20
-17.311800000000009
 30
0.0
 70
    32
  0
VERTEX
  5
4971
  8
240
 10
-63.250700000000002
 20
-17.352000000000011
 30
0.0
 70
    32
  0
VERTEX
  5
4972
  8
240
 10
-63.479700000000001
 20
-17.389300000000009
 30
0.0
 70
    32
  0
VERTEX
  5
4973
  8
240
 10
-63.708300000000001
 20
-17.42390000000001
 30
0.0
 70
    32
  0
VERTEX
  5
4974
  8
240
 10
-63.936300000000003
 20
-17.455700000000011
 30
0.0
 70
    32
  0
VERTEX
  5
4975
  8
240
 10
-64.163799999999995
 20
-17.484600000000011
 30
0.0
 70
    32
  0
VERTEX
  5
4976
  8
240
 10
-64.390699999999995
 20
-17.510700000000011
 30
0.0
 70
    32
  0
VERTEX
  5
4977
  8
240
 10
-64.617000000000004
 20
-17.53390000000001
 30
0.0
 70
    32
  0
VERTEX
  5
4978
  8
240
 10
-64.842699999999994
 20
-17.554200000000009
 30
0.0
 70
    32
  0
VERTEX
  5
4979
  8
240
 10
-65.067599999999985
 20
-17.571500000000011
 30
0.0
 70
    32
  0
VERTEX
  5
497A
  8
240
 10
-65.291899999999984
 20
-17.586000000000009
 30
0.0
 70
    32
  0
VERTEX
  5
497B
  8
240
 10
-65.515299999999996
 20
-17.597500000000011
 30
0.0
 70
    32
  0
VERTEX
  5
497C
  8
240
 10
-65.737899999999996
 20
-17.606000000000009
 30
0.0
 70
    32
  0
VERTEX
  5
497D
  8
240
 10
-65.959699999999998
 20
-17.61150000000001
 30
0.0
 70
    32
  0
VERTEX
  5
497E
  8
240
 10
-66.180599999999984
 20
-17.614100000000011
 30
0.0
 70
    32
  0
VERTEX
  5
497F
  8
240
 10
-66.400499999999994
 20
-17.613500000000009
 30
0.0
 70
    32
  0
VERTEX
  5
4980
  8
240
 10
-66.619500000000002
 20
-17.61000000000001
 30
0.0
 70
    32
  0
VERTEX
  5
4981
  8
240
 10
-66.837500000000006
 20
-17.603300000000011
 30
0.0
 70
    32
  0
VERTEX
  5
4982
  8
240
 10
-67.054400000000001
 20
-17.593600000000009
 30
0.0
 70
    32
  0
VERTEX
  5
4983
  8
240
 10
-67.270200000000003
 20
-17.580700000000011
 30
0.0
 70
    32
  0
VERTEX
  5
4984
  8
240
 10
-67.484899999999996
 20
-17.564800000000009
 30
0.0
 70
    32
  0
VERTEX
  5
4985
  8
240
 10
-67.698400000000007
 20
-17.545600000000011
 30
0.0
 70
    32
  0
VERTEX
  5
4986
  8
240
 10
-67.910799999999995
 20
-17.52330000000001
 30
0.0
 70
    32
  0
VERTEX
  5
4987
  8
240
 10
-68.121799999999993
 20
-17.497800000000009
 30
0.0
 70
    32
  0
VERTEX
  5
4988
  8
240
 10
-68.331599999999995
 20
-17.469100000000012
 30
0.0
 70
    32
  0
VERTEX
  5
4989
  8
240
 10
-68.540099999999995
 20
-17.437200000000011
 30
0.0
 70
    32
  0
VERTEX
  5
498A
  8
240
 10
-68.747200000000007
 20
-17.402000000000012
 30
0.0
 70
    32
  0
VERTEX
  5
498B
  8
240
 10
-68.9529
 20
-17.363500000000009
 30
0.0
 70
    32
  0
VERTEX
  5
498C
  8
240
 10
-69.157200000000003
 20
-17.32180000000001
 30
0.0
 70
    32
  0
VERTEX
  5
498D
  8
240
 10
-69.359999999999985
 20
-17.276700000000009
 30
0.0
 70
    32
  0
VERTEX
  5
498E
  8
240
 10
-69.561300000000003
 20
-17.228300000000011
 30
0.0
 70
    32
  0
VERTEX
  5
498F
  8
240
 10
-69.760999999999996
 20
-17.176600000000011
 30
0.0
 70
    32
  0
VERTEX
  5
4990
  8
240
 10
-69.959100000000007
 20
-17.121400000000008
 30
0.0
 70
    32
  0
VERTEX
  5
4991
  8
240
 10
-70.155600000000007
 20
-17.06290000000001
 30
0.0
 70
    32
  0
VERTEX
  5
4992
  8
240
 10
-70.350399999999993
 20
-17.001000000000008
 30
0.0
 70
    32
  0
VERTEX
  5
4993
  8
240
 10
-70.543499999999995
 20
-16.935700000000011
 30
0.0
 70
    32
  0
VERTEX
  5
4994
  8
240
 10
-70.734800000000007
 20
-16.866900000000012
 30
0.0
 70
    32
  0
VERTEX
  5
4995
  8
240
 10
-70.924400000000006
 20
-16.79460000000001
 30
0.0
 70
    32
  0
VERTEX
  5
4996
  8
240
 10
-71.112099999999984
 20
-16.718800000000009
 30
0.0
 70
    32
  0
VERTEX
  5
4997
  8
240
 10
-71.297899999999984
 20
-16.639600000000009
 30
0.0
 70
    32
  0
VERTEX
  5
4998
  8
240
 10
-71.481899999999996
 20
-16.55680000000001
 30
0.0
 70
    32
  0
VERTEX
  5
4999
  8
240
 10
-71.663899999999984
 20
-16.470400000000009
 30
0.0
 70
    32
  0
VERTEX
  5
499A
  8
240
 10
-71.843800000000002
 20
-16.380500000000008
 30
0.0
 70
    32
  0
VERTEX
  5
499B
  8
240
 10
-72.021799999999999
 20
-16.28700000000001
 30
0.0
 70
    32
  0
VERTEX
  5
499C
  8
240
 10
-72.197699999999998
 20
-16.189900000000009
 30
0.0
 70
    32
  0
VERTEX
  5
499D
  8
240
 10
-72.371499999999983
 20
-16.089200000000009
 30
0.0
 70
    32
  0
VERTEX
  5
499E
  8
240
 10
-72.543199999999985
 20
-15.984800000000011
 30
0.0
 70
    32
  0
VERTEX
  5
499F
  8
240
 10
-72.712699999999998
 20
-15.87690000000001
 30
0.0
 70
    32
  0
VERTEX
  5
49A0
  8
240
 10
-72.880099999999985
 20
-15.76540000000001
 30
0.0
 70
    32
  0
VERTEX
  5
49A1
  8
240
 10
-73.045400000000001
 20
-15.65030000000001
 30
0.0
 70
    32
  0
VERTEX
  5
49A2
  8
240
 10
-73.208500000000001
 20
-15.531800000000009
 30
0.0
 70
    32
  0
VERTEX
  5
49A3
  8
240
 10
-73.369600000000005
 20
-15.409900000000009
 30
0.0
 70
    32
  0
VERTEX
  5
49A4
  8
240
 10
-73.528400000000005
 20
-15.28450000000001
 30
0.0
 70
    32
  0
VERTEX
  5
49A5
  8
240
 10
-73.685199999999995
 20
-15.15580000000001
 30
0.0
 70
    32
  0
VERTEX
  5
49A6
  8
240
 10
-73.839799999999997
 20
-15.02380000000001
 30
0.0
 70
    32
  0
VERTEX
  5
49A7
  8
240
 10
-73.9923
 20
-14.888500000000009
 30
0.0
 70
    32
  0
VERTEX
  5
49A8
  8
240
 10
-74.142700000000005
 20
-14.749900000000009
 30
0.0
 70
    32
  0
VERTEX
  5
49A9
  8
240
 10
-74.290899999999993
 20
-14.608100000000009
 30
0.0
 70
    32
  0
VERTEX
  5
49AA
  8
240
 10
-74.436999999999983
 20
-14.46310000000001
 30
0.0
 70
    32
  0
VERTEX
  5
49AB
  8
240
 10
-74.581000000000003
 20
-14.31490000000001
 30
0.0
 70
    32
  0
VERTEX
  5
49AC
  8
240
 10
-74.722899999999996
 20
-14.163700000000009
 30
0.0
 70
    32
  0
VERTEX
  5
49AD
  8
240
 10
-74.8626
 20
-14.00940000000001
 30
0.0
 70
    32
  0
VERTEX
  5
49AE
  8
240
 10
-75.000200000000007
 20
-13.852000000000009
 30
0.0
 70
    32
  0
VERTEX
  5
49AF
  8
240
 10
-75.1357
 20
-13.69170000000001
 30
0.0
 70
    32
  0
VERTEX
  5
49B0
  8
240
 10
-75.269000000000005
 20
-13.52840000000001
 30
0.0
 70
    32
  0
VERTEX
  5
49B1
  8
240
 10
-75.400300000000001
 20
-13.36220000000001
 30
0.0
 70
    32
  0
VERTEX
  5
49B2
  8
240
 10
-75.529399999999995
 20
-13.19310000000001
 30
0.0
 70
    32
  0
VERTEX
  5
49B3
  8
240
 10
-75.656300000000002
 20
-13.021200000000009
 30
0.0
 70
    32
  0
VERTEX
  5
49B4
  8
240
 10
-75.781199999999998
 20
-12.84640000000001
 30
0.0
 70
    32
  0
VERTEX
  5
49B5
  8
240
 10
-75.903899999999993
 20
-12.66890000000001
 30
0.0
 70
    32
  0
VERTEX
  5
49B6
  8
240
 10
-76.024500000000003
 20
-12.488600000000011
 30
0.0
 70
    32
  0
VERTEX
  5
49B7
  8
240
 10
-76.143000000000001
 20
-12.305700000000011
 30
0.0
 70
    32
  0
VERTEX
  5
49B8
  8
240
 10
-76.259299999999996
 20
-12.12010000000001
 30
0.0
 70
    32
  0
VERTEX
  5
49B9
  8
240
 10
-76.373500000000007
 20
-11.93180000000001
 30
0.0
 70
    32
  0
VERTEX
  5
49BA
  8
240
 10
-76.485600000000005
 20
-11.74100000000001
 30
0.0
 70
    32
  0
VERTEX
  5
49BB
  8
240
 10
-76.595600000000005
 20
-11.54770000000001
 30
0.0
 70
    32
  0
VERTEX
  5
49BC
  8
240
 10
-76.703400000000002
 20
-11.35180000000001
 30
0.0
 70
    32
  0
VERTEX
  5
49BD
  8
240
 10
-76.809100000000001
 20
-11.15340000000001
 30
0.0
 70
    32
  0
VERTEX
  5
49BE
  8
240
 10
-76.912700000000001
 20
-10.952600000000009
 30
0.0
 70
    32
  0
VERTEX
  5
49BF
  8
240
 10
-77.014200000000002
 20
-10.74950000000001
 30
0.0
 70
    32
  0
VERTEX
  5
49C0
  8
240
 10
-77.113500000000002
 20
-10.54390000000001
 30
0.0
 70
    32
  0
VERTEX
  5
49C1
  8
240
 10
-77.210800000000006
 20
-10.336000000000009
 30
0.0
 70
    32
  0
VERTEX
  5
49C2
  8
240
 10
-77.305899999999994
 20
-10.12590000000001
 30
0.0
 70
    32
  0
VERTEX
  5
49C3
  8
240
 10
-77.398899999999983
 20
-9.9134800000000141
 30
0.0
 70
    32
  0
VERTEX
  5
49C4
  8
240
 10
-77.489699999999985
 20
-9.698860000000014
 30
0.0
 70
    32
  0
VERTEX
  5
49C5
  8
240
 10
-77.578400000000002
 20
-9.4820700000000144
 30
0.0
 70
    32
  0
VERTEX
  5
49C6
  8
240
 10
-77.665099999999995
 20
-9.2631400000000141
 30
0.0
 70
    32
  0
VERTEX
  5
49C7
  8
240
 10
-77.749499999999998
 20
-9.0421000000000138
 30
0.0
 70
    32
  0
VERTEX
  5
49C8
  8
240
 10
-77.831900000000005
 20
-8.8190100000000147
 30
0.0
 70
    32
  0
VERTEX
  5
49C9
  8
240
 10
-77.912199999999999
 20
-8.5938800000000146
 30
0.0
 70
    32
  0
VERTEX
  5
49CA
  8
240
 10
-77.990300000000005
 20
-8.3667700000000131
 30
0.0
 70
    32
  0
VERTEX
  5
49CB
  8
240
 10
-78.066299999999998
 20
-8.1377100000000144
 30
0.0
 70
    32
  0
VERTEX
  5
49CC
  8
240
 10
-78.140199999999993
 20
-7.9067300000000138
 30
0.0
 70
    32
  0
VERTEX
  5
49CD
  8
240
 10
-78.2119
 20
-7.6738800000000138
 30
0.0
 70
    32
  0
VERTEX
  5
49CE
  8
240
 10
-78.281599999999997
 20
-7.4391800000000137
 30
0.0
 70
    32
  0
VERTEX
  5
49CF
  8
240
 10
-78.349100000000007
 20
-7.2026800000000142
 30
0.0
 70
    32
  0
VERTEX
  5
49D0
  8
240
 10
-78.414500000000004
 20
-6.9644200000000129
 30
0.0
 70
    32
  0
VERTEX
  5
49D1
  8
240
 10
-78.477800000000002
 20
-6.7244300000000141
 30
0.0
 70
    32
  0
VERTEX
  5
49D2
  8
240
 10
-78.539000000000001
 20
-6.482740000000013
 30
0.0
 70
    32
  0
VERTEX
  5
49D3
  8
240
 10
-78.597999999999985
 20
-6.239400000000014
 30
0.0
 70
    32
  0
VERTEX
  5
49D4
  8
240
 10
-78.655000000000001
 20
-5.9944500000000129
 30
0.0
 70
    32
  0
VERTEX
  5
49D5
  8
240
 10
-78.709800000000001
 20
-5.747920000000013
 30
0.0
 70
    32
  0
VERTEX
  5
49D6
  8
240
 10
-78.762500000000003
 20
-5.4998400000000141
 30
0.0
 70
    32
  0
VERTEX
  5
49D7
  8
240
 10
-78.813000000000002
 20
-5.2502600000000141
 30
0.0
 70
    32
  0
VERTEX
  5
49D8
  8
240
 10
-78.861500000000007
 20
-4.9992200000000127
 30
0.0
 70
    32
  0
VERTEX
  5
49D9
  8
240
 10
-78.907799999999995
 20
-4.7467400000000142
 30
0.0
 70
    32
  0
VERTEX
  5
49DA
  8
240
 10
-78.951999999999984
 20
-4.4928700000000141
 30
0.0
 70
    32
  0
VERTEX
  5
49DB
  8
240
 10
-78.994100000000003
 20
-4.2376400000000141
 30
0.0
 70
    32
  0
VERTEX
  5
49DC
  8
240
 10
-79.034099999999995
 20
-3.9810900000000138
 30
0.0
 70
    32
  0
VERTEX
  5
49DD
  8
240
 10
-79.072000000000003
 20
-3.7232700000000141
 30
0.0
 70
    32
  0
VERTEX
  5
49DE
  8
240
 10
-79.107699999999994
 20
-3.4642000000000142
 30
0.0
 70
    32
  0
VERTEX
  5
49DF
  8
240
 10
-79.141400000000004
 20
-3.2039200000000139
 30
0.0
 70
    32
  0
VERTEX
  5
49E0
  8
240
 10
-79.172899999999998
 20
-2.9424700000000139
 30
0.0
 70
    32
  0
VERTEX
  5
49E1
  8
240
 10
-79.202299999999994
 20
-2.6798900000000141
 30
0.0
 70
    32
  0
VERTEX
  5
49E2
  8
240
 10
-79.229600000000005
 20
-2.4162100000000142
 30
0.0
 70
    32
  0
VERTEX
  5
49E3
  8
240
 10
-79.254800000000003
 20
-2.151480000000014
 30
0.0
 70
    32
  0
VERTEX
  5
49E4
  8
240
 10
-79.277799999999999
 20
-1.8857300000000139
 30
0.0
 70
    32
  0
VERTEX
  5
49E5
  8
240
 10
-79.2988
 20
-1.6189900000000139
 30
0.0
 70
    32
  0
VERTEX
  5
49E6
  8
240
 10
-79.317599999999999
 20
-1.351310000000014
 30
0.0
 70
    32
  0
VERTEX
  5
49E7
  8
240
 10
-79.334299999999999
 20
-1.0827100000000141
 30
0.0
 70
    32
  0
VERTEX
  5
49E8
  8
240
 10
-79.3489
 20
-0.8132500000000142
 30
0.0
 70
    32
  0
VERTEX
  5
49E9
  8
240
 10
-79.361400000000003
 20
-0.5429520000000143
 30
0.0
 70
    32
  0
VERTEX
  5
49EA
  8
240
 10
-79.371700000000004
 20
-0.2718560000000142
 30
0.0
 70
    32
  0
VERTEX
  5
49EB
  8
240
 10
-79.379999999999995
 20
-0.0000000000123059
 30
0.0
 70
    32
  0
SEQEND
  5
49EC
  8
240
  0
VIEWPORT
  5
22
 67
     1
  8
0
 10
261.51769911504419
 20
148.5
 30
0.0
 40
523.0353982300885
 41
297.0
 68
     1
 69
     1
1001
ACAD
1000
MVIEW
1002
{
1070
    16
1010
0.0
1020
0.0
1030
0.0
1010
0.0
1020
0.0
1030
1.0
1040
0.0
1040
297.0
1040
261.51769911504419
1040
148.5
1040
50.0
1040
0.0
1040
0.0
1070
     0
1070
   100
1070
     1
1070
     1
1070
     0
1070
     0
1070
     0
1070
     0
1040
0.0
1040
0.0
1040
0.0
1040
1.0
1040
1.0
1040
10.0
1040
10.0
1070
     0
1002
{
1002
}
1002
}
1001
GENIUS_GENODEF_13
1002
{
1000
HIER
1070
     0
1002
}
1002
{
1000
MANEDIT
1070
     0
1002
}
1002
{
1000
NOSEL
1070
     0
1002
}
1002
{
1000
BEHIND
1070
     0
1002
}
1002
{
1000
OTHER
1070
     0
1002
}
1002
{
1000
REACTOR
1002
}
1001
GENIUS_GENOBJ-N-SDF_13
1002
{
1000
OWNER
1000
GEN
1002
}
1001
GENIUS_GENSCREG_15
1000
PF
1040
1.0
1000
DF
1040
1.0
1000
MIN
1011
0.0
1021
0.0
1031
0.0
1021
0.0
1031
0.0
1000
MAX
1011
523.0353982300885
1021
0.0
1031
0.0
1021
297.0
1031
0.0
1000
FLAGS
1070
     4
  0
ENDSEC
  0
EOF
