  0
SECTION
  2
HEADER
  9
$ACADVER
  1
AC1009
  9
$INSBASE
 10
0.0
 20
0.0
 30
0.0
  9
$EXTMIN
 10
-66.642024170850931
 20
-41.874081017990811
 30
0.0
  9
$EXTMAX
 10
86.341880119089438
 20
54.000000000000021
 30
0.0
  9
$LIMMIN
 10
0.0
 20
0.0
  9
$LIMMAX
 10
297.0
 20
210.0
  9
$ORTHOMODE
 70
     0
  9
$REGENMODE
 70
     1
  9
$FILLMODE
 70
     1
  9
$QTEXTMODE
 70
     0
  9
$MIRRTEXT
 70
     1
  9
$DRAGMODE
 70
     2
  9
$LTSCALE
 40
10.0
  9
$OSMODE
 70
    39
  9
$ATTMODE
 70
     1
  9
$TEXTSIZE
 40
3.0
  9
$TRACEWID
 40
1.0
  9
$TEXTSTYLE
  7
YOKO
  9
$CLAYER
  8
240
  9
$CELTYPE
  6
BYLAYER
  9
$CECOLOR
 62
   256
  9
$DIMSCALE
 40
1.0
  9
$DIMASZ
 40
2.0
  9
$DIMEXO
 40
0.5
  9
$DIMDLI
 40
7.0
  9
$DIMRND
 40
0.0
  9
$DIMDLE
 40
0.0
  9
$DIMEXE
 40
1.0
  9
$DIMTP
 40
0.0
  9
$DIMTM
 40
0.01
  9
$DIMTXT
 40
2.799999999999998
  9
$DIMCEN
 40
0.0
  9
$DIMTSZ
 40
0.0
  9
$DIMTOL
 70
     0
  9
$DIMLIM
 70
     0
  9
$DIMTIH
 70
     0
  9
$DIMTOH
 70
     0
  9
$DIMSE1
 70
     0
  9
$DIMSE2
 70
     0
  9
$DIMTAD
 70
     3
  9
$DIMZIN
 70
     8
  9
$DIMBLK
  1
OPEN
  9
$DIMASO
 70
     1
  9
$DIMSHO
 70
     1
  9
$DIMPOST
  1

  9
$DIMAPOST
  1

  9
$DIMALT
 70
     0
  9
$DIMALTD
 70
     2
  9
$DIMALTF
 40
25.399999999999999
  9
$DIMLFAC
 40
1.0
  9
$DIMTOFL
 70
     1
  9
$DIMTVP
 40
0.0
  9
$DIMTIX
 70
     1
  9
$DIMSOXD
 70
     0
  9
$DIMSAH
 70
     1
  9
$DIMBLK1
  1

  9
$DIMBLK2
  1

  9
$DIMSTYLE
  2
BIGT
  9
$DIMCLRD
 70
   256
  9
$DIMCLRE
 70
   256
  9
$DIMCLRT
 70
    40
  9
$DIMTFAC
 40
1.0
  9
$DIMGAP
 40
1.0
  9
$LUNITS
 70
     2
  9
$LUPREC
 70
     6
  9
$SKETCHINC
 40
1.0
  9
$FILLETRAD
 40
1.0
  9
$AUNITS
 70
     0
  9
$AUPREC
 70
     6
  9
$MENU
  1
.
  9
$ELEVATION
 40
0.0
  9
$PELEVATION
 40
0.0
  9
$THICKNESS
 40
0.0
  9
$LIMCHECK
 70
     0
  9
$BLIPMODE
 70
     0
  9
$CHAMFERA
 40
0.2
  9
$CHAMFERB
 40
0.2
  9
$SKPOLY
 70
     0
  9
$TDCREATE
 40
2457367.4515353469
  9
$TDUPDATE
 40
2459607.467749815
  9
$TDINDWG
 40
0.0279600463
  9
$TDUSRTIMER
 40
0.027959919
  9
$USRTIMER
 70
     1
  9
$ANGBASE
 50
0.0
  9
$ANGDIR
 70
     0
  9
$PDMODE
 70
     0
  9
$PDSIZE
 40
-5.0
  9
$PLINEWID
 40
0.0
  9
$COORDS
 70
     1
  9
$SPLFRAME
 70
     0
  9
$SPLINETYPE
 70
     6
  9
$SPLINESEGS
 70
     4
  9
$ATTDIA
 70
     1
  9
$ATTREQ
 70
     1
  9
$HANDLING
 70
     1
  9
$HANDSEED
  5
5911
  9
$SURFTAB1
 70
     6
  9
$SURFTAB2
 70
     6
  9
$SURFTYPE
 70
     6
  9
$SURFU
 70
     6
  9
$SURFV
 70
     6
  9
$UCSNAME
  2

  9
$UCSORG
 10
0.0
 20
0.0
 30
0.0
  9
$UCSXDIR
 10
1.0
 20
0.0
 30
0.0
  9
$UCSYDIR
 10
0.0
 20
1.0
 30
0.0
  9
$PUCSNAME
  2

  9
$PUCSORG
 10
0.0
 20
0.0
 30
0.0
  9
$PUCSXDIR
 10
1.0
 20
0.0
 30
0.0
  9
$PUCSYDIR
 10
0.0
 20
1.0
 30
0.0
  9
$USERI1
 70
     1
  9
$USERI2
 70
     0
  9
$USERI3
 70
     0
  9
$USERI4
 70
     0
  9
$USERI5
 70
     0
  9
$USERR1
 40
0.0
  9
$USERR2
 40
0.0
  9
$USERR3
 40
0.0
  9
$USERR4
 40
0.0
  9
$USERR5
 40
0.0
  9
$WORLDVIEW
 70
     1
  9
$SHADEDGE
 70
     3
  9
$SHADEDIF
 70
    70
  9
$TILEMODE
 70
     1
  9
$MAXACTVP
 70
    16
  9
$PLIMCHECK
 70
     0
  9
$PEXTMIN
 10
1.0000000000000000E+020
 20
1.0000000000000000E+020
 30
1.0000000000000000E+020
  9
$PEXTMAX
 10
-1.0000000000000000E+020
 20
-1.0000000000000000E+020
 30
-1.0000000000000000E+020
  9
$PLIMMIN
 10
0.0
 20
0.0
  9
$PLIMMAX
 10
420.0
 20
297.0
  9
$UNITMODE
 70
     0
  9
$VISRETAIN
 70
     1
  9
$PLINEGEN
 70
     0
  9
$PSLTSCALE
 70
     1
  0
ENDSEC
  0
SECTION
  2
TABLES
  0
TABLE
  2
VPORT
 70
     1
  0
VPORT
  2
*ACTIVE
 70
     0
 10
0.0
 20
0.0
 11
1.0
 21
1.0
 12
-15.93424307080153
 22
22.832706253326151
 13
0.0
 23
0.0
 14
7.0
 24
7.0
 15
7.0
 25
7.0
 16
0.0
 26
0.0
 36
1.0
 17
0.0
 27
0.0
 37
0.0
 40
210.1292157535004
 41
1.488859764089121
 42
50.0
 43
0.0
 44
0.0
 50
0.0
 51
0.0
 71
     0
 72
  2000
 73
     1
 74
     0
 75
     0
 76
     0
 77
     0
 78
     0
  0
ENDTAB
  0
TABLE
  2
LTYPE
 70
    17
  0
LTYPE
  2
CONTINUOUS
 70
     0
  3
Solid line
 72
    65
 73
     0
 40
0.0
  0
LTYPE
  2
CENTER2
 70
     0
  3
___ _ ___ _ ___ _ ___ _ ___ _ ___ _ ___ _ ___ _
 72
    65
 73
     4
 40
1.125
 49
0.75
 49
-0.125
 49
0.125
 49
-0.125
  0
LTYPE
  2
HIDDEN2
 70
     0
  3
_ _ _ _ _ _ _ _ _ _ _ _ _ _ _ _ _ _ _ _ _ _ _ _
 72
    65
 73
     2
 40
0.1875
 49
0.125
 49
-0.0625
  0
LTYPE
  2
HIDDEN
 70
     0
  3
Hidden __ __ __ __ __ __ __ __ __ __ __ __ __ _
 72
    65
 73
     2
 40
0.375
 49
0.25
 49
-0.125
  0
LTYPE
  2
PHANTOM2
 70
     0
  3
Phantom (.5x) ___ _ _ ___ _ _ ___ _ _ ___ _ _
 72
    65
 73
     6
 40
1.25
 49
0.625
 49
-0.125
 49
0.125
 49
-0.125
 49
0.125
 49
-0.125
  0
LTYPE
  2
CENTER
 70
     0
  3
Center ____ _ ____ _ ____ _ ____ _ ____ _ ____
 72
    65
 73
     4
 40
2.0
 49
1.25
 49
-0.25
 49
0.25
 49
-0.25
  0
LTYPE
  2
AMCONSTR
 70
     0
  3
_______________________
 72
    65
 73
     2
 40
9999.0
 49
9999.0
 49
0.0
  0
LTYPE
  2
AMZIGZAG2
 70
     0
  3
/\/-/\/-/\/-/\/-/\/-/\/
 72
    65
 73
     2
 40
0.4401
 49
0.0001
 49
-0.4400000000000001
  0
LTYPE
  2
ACANSTGB
 70
     0
  3
__ . . __ . .
 72
    65
 73
     6
 40
0.35433070866
 49
0.15748031496
 49
-0.03937007874
 49
0.03937007874
 49
-0.03937007874
 49
0.03937007874
 49
-0.03937007874
  0
LTYPE
  2
ACANSTGL
 70
     0
  3
_ _ _ _ _
 72
    65
 73
     2
 40
0.11811023622
 49
0.07874015748
 49
-0.03937007874
  0
ENDTAB
  0
TABLE
  2
LAYER
 70
     9
  0
LAYER
  2
0
 70
     0
 62
     7
  6
CONTINUOUS
  0
LAYER
  2
240
 70
     0
 62
     4
  6
CONTINUOUS
  0
LAYER
  2
245
 70
     0
 62
     2
  6
CENTER2
  0
LAYER
  2
241
 70
     0
 62
   211
  6
CONTINUOUS
  0
LAYER
  2
247
 70
     0
 62
    60
  6
CONTINUOUS
  0
LAYER
  2
250
 70
     0
 62
     3
  6
CONTINUOUS
  0
LAYER
  2
251
 70
     0
 62
     3
  6
CONTINUOUS
  0
LAYER
  2
242
 70
     0
 62
     3
  6
CONTINUOUS
  0
ENDTAB
  0
TABLE
  2
STYLE
 70
     5
  0
STYLE
  2
STANDARD
 70
     0
 40
0.0
 41
1.0
 50
0.0
 71
     0
 42
2.799999999999998
  3
romans.shx
  4
extfont.shx
  0
STYLE
  2
YOKO
 70
     0
 40
0.0
 41
1.0
 50
0.0
 71
     0
 42
3.0
  3
romans.shx
  4
extfont.shx
  0
STYLE
  2

 70
     1
 40
0.0
 41
1.0
 50
0.0
 71
     0
 42
3.0
  3
genltshp.shx
  4

  0
STYLE
  2
ACANSGDT
 70
     0
 40
0.0
 41
1.0
 50
0.0
 71
     0
 42
3.0
  3
amgdt.shx
  4

  0
ENDTAB
  0
TABLE
  2
VIEW
 70
     0
  0
ENDTAB
  0
TABLE
  2
UCS
 70
     0
  0
ENDTAB
  0
TABLE
  2
APPID
 70
    42
  0
APPID
  2
ACAD
 70
     0
  0
APPID
  2
ACADANNOTATIVE
 70
     0
  0
APPID
  2
GLOBAL
 70
     0
  0
APPID
  2
DETAIL
 70
     0
  0
APPID
  2
GRPNAME
 70
     0
  0
APPID
  2
GPARA
 70
     0
  0
APPID
  2
MCAD_NO_VIS
 70
     0
  0
APPID
  2
ACAD_TEMP_GRAPHIC
 70
     0
  0
APPID
  2
ACATTRIBSERVICES
 70
     0
  0
APPID
  2
GENIUS_GENSCREG_15
 70
     0
  0
APPID
  2
GENIUS_GENODEF_13
 70
     0
  0
APPID
  2
GENIUS_GENOBJ-N-SDF_13
 70
     0
  0
APPID
  2
GENIUS_GENREC_14
 70
     0
  0
APPID
  2
GENIUS_GENOBJ-N-REC_13
 70
     0
  0
APPID
  2
GENIUS_GENDIMSH_14
 70
     0
  0
APPID
  2
GENIUS_GENOBJ-N-DIM_13
 70
     0
  0
APPID
  2
GENIUS_GENDIM_13
 70
     0
  0
APPID
  2
GENIUS_GENDTOL_13
 70
     0
  0
APPID
  2
GENIUS_GENOLIS_13
 70
     0
  0
APPID
  2
GENIUS_GENOENT_13
 70
     0
  0
APPID
  2
GENIUS_GENOBJ-F-FEM_13
 70
     0
  0
APPID
  2
GENIUS_GENOREF_13
 70
     0
  0
APPID
  2
GENIUS_GEFFEM_13
 70
     0
  0
APPID
  2
GENIUS_GEFFEMP_13
 70
     0
  0
APPID
  2
AD_DRAW
 70
     0
  0
APPID
  2
DESIGNERASSEMBLIES
 70
     0
  0
APPID
  2
ACADM_DIM_EDIT
 70
     0
  0
APPID
  2
AMDT_DM_ADJ
 70
     0
  0
APPID
  2
ITEMNAME
 70
     0
  0
APPID
  2
GENIUS_GENOBJ-N-FIL_13
 70
     0
  0
APPID
  2
GENIUS_GENFIL_13
 70
     0
  0
APPID
  2
GENIUS_GENOBJ-N-CHA_13
 70
     0
  0
APPID
  2
ACAD_NAV_VCDISPLAY
 70
     0
  0
APPID
  2
ACAD_DSTYLE_DIMINSPECT
 70
     0
  0
APPID
  2
ACAD_MLEADERVER
 70
     0
  0
APPID
  2
ACAD_DSTYLE_DIMJAG
 70
     0
  0
APPID
  2
ACAD_DSTYLE_DIMBREAK
 70
     0
  0
APPID
  2
ACAECLAYERSTANDARD
 70
     0
  0
APPID
  2
ACAD_EXEMPT_FROM_CAD_STANDARDS
 70
     0
  0
APPID
  2
ASK_MEN_XD
 70
     0
  0
APPID
  2
ACAD_PSEXT
 70
     0
  0
APPID
  2
GRADE_0
 70
     0
  0
ENDTAB
  0
TABLE
  2
DIMSTYLE
 70
     8
  0
DIMSTYLE
  2
BIGT
 70
     0
  3

  4

  5

  6

  7

 40
1.0
 41
2.2299999999999991
 42
0.5
 43
7.0
 44
1.0
 45
0.0
 46
0.0
 47
0.0
 48
0.01
140
2.799999999999998
141
0.0
142
0.0
143
25.399999999999999
144
1.0
145
0.0
146
1.0
147
1.0
 71
     0
 72
     0
 73
     0
 74
     0
 75
     0
 76
     0
 77
     3
 78
     9
170
     0
171
     2
172
     1
173
     0
174
     1
175
     0
176
   256
177
   256
178
    40
  0
DIMSTYLE
  2
AM_ANSI
 70
     0
  3

  4
mm
  5

  6

  7

 40
1.0
 41
0.12
 42
0.05
 43
0.5
 44
0.1
 45
0.0
 46
0.0
 47
0.1
 48
0.1
140
0.12
141
0.0
142
0.0
143
25.399999999999999
144
1.0
145
0.0
146
0.71
147
0.06
 71
     0
 72
     0
 73
     1
 74
     1
 75
     0
 76
     0
 77
     0
 78
     7
170
     0
171
     2
172
     0
173
     0
174
     0
175
     0
176
   256
177
   256
178
     2
  0
DIMSTYLE
  2
AM_ANSI$3
 70
     0
  3

  4
mm
  5

  6

  7

 40
1.0
 41
0.12
 42
0.05
 43
0.5
 44
0.1
 45
0.0
 46
0.0
 47
0.1
 48
0.1
140
0.12
141
0.0
142
0.0
143
25.399999999999999
144
1.0
145
0.0
146
0.71
147
0.06
 71
     0
 72
     0
 73
     1
 74
     1
 75
     0
 76
     0
 77
     0
 78
     7
170
     0
171
     2
172
     0
173
     0
174
     0
175
     0
176
   256
177
   256
178
     2
  0
DIMSTYLE
  2
AM_ANSI$4
 70
     0
  3

  4
mm
  5

  6

  7

 40
1.0
 41
0.12
 42
0.05
 43
0.5
 44
0.1
 45
0.0
 46
0.0
 47
0.1
 48
0.1
140
0.12
141
0.0
142
0.0
143
25.399999999999999
144
1.0
145
0.0
146
0.71
147
0.06
 71
     0
 72
     0
 73
     1
 74
     1
 75
     0
 76
     0
 77
     0
 78
     7
170
     0
171
     2
172
     0
173
     0
174
     0
175
     0
176
   256
177
   256
178
     2
  0
DIMSTYLE
  2
AM_ANSI$7
 70
     0
  3

  4
mm
  5

  6

  7

 40
1.0
 41
0.12
 42
0.05
 43
0.5
 44
0.1
 45
0.0
 46
0.0
 47
0.1
 48
0.1
140
0.12
141
0.0
142
0.0
143
25.399999999999999
144
1.0
145
0.0
146
0.71
147
0.06
 71
     0
 72
     0
 73
     1
 74
     1
 75
     0
 76
     0
 77
     0
 78
     7
170
     0
171
     2
172
     0
173
     0
174
     0
175
     0
176
   256
177
   256
178
     2
  0
DIMSTYLE
  2
AM_ANSI$SF
 70
     0
  3

  4
mm
  5

  6

  7

 40
1.0
 41
0.12
 42
0.05
 43
0.5
 44
0.1
 45
0.0
 46
0.0
 47
0.1
 48
0.1
140
0.12
141
0.0
142
0.0
143
25.399999999999999
144
1.0
145
0.0
146
0.71
147
0.06
 71
     0
 72
     0
 73
     1
 74
     1
 75
     1
 76
     1
 77
     0
 78
     7
170
     0
171
     2
172
     0
173
     0
174
     0
175
     0
176
   256
177
   256
178
     2
  0
DIMSTYLE
  2
AM_ANSI$SH
 70
     0
  3

  4
mm
  5

  6
GENAXEH
  7

 40
1.0
 41
0.12
 42
0.05
 43
0.5
 44
0.1
 45
0.0
 46
0.0
 47
0.1
 48
0.1
140
0.12
141
0.0
142
0.0
143
25.399999999999999
144
1.0
145
0.0
146
0.71
147
0.06
 71
     0
 72
     0
 73
     1
 74
     1
 75
     1
 76
     1
 77
     0
 78
     7
170
     0
171
     2
172
     0
173
     1
174
     0
175
     0
176
   256
177
   256
178
     2
  0
ENDTAB
  0
ENDSEC
  0
SECTION
  2
BLOCKS
  0
BLOCK
  8
0
  2
$MODEL_SPACE
 70
     0
 10
0.0
 20
0.0
 30
0.0
  3
$MODEL_SPACE
  1

  0
ENDBLK
  5
4CB2
  8
0
  0
BLOCK
 67
     1
  8
0
  2
$PAPER_SPACE
 70
     0
 10
0.0
 20
0.0
 30
0.0
  3
$PAPER_SPACE
  1

  0
ENDBLK
  5
4CAE
 67
     1
  8
0
  0
BLOCK
  8
0
  2
_OPEN
 70
     0
 10
0.0
 20
0.0
 30
0.0
  3
_OPEN
  1

  0
LINE
  5
4342
  8
0
  6
BYBLOCK
 62
     0
 10
-1.0
 20
0.1666666666666666
 30
0.0
 11
0.0
 21
0.0
 31
0.0
  0
LINE
  5
4343
  8
0
  6
BYBLOCK
 62
     0
 10
-1.0
 20
-0.1666666666666666
 30
0.0
 11
0.0
 21
0.0
 31
0.0
  0
LINE
  5
4344
  8
0
  6
BYBLOCK
 62
     0
 10
0.0
 20
0.0
 30
0.0
 11
-1.0
 21
0.0
 31
0.0
  0
ENDBLK
  5
4345
  8
0
  0
BLOCK
  8
0
  2
_DOT
 70
     0
 10
0.0
 20
0.0
 30
0.0
  3
_DOT
  1

  0
LINE
  5
51C0
  8
0
 62
     0
 10
-1.0
 20
0.0
 30
0.0
 11
0.0
 21
0.0
 31
0.0
  0
POLYLINE
  5
51C1
  8
0
 62
     0
 66
     1
 10
0.0
 20
0.0
 30
0.0
 40
0.5
 41
0.5
  0
VERTEX
  5
5880
  8
0
 62
     0
 10
0.125
 20
0.0
 30
0.0
 42
0.9999999999999998
  0
VERTEX
  5
5881
  8
0
 62
     0
 10
-0.125
 20
0.0
 30
0.0
 42
1.0
  0
VERTEX
  5
5882
  8
0
 62
     0
 10
0.125
 20
0.0
 30
0.0
 42
1.0
  0
SEQEND
  5
5883
  8
0
 62
     0
  0
ENDBLK
  5
51C2
  8
0
  0
BLOCK
  8
0
  2
GENAXEH
 70
     0
 10
0.0
 20
0.0
 30
0.0
  3
GENAXEH
  1

  0
LINE
  5
527D
  8
0
 10
-1.0
 20
0.0
 30
0.0
 11
1.0
 21
0.0
 31
0.0
  0
ENDBLK
  5
527F
  8
0
  0
BLOCK
  8
0
  2
_ACMFILLEDHALF
 70
     0
 10
0.0
 20
0.0
 30
0.0
  3
_ACMFILLEDHALF
  1

  0
TRACE
  5
528F
  8
240
 62
     0
 10
-0.8
 20
0.0
 30
0.0
 11
-1.0
 21
0.166666666
 31
0.0
 12
0.0
 22
0.0
 32
0.0
 13
0.0
 23
0.0
 33
0.0
  0
LINE
  5
5290
  8
240
 62
     0
 10
-1.0
 20
0.0
 30
0.0
 11
-0.8
 21
0.0
 31
0.0
  0
ENDBLK
  5
528E
  8
0
  0
BLOCK
  8
0
  2
*U10
 70
     1
 10
0.0
 20
0.0
 30
0.0
  3
*U10
  1

  0
INSERT
  5
5875
  8
251
  6
CONTINUOUS
  2
_DOT
 10
52.032086843380966
 20
-25.079319744240649
 30
0.0
 41
2.0
 42
2.0
 43
2.0
 50
119.9999999999999
  0
POLYLINE
  5
5876
  8
251
  6
CONTINUOUS
 66
     1
 10
0.0
 20
0.0
 30
0.0
  0
VERTEX
  5
5877
  8
251
  6
CONTINUOUS
 10
53.032086843380966
 20
-26.811370551809532
 30
0.0
  0
VERTEX
  5
5878
  8
251
  6
CONTINUOUS
 10
61.728546785756102
 20
-41.874081017990811
 30
0.0
  0
SEQEND
  5
5879
  8
251
  6
CONTINUOUS
  0
ENDBLK
  5
587B
  8
0
  0
BLOCK
  8
0
  2
*U11
 70
     1
 10
0.0
 20
0.0
 30
0.0
  3
*U11
  1

  0
TEXT
  5
587D
  8
251
 10
62.84854678575612
 20
-40.874081017990811
 30
0.0
 40
2.799999999999998
  1
üiDN1504üj
  7
YOKO
  0
ENDBLK
  5
587F
  8
0
  0
BLOCK
  8
0
  2
*U12
 70
     1
 10
0.0
 20
0.0
 30
0.0
  3
*U12
  1

  0
TEXT
  5
5885
  8
250
 10
24.833333333333339
 20
36.0
 30
0.0
 40
2.799999999999998
  1
55
  0
ENDBLK
  5
5887
  8
0
  0
BLOCK
  8
0
  2
*U13
 70
     1
 10
0.0
 20
0.0
 30
0.0
  3
*U13
  1

  0
TEXT
  5
5889
  8
250
 10
68.999999999999986
 20
-16.1666666666666
 30
0.0
 40
2.799999999999998
  1
27
 50
90.0
  0
ENDBLK
  5
588B
  8
0
  0
ENDSEC
  0
SECTION
  2
ENTITIES
  0
LINE
  5
421F
  8
240
  6
CONTINUOUS
 10
-24.0
 20
13.462452753759919
 30
0.0
 11
0.0
 21
14.06250549360146
 31
0.0
  0
LINE
  5
4220
  8
240
  6
CONTINUOUS
 10
0.0
 20
-14.062505499322411
 30
0.0
 11
-24.0
 21
-13.46245267871182
 31
0.0
  0
LINE
  5
4221
  8
245
  6
CENTER2
 10
-25.0
 20
0.0
 30
0.0
 11
39.251490201848313
 21
0.0
 31
0.0
  0
LINE
  5
4222
  8
240
  6
CONTINUOUS
 10
-24.0
 20
-13.46245267871182
 30
0.0
 11
-24.0
 21
13.462452753759919
 31
0.0
  0
LINE
  5
4223
  8
241
 10
-19.800000000000001
 20
-2.5425000000000182
 30
0.0
 11
-19.800000000000001
 21
2.5425000000000182
 31
0.0
  0
LINE
  5
4225
  8
241
 10
-24.0
 20
-2.5425000000000182
 30
0.0
 11
-19.800000000000001
 21
-2.5425000000000182
 31
0.0
  0
LINE
  5
4226
  8
241
 10
-24.0
 20
2.5425000000000182
 30
0.0
 11
-19.800000000000001
 21
2.5425000000000182
 31
0.0
  0
LINE
  5
4227
  8
241
  6
CONTINUOUS
 10
0.0
 20
-14.062505499322411
 30
0.0
 11
0.0
 21
14.06250549360146
 31
0.0
  0
LINE
  5
422C
  8
240
  6
CONTINUOUS
 10
0.0
 20
-20.0
 30
0.0
 11
0.0
 21
-14.062505499322411
 31
0.0
  0
LINE
  5
4235
  8
240
  6
CONTINUOUS
 10
0.0
 20
20.0
 30
0.0
 11
0.0
 21
14.06250549360152
 31
0.0
  0
LINE
  5
4237
  8
250
  6
CONTINUOUS
 10
-14.21116305741373
 20
-15.30479900198344
 30
0.0
 11
-12.92248792332026
 21
-13.739414860668489
 31
0.0
  0
LINE
  5
4238
  8
250
  6
CONTINUOUS
 10
-13.63381278811732
 20
-15.638132335131839
 30
0.0
 11
-12.92248792332026
 21
-13.739414860668489
 31
0.0
  0
LINE
  5
4239
  8
250
  6
CONTINUOUS
 10
-12.92248792332026
 20
-13.739414860668489
 30
0.0
 11
-13.922487922765519
 21
-15.47146566855764
 31
0.0
  0
LINE
  5
423A
  8
250
  6
CONTINUOUS
 10
-13.922487922765519
 20
-15.47146566855764
 30
0.0
 11
-17.582293443320271
 21
-21.810434780668452
 31
0.0
1001
ACAD
1000
DSTYLE
1002
{
1070
     6
1000
OPEN
1070
    41
1040
2.0
1070
    42
1040
2.0
1070
    44
1040
2.0
1070
   140
1040
4.0
1070
   343
1005
594
1002
}
  0
TEXT
  5
423B
  8
250
  6
CONTINUOUS
 10
-25.582293443320282
 20
-20.810434780668452
 30
0.0
 40
2.799999999999998
  1
C4
  7
YOKO
1001
ITEMNAME
1000
LNSP3
  0
LINE
  5
423C
  8
250
  6
CONTINUOUS
 10
-17.582293443320271
 20
-21.810434780668452
 30
0.0
 11
-27.982293443320319
 21
-21.810434780668452
 31
0.0
1001
ITEMNAME
1000
LNSP2
  0
LINE
  5
423D
  8
247
  6
CONTINUOUS
 10
3.9999999999999432
 20
-8.75
 30
0.0
 11
4.0
 21
-4.115384615669992
 31
0.0
  0
LINE
  5
423E
  8
247
  6
CONTINUOUS
 10
1.5
 20
-7.954893499987973
 30
0.0
 11
3.5999999999160082
 21
-8.5570588100573541
 31
0.0
  0
LINE
  5
423F
  8
247
  6
CONTINUOUS
 10
2.496153846113998
 20
-7.325151403519043
 30
0.0
 11
2.496153846113998
 21
-8.2405360188670311
 31
0.0
  0
ARC
  5
4240
  8
247
  6
CONTINUOUS
 10
1.8847190672940981
 20
-7.087263401946811
 30
0.0
 40
0.3876715809326743
 50
72.9978896752922
 51
172.92416621851359
  0
ARC
  5
4241
  8
247
  6
CONTINUOUS
 10
1.805223131028014
 20
-7.3824775568041323
 30
0.0
 40
0.6933047965358772
 50
4.7429368522022113
 51
73.849226273266751
1001
GENIUS_GENOBJ-N-FIL_13
1002
{
1000
OWNER
1000
GEN
1002
}
1001
GENIUS_GENODEF_13
1002
{
1000
HIER
1070
     0
1002
}
1002
{
1000
MANEDIT
1070
     0
1002
}
1002
{
1000
NOSEL
1070
     0
1002
}
1002
{
1000
BEHIND
1070
     0
1002
}
1002
{
1000
OTHER
1070
     0
1002
}
1002
{
1000
REACTOR
1002
}
  0
LINE
  5
4242
  8
247
  6
CONTINUOUS
 10
3.5999999999160082
 20
-7.641674194709366
 30
0.0
 11
3.5999999999160082
 21
-8.5570588100573541
 31
0.0
  0
LINE
  5
4243
  8
247
  6
CONTINUOUS
 10
1.5
 20
-7.954893499987973
 30
0.0
 11
1.5
 21
-7.0395088846399272
 31
0.0
  0
ARC
  5
4244
  8
247
  6
CONTINUOUS
 10
2.8874169627678721
 20
-7.3783064762668573
 30
0.0
 40
0.394857301075386
 50
65.990941652528889
 51
172.26344345906909
  0
ARC
  5
4245
  8
247
  6
CONTINUOUS
 10
2.8912003273325682
 20
-7.7124466104269231
 30
0.0
 40
0.7123241612361686
 50
5.7019851642564632
 51
77.277338436822021
1001
GENIUS_GENOBJ-N-FIL_13
1002
{
1000
OWNER
1000
GEN
1002
}
1001
GENIUS_GENODEF_13
1002
{
1000
HIER
1070
     0
1002
}
1002
{
1000
MANEDIT
1070
     0
1002
}
1002
{
1000
NOSEL
1070
     0
1002
}
1002
{
1000
BEHIND
1070
     0
1002
}
1002
{
1000
OTHER
1070
     0
1002
}
1002
{
1000
REACTOR
1002
}
  0
LINE
  5
4246
  8
247
  6
CONTINUOUS
 10
3.5999999999160082
 20
-6.6839818870633962
 30
0.0
 11
1.5
 21
-6.0818165769939556
 31
0.0
  0
LINE
  5
4247
  8
247
  6
CONTINUOUS
 10
1.5
 20
-4.5856627309079832
 30
0.0
 11
1.5
 21
-4.981678364303546
 31
0.0
  0
LINE
  5
4248
  8
247
  6
CONTINUOUS
 10
3.5999999999160082
 20
-5.6087396539439851
 30
0.0
 11
3.5999999999160082
 21
-5.177970423191935
 31
0.0
  0
ARC
  5
4249
  8
247
  6
CONTINUOUS
 10
2.9582995950833602
 20
-4.3818165770699684
 30
0.0
 40
1.576855057639547
 50
202.35948814152911
 51
254.99324854284649
  0
ARC
  5
424A
  8
247
  6
CONTINUOUS
 10
2.0658188585381341
 20
-4.8475113661332312
 30
0.0
 40
0.6234706797009447
 50
94.994589319075317
 51
155.1663289573039
1001
GENIUS_GENOBJ-N-FIL_13
1002
{
1000
OWNER
1000
GEN
1002
}
1001
GENIUS_GENODEF_13
1002
{
1000
HIER
1070
     0
1002
}
1002
{
1000
MANEDIT
1070
     0
1002
}
1002
{
1000
NOSEL
1070
     0
1002
}
1002
{
1000
BEHIND
1070
     0
1002
}
1002
{
1000
OTHER
1070
     0
1002
}
1002
{
1000
REACTOR
1002
}
  0
ARC
  5
424B
  8
247
  6
CONTINUOUS
 10
2.6621021219694381
 20
-5.4441839510327554
 30
0.0
 40
0.9749472149106983
 50
15.8460965557808
 51
82.325137004169278
  0
ARC
  5
424C
  8
247
  6
CONTINUOUS
 10
2.8714704019710662
 20
-5.0352116387722381
 30
0.0
 40
0.9271945638692009
 50
249.7136016704969
 51
321.78874565641053
1001
GENIUS_GENOBJ-N-FIL_13
1002
{
1000
OWNER
1000
GEN
1002
}
1001
GENIUS_GENODEF_13
1002
{
1000
HIER
1070
     0
1002
}
1002
{
1000
MANEDIT
1070
     0
1002
}
1002
{
1000
NOSEL
1070
     0
1002
}
1002
{
1000
BEHIND
1070
     0
1002
}
1002
{
1000
OTHER
1070
     0
1002
}
1002
{
1000
REACTOR
1002
}
  0
LINE
  5
424D
  8
247
  6
CONTINUOUS
 10
2.792307692255974
 20
-4.962585807815965
 30
0.0
 11
2.792307692255974
 21
-4.4779704232199711
 31
0.0
  0
ARC
  5
424E
  8
247
  6
CONTINUOUS
 10
2.75
 20
-8.75
 30
0.0
 40
1.25
 50
180.0
 51
0.0
  0
LINE
  5
424F
  8
247
  6
CONTINUOUS
 10
1.5
 20
-8.75
 30
0.0
 11
1.5
 21
-8.3038461539139803
 31
0.0
  0
ARC
  5
4250
  8
247
  6
CONTINUOUS
 10
2.75
 20
-4.115384615669992
 30
0.0
 40
1.25
 50
0.0
 51
180.0
  0
LINE
  5
4254
  8
240
  6
CONTINUOUS
 10
26.023226276640219
 20
20.0
 30
0.0
 11
0.0
 21
20.0
 31
0.0
  0
LINE
  5
4255
  8
240
  6
CONTINUOUS
 10
21.58542223119818
 20
-20.0
 30
0.0
 11
0.0
 21
-20.0
 31
0.0
  0
LINE
  5
4A44
  8
241
  6
CONTINUOUS
 10
6.6999999999999851
 20
5.4434495400000156
 30
0.0
 11
6.6999999999999851
 21
19.23457711999998
 31
0.0
  0
LINE
  5
4A45
  8
241
  6
CONTINUOUS
 10
9.3000000000000114
 20
5.4434495400000156
 30
0.0
 11
9.3000000000000114
 21
19.23457711999998
 31
0.0
  0
LINE
  5
4A46
  8
241
  6
CONTINUOUS
 10
6.6999999999999851
 20
5.4434495400000156
 30
0.0
 11
9.3000000000000114
 21
5.4434495400000156
 31
0.0
  0
LINE
  5
4A47
  8
241
  6
CONTINUOUS
 10
6.6999999999999851
 20
19.23457711999998
 30
0.0
 11
9.3000000000000114
 21
19.23457711999998
 31
0.0
  0
ARC
  5
4A48
  8
241
  6
CONTINUOUS
 10
19.246864401683411
 20
12.33901333
 30
0.0
 40
14.316864401683389
 50
151.207481346615
 51
208.792518653385
  0
ARC
  5
4A49
  8
241
  6
CONTINUOUS
 10
-3.2468644016833501
 20
12.33901333
 30
0.0
 40
14.31686440168337
 50
331.20748134661488
 51
28.792518653385031
  0
LINE
  5
4A4A
  8
241
  6
CONTINUOUS
 10
6.6999999999999851
 20
-5.4434495400000156
 30
0.0
 11
6.6999999999999851
 21
-19.23457711999998
 31
0.0
  0
LINE
  5
4A4B
  8
241
  6
CONTINUOUS
 10
9.3000000000000114
 20
-5.4434495400000156
 30
0.0
 11
9.3000000000000114
 21
-19.23457711999998
 31
0.0
  0
LINE
  5
4A4C
  8
241
  6
CONTINUOUS
 10
6.6999999999999851
 20
-5.4434495400000156
 30
0.0
 11
9.3000000000000114
 21
-5.4434495400000156
 31
0.0
  0
LINE
  5
4A4D
  8
241
  6
CONTINUOUS
 10
6.6999999999999851
 20
-19.23457711999998
 30
0.0
 11
9.3000000000000114
 21
-19.23457711999998
 31
0.0
  0
ARC
  5
4A4E
  8
241
  6
CONTINUOUS
 10
19.246864401683411
 20
-12.33901333
 30
0.0
 40
14.316864401683389
 50
151.207481346615
 51
208.792518653385
  0
ARC
  5
4A4F
  8
241
  6
CONTINUOUS
 10
-3.2468644016833501
 20
-12.33901333
 30
0.0
 40
14.31686440168337
 50
331.20748134661488
 51
28.792518653385031
  0
ARC
  5
4BE1
  8
241
 10
-20.845185903844769
 20
0.0
 30
0.0
 40
2.7489488579447801
 50
292.34687274647791
 51
67.653127253522129
  0
TEXT
  5
4E09
  8
241
  6
CONTINUOUS
 10
-24.0
 20
49.0
 30
0.0
 40
5.0
  1
C4-DDJNL-27055-15
  7
YOKO
 11
-24.0
 21
49.0
 31
0.0
 73
     1
  0
ARC
  5
5168
  8
240
  6
CONTINUOUS
 10
21.58542223119818
 20
-21.0
 30
0.0
 40
1.0
 50
39.99999999999968
 51
90.0
  0
LINE
  5
5169
  8
240
  6
CONTINUOUS
 10
23.649338668393359
 20
-21.903956001981239
 30
0.0
 11
22.351466674317169
 21
-20.35721239031346
 31
0.0
  0
LINE
  5
516A
  8
241
  6
CONTINUOUS
 10
19.997705265804989
 20
19.990000000000009
 30
0.0
 11
19.997705265804971
 21
-19.989999999999949
 31
0.0
  0
LINE
  5
516D
  8
241
  6
CONTINUOUS
 10
20.25
 20
13.793579782808481
 30
0.0
 11
20.25
 21
-16.628190714881949
 31
0.0
  0
LINE
  5
5171
  8
241
  6
CONTINUOUS
 10
25.55434395775308
 20
-22.979326002180748
 30
0.0
 11
25.55434395775308
 21
-9.2008794548530233
 31
0.0
  0
LINE
  5
5172
  8
241
  6
CONTINUOUS
 10
25.55434395775308
 20
-2.8538368248271109
 30
0.0
 11
25.55434395775308
 21
17.987839437714111
 31
0.0
  0
LINE
  5
5177
  8
240
  6
CONTINUOUS
 10
29.026312627813581
 20
-24.939242318565672
 30
0.0
 11
23.649338668393359
 21
-21.903956001981239
 31
0.0
  0
ARC
  5
5178
  8
240
  6
CONTINUOUS
 10
31.43914338643469
 20
-20.659712300013719
 30
0.0
 40
4.912853493585537
 50
240.58537379273159
 51
267.03056986647812
  0
LINE
  5
5179
  8
240
  6
CONTINUOUS
 10
40.176337436593229
 20
-26.037770320362089
 30
0.0
 11
31.18464217268059
 21
-25.565969384761051
 31
0.0
  0
LINE
  5
517A
  8
240
  6
CONTINUOUS
 10
26.023226276640219
 20
20.0
 30
0.0
 11
46.803710222287819
 21
-13.98762747148341
 31
0.0
  0
POLYLINE
  8
241
  5
588F
  66
     1
 10
0.000000
 20
0.000000
 30
0.000000
  70
     8
  0
VERTEX
  8
241
  5
5890
 10
32.1806
 20
2.61430
 30
0.000000
  70
    32
  0
VERTEX
  8
241
  5
5891
 10
32.1807
 20
2.61441
 30
0.000000
  70
    32
  0
VERTEX
  8
241
  5
5892
 10
32.1809
 20
2.61452
 30
0.000000
  70
    32
  0
VERTEX
  8
241
  5
5893
 10
32.1810
 20
2.61463
 30
0.000000
  70
    32
  0
VERTEX
  8
241
  5
5894
 10
32.1811
 20
2.61474
 30
0.000000
  70
    32
  0
VERTEX
  8
241
  5
5895
 10
32.1812
 20
2.61484
 30
0.000000
  70
    32
  0
VERTEX
  8
241
  5
5896
 10
32.1813
 20
2.61495
 30
0.000000
  70
    32
  0
VERTEX
  8
241
  5
5897
 10
32.1815
 20
2.61506
 30
0.000000
  70
    32
  0
VERTEX
  8
241
  5
5898
 10
32.1816
 20
2.61517
 30
0.000000
  70
    32
  0
VERTEX
  8
241
  5
5899
 10
32.1817
 20
2.61527
 30
0.000000
  70
    32
  0
VERTEX
  8
241
  5
589A
 10
32.1818
 20
2.61538
 30
0.000000
  70
    32
  0
VERTEX
  8
241
  5
589B
 10
32.1819
 20
2.61549
 30
0.000000
  70
    32
  0
VERTEX
  8
241
  5
589C
 10
32.1820
 20
2.61560
 30
0.000000
  70
    32
  0
VERTEX
  8
241
  5
589D
 10
32.1822
 20
2.61570
 30
0.000000
  70
    32
  0
VERTEX
  8
241
  5
589E
 10
32.1823
 20
2.61581
 30
0.000000
  70
    32
  0
VERTEX
  8
241
  5
589F
 10
32.1824
 20
2.61592
 30
0.000000
  70
    32
  0
VERTEX
  8
241
  5
58A0
 10
32.1825
 20
2.61603
 30
0.000000
  70
    32
  0
VERTEX
  8
241
  5
58A1
 10
32.1826
 20
2.61614
 30
0.000000
  70
    32
  0
VERTEX
  8
241
  5
58A2
 10
32.1828
 20
2.61624
 30
0.000000
  70
    32
  0
VERTEX
  8
241
  5
58A3
 10
32.1829
 20
2.61635
 30
0.000000
  70
    32
  0
VERTEX
  8
241
  5
58A4
 10
32.1830
 20
2.61646
 30
0.000000
  70
    32
  0
VERTEX
  8
241
  5
58A5
 10
32.1831
 20
2.61657
 30
0.000000
  70
    32
  0
VERTEX
  8
241
  5
58A6
 10
32.1832
 20
2.61667
 30
0.000000
  70
    32
  0
VERTEX
  8
241
  5
58A7
 10
32.1833
 20
2.61678
 30
0.000000
  70
    32
  0
VERTEX
  8
241
  5
58A8
 10
32.1835
 20
2.61689
 30
0.000000
  70
    32
  0
VERTEX
  8
241
  5
58A9
 10
32.1836
 20
2.61700
 30
0.000000
  70
    32
  0
VERTEX
  8
241
  5
58AA
 10
32.1837
 20
2.61711
 30
0.000000
  70
    32
  0
VERTEX
  8
241
  5
58AB
 10
32.1838
 20
2.61721
 30
0.000000
  70
    32
  0
VERTEX
  8
241
  5
58AC
 10
32.1839
 20
2.61732
 30
0.000000
  70
    32
  0
VERTEX
  8
241
  5
58AD
 10
32.1841
 20
2.61743
 30
0.000000
  70
    32
  0
VERTEX
  8
241
  5
58AE
 10
32.1842
 20
2.61754
 30
0.000000
  70
    32
  0
VERTEX
  8
241
  5
58AF
 10
32.1843
 20
2.61764
 30
0.000000
  70
    32
  0
VERTEX
  8
241
  5
58B0
 10
32.1844
 20
2.61775
 30
0.000000
  70
    32
  0
VERTEX
  8
241
  5
58B1
 10
32.1845
 20
2.61786
 30
0.000000
  70
    32
  0
VERTEX
  8
241
  5
58B2
 10
32.1847
 20
2.61797
 30
0.000000
  70
    32
  0
VERTEX
  8
241
  5
58B3
 10
32.1848
 20
2.61808
 30
0.000000
  70
    32
  0
VERTEX
  8
241
  5
58B4
 10
32.1849
 20
2.61818
 30
0.000000
  70
    32
  0
VERTEX
  8
241
  5
58B5
 10
32.1850
 20
2.61829
 30
0.000000
  70
    32
  0
VERTEX
  8
241
  5
58B6
 10
32.1851
 20
2.61840
 30
0.000000
  70
    32
  0
VERTEX
  8
241
  5
58B7
 10
32.1852
 20
2.61851
 30
0.000000
  70
    32
  0
VERTEX
  8
241
  5
58B8
 10
32.1854
 20
2.61861
 30
0.000000
  70
    32
  0
VERTEX
  8
241
  5
58B9
 10
32.1855
 20
2.61872
 30
0.000000
  70
    32
  0
VERTEX
  8
241
  5
58BA
 10
32.1856
 20
2.61883
 30
0.000000
  70
    32
  0
VERTEX
  8
241
  5
58BB
 10
32.1857
 20
2.61894
 30
0.000000
  70
    32
  0
VERTEX
  8
241
  5
58BC
 10
32.1858
 20
2.61905
 30
0.000000
  70
    32
  0
VERTEX
  8
241
  5
58BD
 10
32.1860
 20
2.61915
 30
0.000000
  70
    32
  0
VERTEX
  8
241
  5
58BE
 10
32.1861
 20
2.61926
 30
0.000000
  70
    32
  0
VERTEX
  8
241
  5
58BF
 10
32.1862
 20
2.61937
 30
0.000000
  70
    32
  0
VERTEX
  8
241
  5
58C0
 10
32.1863
 20
2.61948
 30
0.000000
  70
    32
  0
VERTEX
  8
241
  5
58C1
 10
32.1864
 20
2.61958
 30
0.000000
  70
    32
  0
VERTEX
  8
241
  5
58C2
 10
32.1865
 20
2.61969
 30
0.000000
  70
    32
  0
VERTEX
  8
241
  5
58C3
 10
32.1867
 20
2.61980
 30
0.000000
  70
    32
  0
VERTEX
  8
241
  5
58C4
 10
32.1868
 20
2.61991
 30
0.000000
  70
    32
  0
VERTEX
  8
241
  5
58C5
 10
32.1869
 20
2.62002
 30
0.000000
  70
    32
  0
VERTEX
  8
241
  5
58C6
 10
32.1870
 20
2.62012
 30
0.000000
  70
    32
  0
VERTEX
  8
241
  5
58C7
 10
32.1871
 20
2.62023
 30
0.000000
  70
    32
  0
VERTEX
  8
241
  5
58C8
 10
32.1873
 20
2.62034
 30
0.000000
  70
    32
  0
VERTEX
  8
241
  5
58C9
 10
32.1874
 20
2.62045
 30
0.000000
  70
    32
  0
VERTEX
  8
241
  5
58CA
 10
32.1875
 20
2.62055
 30
0.000000
  70
    32
  0
VERTEX
  8
241
  5
58CB
 10
32.1876
 20
2.62066
 30
0.000000
  70
    32
  0
VERTEX
  8
241
  5
58CC
 10
32.1877
 20
2.62077
 30
0.000000
  70
    32
  0
VERTEX
  8
241
  5
58CD
 10
32.1879
 20
2.62088
 30
0.000000
  70
    32
  0
VERTEX
  8
241
  5
58CE
 10
32.1880
 20
2.62099
 30
0.000000
  70
    32
  0
VERTEX
  8
241
  5
58CF
 10
32.1881
 20
2.62109
 30
0.000000
  70
    32
  0
VERTEX
  8
241
  5
58D0
 10
32.1882
 20
2.62120
 30
0.000000
  70
    32
  0
VERTEX
  8
241
  5
58D1
 10
32.1883
 20
2.62131
 30
0.000000
  70
    32
  0
VERTEX
  8
241
  5
58D2
 10
32.1884
 20
2.62142
 30
0.000000
  70
    32
  0
VERTEX
  8
241
  5
58D3
 10
32.1886
 20
2.62152
 30
0.000000
  70
    32
  0
VERTEX
  8
241
  5
58D4
 10
32.1887
 20
2.62163
 30
0.000000
  70
    32
  0
VERTEX
  8
241
  5
58D5
 10
32.1888
 20
2.62174
 30
0.000000
  70
    32
  0
VERTEX
  8
241
  5
58D6
 10
32.1889
 20
2.62185
 30
0.000000
  70
    32
  0
VERTEX
  8
241
  5
58D7
 10
32.1890
 20
2.62196
 30
0.000000
  70
    32
  0
VERTEX
  8
241
  5
58D8
 10
32.1892
 20
2.62206
 30
0.000000
  70
    32
  0
VERTEX
  8
241
  5
58D9
 10
32.1893
 20
2.62217
 30
0.000000
  70
    32
  0
VERTEX
  8
241
  5
58DA
 10
32.1894
 20
2.62228
 30
0.000000
  70
    32
  0
VERTEX
  8
241
  5
58DB
 10
32.1895
 20
2.62239
 30
0.000000
  70
    32
  0
VERTEX
  8
241
  5
58DC
 10
32.1896
 20
2.62249
 30
0.000000
  70
    32
  0
VERTEX
  8
241
  5
58DD
 10
32.1898
 20
2.62260
 30
0.000000
  70
    32
  0
VERTEX
  8
241
  5
58DE
 10
32.1899
 20
2.62271
 30
0.000000
  70
    32
  0
VERTEX
  8
241
  5
58DF
 10
32.1900
 20
2.62282
 30
0.000000
  70
    32
  0
VERTEX
  8
241
  5
58E0
 10
32.1901
 20
2.62293
 30
0.000000
  70
    32
  0
VERTEX
  8
241
  5
58E1
 10
32.1902
 20
2.62303
 30
0.000000
  70
    32
  0
VERTEX
  8
241
  5
58E2
 10
32.1903
 20
2.62314
 30
0.000000
  70
    32
  0
VERTEX
  8
241
  5
58E3
 10
32.1905
 20
2.62325
 30
0.000000
  70
    32
  0
VERTEX
  8
241
  5
58E4
 10
32.1906
 20
2.62336
 30
0.000000
  70
    32
  0
VERTEX
  8
241
  5
58E5
 10
32.1907
 20
2.62346
 30
0.000000
  70
    32
  0
VERTEX
  8
241
  5
58E6
 10
32.1908
 20
2.62357
 30
0.000000
  70
    32
  0
VERTEX
  8
241
  5
58E7
 10
32.1909
 20
2.62368
 30
0.000000
  70
    32
  0
VERTEX
  8
241
  5
58E8
 10
32.1911
 20
2.62379
 30
0.000000
  70
    32
  0
VERTEX
  8
241
  5
58E9
 10
32.1912
 20
2.62390
 30
0.000000
  70
    32
  0
VERTEX
  8
241
  5
58EA
 10
32.1913
 20
2.62400
 30
0.000000
  70
    32
  0
VERTEX
  8
241
  5
58EB
 10
32.1914
 20
2.62411
 30
0.000000
  70
    32
  0
VERTEX
  8
241
  5
58EC
 10
32.1915
 20
2.62422
 30
0.000000
  70
    32
  0
VERTEX
  8
241
  5
58ED
 10
32.1917
 20
2.62433
 30
0.000000
  70
    32
  0
VERTEX
  8
241
  5
58EE
 10
32.1918
 20
2.62443
 30
0.000000
  70
    32
  0
VERTEX
  8
241
  5
58EF
 10
32.1919
 20
2.62454
 30
0.000000
  70
    32
  0
VERTEX
  8
241
  5
58F0
 10
32.1920
 20
2.62465
 30
0.000000
  70
    32
  0
VERTEX
  8
241
  5
58F1
 10
32.1921
 20
2.62476
 30
0.000000
  70
    32
  0
VERTEX
  8
241
  5
58F2
 10
32.1922
 20
2.62487
 30
0.000000
  70
    32
  0
VERTEX
  8
241
  5
58F3
 10
32.1924
 20
2.62497
 30
0.000000
  70
    32
  0
VERTEX
  8
241
  5
58F4
 10
32.1925
 20
2.62508
 30
0.000000
  70
    32
  0
VERTEX
  8
241
  5
58F5
 10
32.1926
 20
2.62519
 30
0.000000
  70
    32
  0
VERTEX
  8
241
  5
58F6
 10
32.1927
 20
2.62530
 30
0.000000
  70
    32
  0
VERTEX
  8
241
  5
58F7
 10
32.1928
 20
2.62540
 30
0.000000
  70
    32
  0
VERTEX
  8
241
  5
58F8
 10
32.1930
 20
2.62551
 30
0.000000
  70
    32
  0
VERTEX
  8
241
  5
58F9
 10
32.1931
 20
2.62562
 30
0.000000
  70
    32
  0
VERTEX
  8
241
  5
58FA
 10
32.1932
 20
2.62573
 30
0.000000
  70
    32
  0
VERTEX
  8
241
  5
58FB
 10
32.1933
 20
2.62584
 30
0.000000
  70
    32
  0
VERTEX
  8
241
  5
58FC
 10
32.1934
 20
2.62594
 30
0.000000
  70
    32
  0
VERTEX
  8
241
  5
58FD
 10
32.1936
 20
2.62605
 30
0.000000
  70
    32
  0
VERTEX
  8
241
  5
58FE
 10
32.1937
 20
2.62616
 30
0.000000
  70
    32
  0
VERTEX
  8
241
  5
58FF
 10
32.1938
 20
2.62627
 30
0.000000
  70
    32
  0
VERTEX
  8
241
  5
5900
 10
32.1939
 20
2.62638
 30
0.000000
  70
    32
  0
VERTEX
  8
241
  5
5901
 10
32.1940
 20
2.62648
 30
0.000000
  70
    32
  0
VERTEX
  8
241
  5
5902
 10
32.1942
 20
2.62659
 30
0.000000
  70
    32
  0
VERTEX
  8
241
  5
5903
 10
32.1943
 20
2.62670
 30
0.000000
  70
    32
  0
VERTEX
  8
241
  5
5904
 10
32.1944
 20
2.62681
 30
0.000000
  70
    32
  0
VERTEX
  8
241
  5
5905
 10
32.1945
 20
2.62691
 30
0.000000
  70
    32
  0
VERTEX
  8
241
  5
5906
 10
32.1946
 20
2.62702
 30
0.000000
  70
    32
  0
VERTEX
  8
241
  5
5907
 10
32.1947
 20
2.62713
 30
0.000000
  70
    32
  0
VERTEX
  8
241
  5
5908
 10
32.1949
 20
2.62724
 30
0.000000
  70
    32
  0
VERTEX
  8
241
  5
5909
 10
32.1950
 20
2.62735
 30
0.000000
  70
    32
  0
VERTEX
  8
241
  5
590A
 10
32.1951
 20
2.62745
 30
0.000000
  70
    32
  0
VERTEX
  8
241
  5
590B
 10
32.1952
 20
2.62756
 30
0.000000
  70
    32
  0
VERTEX
  8
241
  5
590C
 10
32.1953
 20
2.62767
 30
0.000000
  70
    32
  0
VERTEX
  8
241
  5
590D
 10
32.1955
 20
2.62778
 30
0.000000
  70
    32
  0
VERTEX
  8
241
  5
590E
 10
32.1956
 20
2.62788
 30
0.000000
  70
    32
  0
VERTEX
  8
241
  5
590F
 10
32.1957
 20
2.62799
 30
0.000000
  70
    32
  0
SEQEND
  8
241
  5
5910
  0
LINE
  5
517C
  8
240
  6
CONTINUOUS
 10
54.153561064896962
 20
-26.999040859225261
 30
0.0
 11
40.320281260990093
 21
-26.273198383212161
 31
0.0
  0
ARC
  5
517D
  8
240
  6
CONTINUOUS
 10
54.195587044401812
 20
-26.196686466366401
 30
0.0
 40
0.8034542642199696
 50
267.00168296129289
 51
30.921550184451739
  0
LINE
  5
517E
  8
240
  6
CONTINUOUS
 10
47.701295468475912
 20
-14.034724436683289
 30
0.0
 11
54.884847712720777
 21
-25.78382028247422
 31
0.0
  0
LINE
  5
517F
  8
241
  6
CONTINUOUS
 10
42.740720801300881
 20
-8.8094206380859106
 30
0.0
 11
45.639136235860079
 21
-18.18833167549559
 31
0.0
  0
LINE
  5
5180
  8
241
  6
CONTINUOUS
 10
33.100004322068472
 20
-17.530468137439549
 30
0.0
 11
42.119004075939067
 21
-21.326708638516749
 31
0.0
  0
LINE
  5
5181
  8
241
  6
CONTINUOUS
 10
42.740720801300881
 20
-8.8094206380859106
 30
0.0
 11
33.037790786683587
 21
1.901559201386176
 31
0.0
  0
ARC
  5
5182
  8
241
  6
CONTINUOUS
 10
24.514898657227661
 20
-5.8192121209547301
 30
0.0
 40
1.5
 50
132.17300000000051
 51
222.17299999999949
  0
LINE
  5
5183
  8
241
  6
CONTINUOUS
 10
30.919052078310521
 20
2.0061836461187141
 30
0.0
 11
23.507841533255611
 21
-4.7075305382047059
 31
0.0
  0
ARC
  5
5184
  8
241
  6
CONTINUOUS
 10
31.926109210130772
 20
0.8945020695659451
 30
0.0
 40
1.5
 50
42.17299999999954
 51
132.17300000000051
  0
LINE
  5
5185
  8
241
  6
CONTINUOUS
 10
33.291427328737882
 20
-5.081126163785866
 30
0.0
 11
34.841893205185478
 21
-6.7926719192218874
 31
0.0
  0
LINE
  5
5186
  8
241
  6
CONTINUOUS
 10
31.877408984933499
 20
-9.4781575998088652
 30
0.0
 11
30.326943110136881
 21
-7.7666118303274061
 31
0.0
  0
CIRCLE
  5
5187
  8
241
  6
CONTINUOUS
 10
32.584418153737083
 20
-7.2796418778732717
 30
0.0
 40
4.25
  0
LINE
  5
5188
  8
241
  6
CONTINUOUS
 10
23.40321707447761
 20
-6.8262692449267899
 30
0.0
 11
33.100004322068472
 21
-17.530468137439549
 31
0.0
  0
LINE
  5
5189
  8
241
  6
CONTINUOUS
 10
34.134884036381919
 20
-8.9911876411574791
 30
0.0
 11
31.877408984933499
 21
-9.4781575998088652
 31
0.0
  0
LINE
  5
518A
  8
241
  6
CONTINUOUS
 10
34.841893205185478
 20
-6.7926719192218874
 30
0.0
 11
34.134884036381919
 21
-8.9911876411574791
 31
0.0
  0
LINE
  5
518B
  8
241
  6
CONTINUOUS
 10
30.326943110136881
 20
-7.7666118303274061
 30
0.0
 11
31.033952285137669
 21
-5.5680961162400271
 31
0.0
  0
LINE
  5
518C
  8
241
  6
CONTINUOUS
 10
31.033952285137669
 20
-5.5680961162400271
 30
0.0
 11
33.291427328737882
 21
-5.081126163785866
 31
0.0
  0
ARC
  5
518D
  8
241
  6
CONTINUOUS
 10
43.326360854191392
 20
-19.137578763427541
 30
0.0
 40
2.5
 50
241.12222784080731
 51
22.315029066396999
  0
LINE
  5
518E
  8
240
  6
CONTINUOUS
 10
47.701295468475912
 20
-14.034724436683289
 30
0.0
 11
46.803710222287819
 21
-13.98762747148341
 31
0.0
  0
LINE
  5
518F
  8
241
  6
CONTINUOUS
 10
44.300377641355929
 20
-13.856275749795801
 30
0.0
 11
46.803710222287748
 21
-13.98762747148329
 31
0.0
  0
LINE
  5
5190
  8
240
  6
CONTINUOUS
 10
40.320281260990093
 20
-26.273198383212161
 30
0.0
 11
40.176337436593229
 21
-26.037770320362089
 31
0.0
  0
LINE
  5
5191
  8
241
  6
CONTINUOUS
 10
35.624565338898741
 20
-18.593096038656501
 30
0.0
 11
40.17633743659357
 21
-26.03777032036211
 31
0.0
  0
INSERT
  5
51B9
  8
240
  2
*U10
 10
0.0
 20
0.0
 30
0.0
1001
ACAD
1000
DSTYLE
1002
{
1070
    41
1040
2.0
1070
    78
1070
     8
1070
    79
1070
     2
1070
   140
1040
2.799999999999998
1070
   173
1070
     1
1070
   179
1070
     3
1070
   271
1070
     3
1070
   272
1070
     4
1070
   279
1070
     0
1070
   284
1070
     0
1070
   285
1070
     0
1070
   286
1070
     0
1070
   340
1005
4C96
1070
   341
1005
4DD3
1070
   342
1005
4CFB
1002
}
  0
INSERT
  5
51BA
  8
240
  2
*U11
 10
0.0
 20
0.0
 30
0.0
  0
LINE
  5
51BB
  8
251
  6
CONTINUOUS
 10
61.728546785756102
 20
-41.874081017990811
 30
0.0
 11
86.341880119089438
 21
-41.874081017990811
 31
0.0
1001
ITEMNAME
1000
LNSP2
  0
LINE
  5
51D1
  8
250
  6
CONTINUOUS
 10
0.0
 20
20.5
 30
0.0
 11
0.000000000000001
 21
36.0
 31
0.0
  0
LINE
  5
51D2
  8
250
  6
CONTINUOUS
 10
55.0
 20
-25.696686466366401
 30
0.0
 11
55.0
 21
36.0
 31
0.0
  0
LINE
  5
51D3
  8
250
  6
CONTINUOUS
 10
2.0
 20
35.0
 30
0.0
 11
53.0
 21
35.0
 31
0.0
  0
INSERT
  5
51D4
  8
250
  6
CONTINUOUS
  2
_OPEN
 10
0.0000000000000009
 20
35.0
 30
0.0
 41
2.0
 42
2.0
 43
2.0
 50
180.0
  0
INSERT
  5
51D5
  8
250
  6
CONTINUOUS
  2
_OPEN
 10
55.0
 20
35.0
 30
0.0
 41
2.0
 42
2.0
 43
2.0
  0
INSERT
  5
51D6
  8
240
  2
*U12
 10
0.0
 20
0.0
 30
0.0
  0
LINE
  5
51D7
  8
250
  6
CONTINUOUS
 10
55.5
 20
-26.99999999999989
 30
0.0
 11
71.0
 21
-26.99999999999989
 31
0.0
  0
LINE
  5
51D8
  8
250
  6
CONTINUOUS
 10
39.751490201848313
 20
-0.0000000000000001
 30
0.0
 11
71.0
 21
-0.000000000000009
 31
0.0
  0
LINE
  5
51D9
  8
250
  6
CONTINUOUS
 10
70.0
 20
-24.99999999999989
 30
0.0
 11
70.0
 21
-2.0000000000000071
 31
0.0
  0
INSERT
  5
51DA
  8
250
  6
CONTINUOUS
  2
_OPEN
 10
70.0
 20
-26.99999999999989
 30
0.0
 41
2.0
 42
2.0
 43
2.0
 50
270.0
  0
INSERT
  5
51DB
  8
250
  6
CONTINUOUS
  2
_OPEN
 10
70.0
 20
-0.0000000000000087
 30
0.0
 41
2.0
 42
2.0
 43
2.0
 50
90.0
  0
INSERT
  5
51DC
  8
240
  2
*U13
 10
0.0
 20
0.0
 30
0.0
  0
LINE
  5
52B6
  8
241
  6
CONTINUOUS
 10
22.501504310270018
 20
-19.915848575038389
 30
0.0
 11
23.649338668393359
 21
-21.903956001981239
 31
0.0
  0
ARC
  5
52B7
  8
241
  6
CONTINUOUS
 10
22.55508597028744
 20
-16.561873958407951
 30
0.0
 40
2.3060397313587639
 50
181.64793092266109
 51
241.0494576625583
  0
ARC
  5
52B8
  8
241
  6
CONTINUOUS
 10
20.805000122407179
 20
-20.174514033483351
 30
0.0
 40
1.7161102175643439
 50
8.6691039781469232
 51
68.324762442693881
  0
LINE
  5
52C6
  8
241
  6
CONTINUOUS
 10
27.218967794894791
 20
18.044298805508131
 30
0.0
 11
25.554343957752842
 21
17.987839437714101
 31
0.0
  0
ARC
  5
52C7
  8
241
  6
CONTINUOUS
 10
25.336829264271991
 20
12.811677618075899
 30
0.0
 40
5.1807300474894831
 50
87.593710118099992
 51
169.07466122082229
  0
LINE
  5
5581
  8
245
  6
CENTER2
 10
-48.999999999999872
 20
17.642024170851109
 30
0.0
 11
-48.999999999999879
 21
-17.642024170850959
 31
0.0
  0
LINE
  5
5582
  8
245
  6
CENTER2
 10
-66.642024170850931
 20
0.0000000000000729
 30
0.0
 11
-31.357975829148842
 21
0.0000000000000729
 31
0.0
  0
CIRCLE
  5
5583
  8
241
  6
CONTINUOUS
 10
-48.999999999999943
 20
0.0000000000000729
 30
0.0
 40
6.2999999999999821
  0
CIRCLE
  5
5584
  8
242
  6
CONTINUOUS
 10
-48.999999999999943
 20
0.0000000000000729
 30
0.0
 40
7.0
  0
ARC
  5
5585
  8
241
  6
CONTINUOUS
 10
-63.999999999999943
 20
0.0000000000000729
 30
0.0
 40
4.0
 50
303.68130686566451
 51
57.096903795047503
  0
ARC
  5
5586
  8
241
  6
CONTINUOUS
 10
-32.189999999999863
 20
0.0000000000000729
 30
0.0
 40
4.0
 50
129.75569266280161
 51
231.35348123898629
  0
CIRCLE
  5
5587
  8
241
  6
CONTINUOUS
 10
-48.999999999999943
 20
0.0000000000000729
 30
0.0
 40
9.0
  0
POLYLINE
  5
5588
  8
240
 66
     1
 10
0.0
 20
0.0
 30
0.0
 70
     8
  0
VERTEX
  5
5589
  8
240
 10
-42.450000000000003
 20
11.344900000000001
 30
0.0
 70
    32
  0
VERTEX
  5
558A
  8
240
 10
-42.323700000000002
 20
11.2714
 30
0.0
 70
    32
  0
VERTEX
  5
558B
  8
240
 10
-42.19789999999999
 20
11.196999999999999
 30
0.0
 70
    32
  0
VERTEX
  5
558C
  8
240
 10
-42.072600000000001
 20
11.1219
 30
0.0
 70
    32
  0
VERTEX
  5
558D
  8
240
 10
-41.947999999999993
 20
11.0459
 30
0.0
 70
    32
  0
VERTEX
  5
558E
  8
240
 10
-41.823900000000002
 20
10.969200000000001
 30
0.0
 70
    32
  0
VERTEX
  5
558F
  8
240
 10
-41.700400000000002
 20
10.8916
 30
0.0
 70
    32
  0
VERTEX
  5
5590
  8
240
 10
-41.57759999999999
 20
10.8133
 30
0.0
 70
    32
  0
VERTEX
  5
5591
  8
240
 10
-41.455299999999987
 20
10.734299999999999
 30
0.0
 70
    32
  0
VERTEX
  5
5592
  8
240
 10
-41.3337
 20
10.654500000000001
 30
0.0
 70
    32
  0
VERTEX
  5
5593
  8
240
 10
-41.212699999999991
 20
10.5739
 30
0.0
 70
    32
  0
VERTEX
  5
5594
  8
240
 10
-41.092399999999991
 20
10.492599999999999
 30
0.0
 70
    32
  0
VERTEX
  5
5595
  8
240
 10
-40.972700000000003
 20
10.410600000000001
 30
0.0
 70
    32
  0
VERTEX
  5
5596
  8
240
 10
-40.8536
 20
10.3278
 30
0.0
 70
    32
  0
VERTEX
  5
5597
  8
240
 10
-40.735300000000002
 20
10.244300000000001
 30
0.0
 70
    32
  0
VERTEX
  5
5598
  8
240
 10
-40.617600000000003
 20
10.1602
 30
0.0
 70
    32
  0
VERTEX
  5
5599
  8
240
 10
-40.500700000000002
 20
10.0753
 30
0.0
 70
    32
  0
VERTEX
  5
559A
  8
240
 10
-40.384399999999999
 20
9.9897300000000016
 30
0.0
 70
    32
  0
VERTEX
  5
559B
  8
240
 10
-40.268900000000002
 20
9.9034900000000015
 30
0.0
 70
    32
  0
VERTEX
  5
559C
  8
240
 10
-40.1541
 20
9.8165800000000019
 30
0.0
 70
    32
  0
VERTEX
  5
559D
  8
240
 10
-40.040100000000002
 20
9.7289999999999992
 30
0.0
 70
    32
  0
VERTEX
  5
559E
  8
240
 10
-39.9268
 20
9.6407700000000016
 30
0.0
 70
    32
  0
VERTEX
  5
559F
  8
240
 10
-39.8142
 20
9.5518800000000024
 30
0.0
 70
    32
  0
VERTEX
  5
55A0
  8
240
 10
-39.702399999999997
 20
9.4623600000000021
 30
0.0
 70
    32
  0
VERTEX
  5
55A1
  8
240
 10
-39.5914
 20
9.3722100000000026
 30
0.0
 70
    32
  0
VERTEX
  5
55A2
  8
240
 10
-39.481200000000001
 20
9.2814400000000017
 30
0.0
 70
    32
  0
VERTEX
  5
55A3
  8
240
 10
-39.3718
 20
9.1900500000000012
 30
0.0
 70
    32
  0
VERTEX
  5
55A4
  8
240
 10
-39.263199999999998
 20
9.098060000000002
 30
0.0
 70
    32
  0
VERTEX
  5
55A5
  8
240
 10
-39.155500000000011
 20
9.0054600000000011
 30
0.0
 70
    32
  0
VERTEX
  5
55A6
  8
240
 10
-39.048499999999997
 20
8.9122800000000026
 30
0.0
 70
    32
  0
VERTEX
  5
55A7
  8
240
 10
-38.942399999999999
 20
8.8185200000000012
 30
0.0
 70
    32
  0
VERTEX
  5
55A8
  8
240
 10
-38.837200000000003
 20
8.7241800000000023
 30
0.0
 70
    32
  0
VERTEX
  5
55A9
  8
240
 10
-38.732799999999997
 20
8.6292800000000014
 30
0.0
 70
    32
  0
VERTEX
  5
55AA
  8
240
 10
-38.629300000000001
 20
8.5338300000000018
 30
0.0
 70
    32
  0
VERTEX
  5
55AB
  8
240
 10
-38.526699999999998
 20
8.4378200000000021
 30
0.0
 70
    32
  0
VERTEX
  5
55AC
  8
240
 10
-38.424999999999997
 20
8.3412800000000011
 30
0.0
 70
    32
  0
VERTEX
  5
55AD
  8
240
 10
-38.324199999999998
 20
8.2442100000000025
 30
0.0
 70
    32
  0
VERTEX
  5
55AE
  8
240
 10
-38.224299999999999
 20
8.1466100000000026
 30
0.0
 70
    32
  0
VERTEX
  5
55AF
  8
240
 10
-38.125300000000003
 20
8.0485000000000024
 30
0.0
 70
    32
  0
VERTEX
  5
55B0
  8
240
 10
-38.027299999999997
 20
7.9498800000000021
 30
0.0
 70
    32
  0
VERTEX
  5
55B1
  8
240
 10
-37.930199999999999
 20
7.8507600000000011
 30
0.0
 70
    32
  0
VERTEX
  5
55B2
  8
240
 10
-37.834099999999999
 20
7.7511600000000023
 30
0.0
 70
    32
  0
VERTEX
  5
55B3
  8
240
 10
-37.738900000000001
 20
7.6510700000000007
 30
0.0
 70
    32
  0
VERTEX
  5
55B4
  8
240
 10
-37.6447
 20
7.5505100000000018
 30
0.0
 70
    32
  0
VERTEX
  5
55B5
  8
240
 10
-37.551499999999997
 20
7.4494800000000021
 30
0.0
 70
    32
  0
VERTEX
  5
55B6
  8
240
 10
-37.459299999999999
 20
7.3480000000000008
 30
0.0
 70
    32
  0
VERTEX
  5
55B7
  8
240
 10
-37.368099999999998
 20
7.2460700000000013
 30
0.0
 70
    32
  0
VERTEX
  5
55B8
  8
240
 10
-37.277999999999999
 20
7.1437000000000008
 30
0.0
 70
    32
  0
VERTEX
  5
55B9
  8
240
 10
-37.188800000000001
 20
7.0408900000000001
 30
0.0
 70
    32
  0
VERTEX
  5
55BA
  8
240
 10
-37.100700000000003
 20
6.9376700000000007
 30
0.0
 70
    32
  0
VERTEX
  5
55BB
  8
240
 10
-37.0137
 20
6.834030000000002
 30
0.0
 70
    32
  0
VERTEX
  5
55BC
  8
240
 10
-36.927700000000002
 20
6.7299800000000021
 30
0.0
 70
    32
  0
VERTEX
  5
55BD
  8
240
 10
-36.842799999999997
 20
6.6255300000000021
 30
0.0
 70
    32
  0
VERTEX
  5
55BE
  8
240
 10
-36.758899999999997
 20
6.5207000000000006
 30
0.0
 70
    32
  0
VERTEX
  5
55BF
  8
240
 10
-36.676200000000001
 20
6.4154800000000023
 30
0.0
 70
    32
  0
VERTEX
  5
55C0
  8
240
 10
-36.594499999999996
 20
6.3098900000000011
 30
0.0
 70
    32
  0
VERTEX
  5
55C1
  8
240
 10
-36.51400000000001
 20
6.2039300000000024
 30
0.0
 70
    32
  0
VERTEX
  5
55C2
  8
240
 10
-36.43460000000001
 20
6.0976100000000013
 30
0.0
 70
    32
  0
VERTEX
  5
55C3
  8
240
 10
-36.356299999999997
 20
5.9909500000000007
 30
0.0
 70
    32
  0
VERTEX
  5
55C4
  8
240
 10
-36.279200000000003
 20
5.8839500000000013
 30
0.0
 70
    32
  0
VERTEX
  5
55C5
  8
240
 10
-36.203200000000002
 20
5.7766100000000007
 30
0.0
 70
    32
  0
VERTEX
  5
55C6
  8
240
 10
-36.128399999999999
 20
5.6689500000000006
 30
0.0
 70
    32
  0
VERTEX
  5
55C7
  8
240
 10
-36.0548
 20
5.5609800000000016
 30
0.0
 70
    32
  0
VERTEX
  5
55C8
  8
240
 10
-35.982300000000002
 20
5.452700000000001
 30
0.0
 70
    32
  0
VERTEX
  5
55C9
  8
240
 10
-35.911099999999998
 20
5.3441200000000011
 30
0.0
 70
    32
  0
VERTEX
  5
55CA
  8
240
 10
-35.841000000000001
 20
5.2352500000000006
 30
0.0
 70
    32
  0
VERTEX
  5
55CB
  8
240
 10
-35.772199999999998
 20
5.1260900000000023
 30
0.0
 70
    32
  0
VERTEX
  5
55CC
  8
240
 10
-35.704599999999999
 20
5.0166600000000008
 30
0.0
 70
    32
  0
VERTEX
  5
55CD
  8
240
 10
-35.638199999999998
 20
4.9069700000000012
 30
0.0
 70
    32
  0
VERTEX
  5
55CE
  8
240
 10
-35.573099999999997
 20
4.7970200000000007
 30
0.0
 70
    32
  0
VERTEX
  5
55CF
  8
240
 10
-35.5092
 20
4.6868200000000009
 30
0.0
 70
    32
  0
VERTEX
  5
55D0
  8
240
 10
-35.446599999999997
 20
4.5763800000000021
 30
0.0
 70
    32
  0
VERTEX
  5
55D1
  8
240
 10
-35.385300000000001
 20
4.4657100000000014
 30
0.0
 70
    32
  0
VERTEX
  5
55D2
  8
240
 10
-35.325299999999999
 20
4.3548100000000014
 30
0.0
 70
    32
  0
VERTEX
  5
55D3
  8
240
 10
-35.266500000000001
 20
4.2437000000000014
 30
0.0
 70
    32
  0
VERTEX
  5
55D4
  8
240
 10
-35.209099999999999
 20
4.1323800000000022
 30
0.0
 70
    32
  0
VERTEX
  5
55D5
  8
240
 10
-35.152999999999999
 20
4.0208600000000008
 30
0.0
 70
    32
  0
VERTEX
  5
55D6
  8
240
 10
-35.098199999999999
 20
3.9091500000000008
 30
0.0
 70
    32
  0
VERTEX
  5
55D7
  8
240
 10
-35.044800000000002
 20
3.7972500000000009
 30
0.0
 70
    32
  0
VERTEX
  5
55D8
  8
240
 10
-34.992699999999999
 20
3.6851800000000021
 30
0.0
 70
    32
  0
VERTEX
  5
55D9
  8
240
 10
-34.942
 20
3.572950000000001
 30
0.0
 70
    32
  0
VERTEX
  5
55DA
  8
240
 10
-34.892600000000002
 20
3.460560000000001
 30
0.0
 70
    32
  0
VERTEX
  5
55DB
  8
240
 10
-34.844700000000003
 20
3.3480200000000009
 30
0.0
 70
    32
  0
VERTEX
  5
55DC
  8
240
 10
-34.798099999999998
 20
3.2353400000000021
 30
0.0
 70
    32
  0
VERTEX
  5
55DD
  8
240
 10
-34.752899999999997
 20
3.1225200000000011
 30
0.0
 70
    32
  0
VERTEX
  5
55DE
  8
240
 10
-34.709099999999999
 20
3.009580000000001
 30
0.0
 70
    32
  0
VERTEX
  5
55DF
  8
240
 10
-34.666800000000002
 20
2.896520000000002
 30
0.0
 70
    32
  0
VERTEX
  5
55E0
  8
240
 10
-34.625900000000001
 20
2.7833600000000009
 30
0.0
 70
    32
  0
VERTEX
  5
55E1
  8
240
 10
-34.586399999999998
 20
2.670100000000001
 30
0.0
 70
    32
  0
VERTEX
  5
55E2
  8
240
 10
-34.548400000000001
 20
2.5567400000000009
 30
0.0
 70
    32
  0
VERTEX
  5
55E3
  8
240
 10
-34.511899999999997
 20
2.4433000000000011
 30
0.0
 70
    32
  0
VERTEX
  5
55E4
  8
240
 10
-34.476799999999997
 20
2.3297900000000009
 30
0.0
 70
    32
  0
VERTEX
  5
55E5
  8
240
 10
-34.443199999999997
 20
2.2162100000000011
 30
0.0
 70
    32
  0
VERTEX
  5
55E6
  8
240
 10
-34.411099999999998
 20
2.1025700000000009
 30
0.0
 70
    32
  0
VERTEX
  5
55E7
  8
240
 10
-34.380499999999998
 20
1.9888800000000011
 30
0.0
 70
    32
  0
VERTEX
  5
55E8
  8
240
 10
-34.351500000000001
 20
1.875150000000001
 30
0.0
 70
    32
  0
VERTEX
  5
55E9
  8
240
 10
-34.323900000000002
 20
1.761390000000002
 30
0.0
 70
    32
  0
VERTEX
  5
55EA
  8
240
 10
-34.297899999999998
 20
1.6476000000000011
 30
0.0
 70
    32
  0
VERTEX
  5
55EB
  8
240
 10
-34.273499999999999
 20
1.5338000000000009
 30
0.0
 70
    32
  0
VERTEX
  5
55EC
  8
240
 10
-34.250599999999999
 20
1.4199800000000009
 30
0.0
 70
    32
  0
VERTEX
  5
55ED
  8
240
 10
-34.229199999999999
 20
1.3061700000000009
 30
0.0
 70
    32
  0
VERTEX
  5
55EE
  8
240
 10
-34.209499999999998
 20
1.192370000000001
 30
0.0
 70
    32
  0
VERTEX
  5
55EF
  8
240
 10
-34.191299999999998
 20
1.078580000000001
 30
0.0
 70
    32
  0
VERTEX
  5
55F0
  8
240
 10
-34.174799999999998
 20
0.9648150000000018
 30
0.0
 70
    32
  0
VERTEX
  5
55F1
  8
240
 10
-34.159799999999997
 20
0.8510850000000019
 30
0.0
 70
    32
  0
VERTEX
  5
55F2
  8
240
 10
-34.146500000000003
 20
0.7373960000000018
 30
0.0
 70
    32
  0
VERTEX
  5
55F3
  8
240
 10
-34.134799999999998
 20
0.6237570000000018
 30
0.0
 70
    32
  0
VERTEX
  5
55F4
  8
240
 10
-34.124699999999997
 20
0.5101760000000019
 30
0.0
 70
    32
  0
VERTEX
  5
55F5
  8
240
 10
-34.11630000000001
 20
0.3966610000000017
 30
0.0
 70
    32
  0
VERTEX
  5
55F6
  8
240
 10
-34.109499999999997
 20
0.2832200000000018
 30
0.0
 70
    32
  0
VERTEX
  5
55F7
  8
240
 10
-34.104500000000002
 20
0.1698630000000018
 30
0.0
 70
    32
  0
VERTEX
  5
55F8
  8
240
 10
-34.101100000000002
 20
0.0565964000000018
 30
0.0
 70
    32
  0
VERTEX
  5
55F9
  8
240
 10
-34.09940000000001
 20
-0.0565705999999982
 30
0.0
 70
    32
  0
VERTEX
  5
55FA
  8
240
 10
-34.099299999999999
 20
-0.1696329999999982
 30
0.0
 70
    32
  0
VERTEX
  5
55FB
  8
240
 10
-34.100999999999999
 20
-0.2825869999999982
 30
0.0
 70
    32
  0
VERTEX
  5
55FC
  8
240
 10
-34.104399999999998
 20
-0.3954309999999982
 30
0.0
 70
    32
  0
VERTEX
  5
55FD
  8
240
 10
-34.109400000000001
 20
-0.5081609999999982
 30
0.0
 70
    32
  0
VERTEX
  5
55FE
  8
240
 10
-34.116
 20
-0.6207759999999983
 30
0.0
 70
    32
  0
VERTEX
  5
55FF
  8
240
 10
-34.124400000000001
 20
-0.7332719999999983
 30
0.0
 70
    32
  0
VERTEX
  5
5600
  8
240
 10
-34.134300000000003
 20
-0.8456469999999982
 30
0.0
 70
    32
  0
VERTEX
  5
5601
  8
240
 10
-34.145899999999997
 20
-0.9578979999999981
 30
0.0
 70
    32
  0
VERTEX
  5
5602
  8
240
 10
-34.159100000000002
 20
-1.070019999999998
 30
0.0
 70
    32
  0
VERTEX
  5
5603
  8
240
 10
-34.173999999999999
 20
-1.1820199999999981
 30
0.0
 70
    32
  0
VERTEX
  5
5604
  8
240
 10
-34.190399999999997
 20
-1.2938799999999979
 30
0.0
 70
    32
  0
VERTEX
  5
5605
  8
240
 10
-34.208399999999997
 20
-1.405609999999998
 30
0.0
 70
    32
  0
VERTEX
  5
5606
  8
240
 10
-34.228099999999998
 20
-1.5171999999999981
 30
0.0
 70
    32
  0
VERTEX
  5
5607
  8
240
 10
-34.249299999999998
 20
-1.6286399999999981
 30
0.0
 70
    32
  0
VERTEX
  5
5608
  8
240
 10
-34.271999999999998
 20
-1.7399499999999981
 30
0.0
 70
    32
  0
VERTEX
  5
5609
  8
240
 10
-34.296399999999998
 20
-1.851109999999998
 30
0.0
 70
    32
  0
VERTEX
  5
560A
  8
240
 10
-34.322299999999998
 20
-1.9621199999999981
 30
0.0
 70
    32
  0
VERTEX
  5
560B
  8
240
 10
-34.349699999999999
 20
-2.072979999999998
 30
0.0
 70
    32
  0
VERTEX
  5
560C
  8
240
 10
-34.378700000000002
 20
-2.1836899999999981
 30
0.0
 70
    32
  0
VERTEX
  5
560D
  8
240
 10
-34.409199999999998
 20
-2.2942399999999981
 30
0.0
 70
    32
  0
VERTEX
  5
560E
  8
240
 10
-34.441200000000002
 20
-2.4046299999999978
 30
0.0
 70
    32
  0
VERTEX
  5
560F
  8
240
 10
-34.474699999999999
 20
-2.514859999999997
 30
0.0
 70
    32
  0
VERTEX
  5
5610
  8
240
 10
-34.509799999999998
 20
-2.6249199999999981
 30
0.0
 70
    32
  0
VERTEX
  5
5611
  8
240
 10
-34.546300000000002
 20
-2.7348199999999978
 30
0.0
 70
    32
  0
VERTEX
  5
5612
  8
240
 10
-34.584299999999999
 20
-2.8445399999999981
 30
0.0
 70
    32
  0
VERTEX
  5
5613
  8
240
 10
-34.623800000000003
 20
-2.9540899999999981
 30
0.0
 70
    32
  0
VERTEX
  5
5614
  8
240
 10
-34.664700000000011
 20
-3.0634699999999979
 30
0.0
 70
    32
  0
VERTEX
  5
5615
  8
240
 10
-34.707099999999997
 20
-3.1726699999999979
 30
0.0
 70
    32
  0
VERTEX
  5
5616
  8
240
 10
-34.750999999999998
 20
-3.2816799999999979
 30
0.0
 70
    32
  0
VERTEX
  5
5617
  8
240
 10
-34.796300000000002
 20
-3.3905199999999969
 30
0.0
 70
    32
  0
VERTEX
  5
5618
  8
240
 10
-34.843000000000011
 20
-3.499159999999998
 30
0.0
 70
    32
  0
VERTEX
  5
5619
  8
240
 10
-34.891199999999998
 20
-3.6076199999999981
 30
0.0
 70
    32
  0
VERTEX
  5
561A
  8
240
 10
-34.9407
 20
-3.7158799999999981
 30
0.0
 70
    32
  0
VERTEX
  5
561B
  8
240
 10
-34.991700000000002
 20
-3.8239499999999982
 30
0.0
 70
    32
  0
VERTEX
  5
561C
  8
240
 10
-35.0441
 20
-3.9318299999999979
 30
0.0
 70
    32
  0
VERTEX
  5
561D
  8
240
 10
-35.097799999999999
 20
-4.0394999999999976
 30
0.0
 70
    32
  0
VERTEX
  5
561E
  8
240
 10
-35.152999999999999
 20
-4.1469699999999969
 30
0.0
 70
    32
  0
VERTEX
  5
561F
  8
240
 10
-35.209499999999998
 20
-4.254229999999998
 30
0.0
 70
    32
  0
VERTEX
  5
5620
  8
240
 10
-35.267400000000002
 20
-4.361279999999998
 30
0.0
 70
    32
  0
VERTEX
  5
5621
  8
240
 10
-35.326599999999999
 20
-4.4681299999999977
 30
0.0
 70
    32
  0
VERTEX
  5
5622
  8
240
 10
-35.387099999999997
 20
-4.5747599999999968
 30
0.0
 70
    32
  0
VERTEX
  5
5623
  8
240
 10
-35.449100000000001
 20
-4.6811699999999981
 30
0.0
 70
    32
  0
VERTEX
  5
5624
  8
240
 10
-35.512300000000003
 20
-4.787359999999997
 30
0.0
 70
    32
  0
VERTEX
  5
5625
  8
240
 10
-35.576799999999999
 20
-4.893329999999998
 30
0.0
 70
    32
  0
VERTEX
  5
5626
  8
240
 10
-35.642699999999998
 20
-4.9990799999999984
 30
0.0
 70
    32
  0
VERTEX
  5
5627
  8
240
 10
-35.709899999999998
 20
-5.1045999999999969
 30
0.0
 70
    32
  0
VERTEX
  5
5628
  8
240
 10
-35.778300000000002
 20
-5.2098899999999979
 30
0.0
 70
    32
  0
VERTEX
  5
5629
  8
240
 10
-35.848100000000002
 20
-5.314949999999997
 30
0.0
 70
    32
  0
VERTEX
  5
562A
  8
240
 10
-35.9191
 20
-5.4197699999999971
 30
0.0
 70
    32
  0
VERTEX
  5
562B
  8
240
 10
-35.991399999999999
 20
-5.5243499999999983
 30
0.0
 70
    32
  0
VERTEX
  5
562C
  8
240
 10
-36.064900000000002
 20
-5.6286899999999971
 30
0.0
 70
    32
  0
VERTEX
  5
562D
  8
240
 10
-36.139699999999998
 20
-5.7327899999999978
 30
0.0
 70
    32
  0
VERTEX
  5
562E
  8
240
 10
-36.215699999999998
 20
-5.8366399999999983
 30
0.0
 70
    32
  0
VERTEX
  5
562F
  8
240
 10
-36.292999999999999
 20
-5.9402399999999984
 30
0.0
 70
    32
  0
VERTEX
  5
5630
  8
240
 10
-36.371499999999997
 20
-6.0435899999999982
 30
0.0
 70
    32
  0
VERTEX
  5
5631
  8
240
 10
-36.4512
 20
-6.1466799999999981
 30
0.0
 70
    32
  0
VERTEX
  5
5632
  8
240
 10
-36.5321
 20
-6.2495199999999969
 30
0.0
 70
    32
  0
VERTEX
  5
5633
  8
240
 10
-36.614199999999997
 20
-6.3520899999999978
 30
0.0
 70
    32
  0
VERTEX
  5
5634
  8
240
 10
-36.697499999999998
 20
-6.4544099999999984
 30
0.0
 70
    32
  0
VERTEX
  5
5635
  8
240
 10
-36.7819
 20
-6.5564599999999977
 30
0.0
 70
    32
  0
VERTEX
  5
5636
  8
240
 10
-36.867600000000003
 20
-6.6582399999999966
 30
0.0
 70
    32
  0
VERTEX
  5
5637
  8
240
 10
-36.9544
 20
-6.7597499999999977
 30
0.0
 70
    32
  0
VERTEX
  5
5638
  8
240
 10
-37.042299999999997
 20
-6.8609799999999979
 30
0.0
 70
    32
  0
VERTEX
  5
5639
  8
240
 10
-37.131399999999999
 20
-6.9619399999999967
 30
0.0
 70
    32
  0
VERTEX
  5
563A
  8
240
 10
-37.221699999999998
 20
-7.0626199999999981
 30
0.0
 70
    32
  0
VERTEX
  5
563B
  8
240
 10
-37.313000000000002
 20
-7.1630199999999968
 30
0.0
 70
    32
  0
VERTEX
  5
563C
  8
240
 10
-37.405500000000011
 20
-7.2631299999999976
 30
0.0
 70
    32
  0
VERTEX
  5
563D
  8
240
 10
-37.499099999999999
 20
-7.362949999999997
 30
0.0
 70
    32
  0
VERTEX
  5
563E
  8
240
 10
-37.593800000000002
 20
-7.4624899999999981
 30
0.0
 70
    32
  0
VERTEX
  5
563F
  8
240
 10
-37.689599999999999
 20
-7.5617299999999981
 30
0.0
 70
    32
  0
VERTEX
  5
5640
  8
240
 10
-37.786499999999997
 20
-7.6606799999999984
 30
0.0
 70
    32
  0
VERTEX
  5
5641
  8
240
 10
-37.884399999999999
 20
-7.7593299999999976
 30
0.0
 70
    32
  0
VERTEX
  5
5642
  8
240
 10
-37.983400000000003
 20
-7.857669999999997
 30
0.0
 70
    32
  0
VERTEX
  5
5643
  8
240
 10
-38.083500000000001
 20
-7.9557199999999968
 30
0.0
 70
    32
  0
VERTEX
  5
5644
  8
240
 10
-38.184600000000003
 20
-8.0534499999999962
 30
0.0
 70
    32
  0
VERTEX
  5
5645
  8
240
 10
-38.286799999999999
 20
-8.150879999999999
 30
0.0
 70
    32
  0
VERTEX
  5
5646
  8
240
 10
-38.389899999999997
 20
-8.2479999999999976
 30
0.0
 70
    32
  0
VERTEX
  5
5647
  8
240
 10
-38.494199999999999
 20
-8.3447999999999976
 30
0.0
 70
    32
  0
VERTEX
  5
5648
  8
240
 10
-38.599400000000003
 20
-8.441279999999999
 30
0.0
 70
    32
  0
VERTEX
  5
5649
  8
240
 10
-38.705599999999997
 20
-8.5374499999999962
 30
0.0
 70
    32
  0
VERTEX
  5
564A
  8
240
 10
-38.812800000000003
 20
-8.633289999999997
 30
0.0
 70
    32
  0
VERTEX
  5
564B
  8
240
 10
-38.921100000000003
 20
-8.7288099999999993
 30
0.0
 70
    32
  0
VERTEX
  5
564C
  8
240
 10
-39.030299999999997
 20
-8.8239899999999984
 30
0.0
 70
    32
  0
VERTEX
  5
564D
  8
240
 10
-39.1404
 20
-8.9188499999999991
 30
0.0
 70
    32
  0
VERTEX
  5
564E
  8
240
 10
-39.251600000000003
 20
-9.0133699999999983
 30
0.0
 70
    32
  0
VERTEX
  5
564F
  8
240
 10
-39.363599999999998
 20
-9.1075599999999994
 30
0.0
 70
    32
  0
VERTEX
  5
5650
  8
240
 10
-39.476700000000001
 20
-9.2014099999999992
 30
0.0
 70
    32
  0
VERTEX
  5
5651
  8
240
 10
-39.590600000000002
 20
-9.294909999999998
 30
0.0
 70
    32
  0
VERTEX
  5
5652
  8
240
 10
-39.705500000000001
 20
-9.3880699999999973
 30
0.0
 70
    32
  0
VERTEX
  5
5653
  8
240
 10
-39.821300000000001
 20
-9.4808899999999952
 30
0.0
 70
    32
  0
VERTEX
  5
5654
  8
240
 10
-39.938000000000002
 20
-9.5733499999999978
 30
0.0
 70
    32
  0
VERTEX
  5
5655
  8
240
 10
-40.055700000000002
 20
-9.6654599999999995
 30
0.0
 70
    32
  0
VERTEX
  5
5656
  8
240
 10
-40.174199999999999
 20
-9.7572199999999984
 30
0.0
 70
    32
  0
VERTEX
  5
5657
  8
240
 10
-40.293599999999991
 20
-9.8486199999999986
 30
0.0
 70
    32
  0
VERTEX
  5
5658
  8
240
 10
-40.413800000000002
 20
-9.9396499999999985
 30
0.0
 70
    32
  0
VERTEX
  5
5659
  8
240
 10
-40.534999999999989
 20
-10.0303
 30
0.0
 70
    32
  0
VERTEX
  5
565A
  8
240
 10
-40.656999999999989
 20
-10.120599999999991
 30
0.0
 70
    32
  0
VERTEX
  5
565B
  8
240
 10
-40.779800000000002
 20
-10.210599999999999
 30
0.0
 70
    32
  0
VERTEX
  5
565C
  8
240
 10
-40.903499999999987
 20
-10.3001
 30
0.0
 70
    32
  0
VERTEX
  5
565D
  8
240
 10
-41.027999999999999
 20
-10.3893
 30
0.0
 70
    32
  0
VERTEX
  5
565E
  8
240
 10
-41.153300000000002
 20
-10.4781
 30
0.0
 70
    32
  0
VERTEX
  5
565F
  8
240
 10
-41.279499999999999
 20
-10.56659999999999
 30
0.0
 70
    32
  0
VERTEX
  5
5660
  8
240
 10
-41.406399999999998
 20
-10.6546
 30
0.0
 70
    32
  0
VERTEX
  5
5661
  8
240
 10
-41.534199999999991
 20
-10.7423
 30
0.0
 70
    32
  0
VERTEX
  5
5662
  8
240
 10
-41.662699999999987
 20
-10.82959999999999
 30
0.0
 70
    32
  0
VERTEX
  5
5663
  8
240
 10
-41.792000000000002
 20
-10.916499999999999
 30
0.0
 70
    32
  0
VERTEX
  5
5664
  8
240
 10
-41.9221
 20
-11.0029
 30
0.0
 70
    32
  0
VERTEX
  5
5665
  8
240
 10
-42.052999999999997
 20
-11.089
 30
0.0
 70
    32
  0
VERTEX
  5
5666
  8
240
 10
-42.184600000000003
 20
-11.174699999999991
 30
0.0
 70
    32
  0
VERTEX
  5
5667
  8
240
 10
-42.31689999999999
 20
-11.26
 30
0.0
 70
    32
  0
VERTEX
  5
5668
  8
240
 10
-42.450000000000003
 20
-11.344900000000001
 30
0.0
 70
    32
  0
SEQEND
  5
5669
  8
240
  0
POLYLINE
  5
566A
  8
240
 66
     1
 10
0.0
 20
0.0
 30
0.0
 70
     8
  0
VERTEX
  5
566B
  8
240
 10
-62.100000000000001
 20
-0.0000000016944782
 30
0.0
 70
    32
  0
VERTEX
  5
566C
  8
240
 10
-62.099499999999999
 20
0.1461890000000018
 30
0.0
 70
    32
  0
VERTEX
  5
566D
  8
240
 10
-62.097999999999999
 20
0.2923060000000018
 30
0.0
 70
    32
  0
VERTEX
  5
566E
  8
240
 10
-62.095500000000001
 20
0.4383370000000017
 30
0.0
 70
    32
  0
VERTEX
  5
566F
  8
240
 10
-62.092100000000002
 20
0.5842690000000017
 30
0.0
 70
    32
  0
VERTEX
  5
5670
  8
240
 10
-62.087600000000002
 20
0.7300890000000018
 30
0.0
 70
    32
  0
VERTEX
  5
5671
  8
240
 10
-62.0822
 20
0.8757840000000017
 30
0.0
 70
    32
  0
VERTEX
  5
5672
  8
240
 10
-62.075800000000001
 20
1.021340000000001
 30
0.0
 70
    32
  0
VERTEX
  5
5673
  8
240
 10
-62.0685
 20
1.1667500000000011
 30
0.0
 70
    32
  0
VERTEX
  5
5674
  8
240
 10
-62.060200000000002
 20
1.3119900000000011
 30
0.0
 70
    32
  0
VERTEX
  5
5675
  8
240
 10
-62.050899999999999
 20
1.4570500000000011
 30
0.0
 70
    32
  0
VERTEX
  5
5676
  8
240
 10
-62.040700000000001
 20
1.6019200000000009
 30
0.0
 70
    32
  0
VERTEX
  5
5677
  8
240
 10
-62.029499999999999
 20
1.746590000000001
 30
0.0
 70
    32
  0
VERTEX
  5
5678
  8
240
 10
-62.017299999999999
 20
1.8910400000000009
 30
0.0
 70
    32
  0
VERTEX
  5
5679
  8
240
 10
-62.004199999999997
 20
2.035270000000001
 30
0.0
 70
    32
  0
VERTEX
  5
567A
  8
240
 10
-61.990099999999998
 20
2.179250000000001
 30
0.0
 70
    32
  0
VERTEX
  5
567B
  8
240
 10
-61.975099999999998
 20
2.3229700000000011
 30
0.0
 70
    32
  0
VERTEX
  5
567C
  8
240
 10
-61.959099999999999
 20
2.4664200000000021
 30
0.0
 70
    32
  0
VERTEX
  5
567D
  8
240
 10
-61.9422
 20
2.6095900000000021
 30
0.0
 70
    32
  0
VERTEX
  5
567E
  8
240
 10
-61.924300000000002
 20
2.7524700000000011
 30
0.0
 70
    32
  0
VERTEX
  5
567F
  8
240
 10
-61.905500000000004
 20
2.8950400000000012
 30
0.0
 70
    32
  0
VERTEX
  5
5680
  8
240
 10
-61.885800000000003
 20
3.0372800000000009
 30
0.0
 70
    32
  0
VERTEX
  5
5681
  8
240
 10
-61.865099999999998
 20
3.1791900000000011
 30
0.0
 70
    32
  0
VERTEX
  5
5682
  8
240
 10
-61.843400000000003
 20
3.3207500000000012
 30
0.0
 70
    32
  0
VERTEX
  5
5683
  8
240
 10
-61.820900000000002
 20
3.4619500000000012
 30
0.0
 70
    32
  0
VERTEX
  5
5684
  8
240
 10
-61.7973
 20
3.602780000000001
 30
0.0
 70
    32
  0
VERTEX
  5
5685
  8
240
 10
-61.7729
 20
3.7432200000000009
 30
0.0
 70
    32
  0
VERTEX
  5
5686
  8
240
 10
-61.747500000000002
 20
3.8832600000000008
 30
0.0
 70
    32
  0
VERTEX
  5
5687
  8
240
 10
-61.721200000000003
 20
4.0228800000000016
 30
0.0
 70
    32
  0
VERTEX
  5
5688
  8
240
 10
-61.694000000000003
 20
4.1620800000000022
 30
0.0
 70
    32
  0
VERTEX
  5
5689
  8
240
 10
-61.66579999999999
 20
4.3008400000000009
 30
0.0
 70
    32
  0
VERTEX
  5
568A
  8
240
 10
-61.636800000000001
 20
4.4391500000000006
 30
0.0
 70
    32
  0
VERTEX
  5
568B
  8
240
 10
-61.6068
 20
4.5769800000000016
 30
0.0
 70
    32
  0
VERTEX
  5
568C
  8
240
 10
-61.575800000000001
 20
4.7143400000000009
 30
0.0
 70
    32
  0
VERTEX
  5
568D
  8
240
 10
-61.54399999999999
 20
4.8512100000000009
 30
0.0
 70
    32
  0
VERTEX
  5
568E
  8
240
 10
-61.511299999999999
 20
4.9875800000000021
 30
0.0
 70
    32
  0
VERTEX
  5
568F
  8
240
 10
-61.477600000000002
 20
5.1234200000000012
 30
0.0
 70
    32
  0
VERTEX
  5
5690
  8
240
 10
-61.442999999999998
 20
5.2587300000000008
 30
0.0
 70
    32
  0
VERTEX
  5
5691
  8
240
 10
-61.407499999999999
 20
5.3935000000000022
 30
0.0
 70
    32
  0
VERTEX
  5
5692
  8
240
 10
-61.371200000000002
 20
5.5277100000000008
 30
0.0
 70
    32
  0
VERTEX
  5
5693
  8
240
 10
-61.3339
 20
5.6613500000000014
 30
0.0
 70
    32
  0
VERTEX
  5
5694
  8
240
 10
-61.295699999999997
 20
5.7944000000000022
 30
0.0
 70
    32
  0
VERTEX
  5
5695
  8
240
 10
-61.256599999999992
 20
5.9268600000000013
 30
0.0
 70
    32
  0
VERTEX
  5
5696
  8
240
 10
-61.2166
 20
6.0587100000000014
 30
0.0
 70
    32
  0
VERTEX
  5
5697
  8
240
 10
-61.175699999999999
 20
6.1899300000000022
 30
0.0
 70
    32
  0
VERTEX
  5
5698
  8
240
 10
-61.13389999999999
 20
6.320520000000001
 30
0.0
 70
    32
  0
VERTEX
  5
5699
  8
240
 10
-61.091200000000001
 20
6.4504600000000014
 30
0.0
 70
    32
  0
VERTEX
  5
569A
  8
240
 10
-61.047600000000003
 20
6.5797300000000023
 30
0.0
 70
    32
  0
VERTEX
  5
569B
  8
240
 10
-61.003199999999993
 20
6.708330000000001
 30
0.0
 70
    32
  0
VERTEX
  5
569C
  8
240
 10
-60.957799999999999
 20
6.8362400000000001
 30
0.0
 70
    32
  0
VERTEX
  5
569D
  8
240
 10
-60.9116
 20
6.9634500000000008
 30
0.0
 70
    32
  0
VERTEX
  5
569E
  8
240
 10
-60.8645
 20
7.0899400000000012
 30
0.0
 70
    32
  0
VERTEX
  5
569F
  8
240
 10
-60.816499999999991
 20
7.2157000000000009
 30
0.0
 70
    32
  0
VERTEX
  5
56A0
  8
240
 10
-60.767600000000002
 20
7.3407300000000024
 30
0.0
 70
    32
  0
VERTEX
  5
56A1
  8
240
 10
-60.7179
 20
7.4649900000000011
 30
0.0
 70
    32
  0
VERTEX
  5
56A2
  8
240
 10
-60.667200000000001
 20
7.5884900000000011
 30
0.0
 70
    32
  0
VERTEX
  5
56A3
  8
240
 10
-60.6158
 20
7.7112100000000021
 30
0.0
 70
    32
  0
VERTEX
  5
56A4
  8
240
 10
-60.563400000000001
 20
7.8331400000000011
 30
0.0
 70
    32
  0
VERTEX
  5
56A5
  8
240
 10
-60.510100000000001
 20
7.9542600000000023
 30
0.0
 70
    32
  0
VERTEX
  5
56A6
  8
240
 10
-60.456000000000003
 20
8.0745500000000021
 30
0.0
 70
    32
  0
VERTEX
  5
56A7
  8
240
 10
-60.4011
 20
8.1940200000000019
 30
0.0
 70
    32
  0
VERTEX
  5
56A8
  8
240
 10
-60.345199999999998
 20
8.3126400000000018
 30
0.0
 70
    32
  0
VERTEX
  5
56A9
  8
240
 10
-60.288600000000002
 20
8.4304000000000023
 30
0.0
 70
    32
  0
VERTEX
  5
56AA
  8
240
 10
-60.231000000000002
 20
8.5472800000000024
 30
0.0
 70
    32
  0
VERTEX
  5
56AB
  8
240
 10
-60.172600000000003
 20
8.6632800000000021
 30
0.0
 70
    32
  0
VERTEX
  5
56AC
  8
240
 10
-60.113300000000002
 20
8.7783900000000017
 30
0.0
 70
    32
  0
VERTEX
  5
56AD
  8
240
 10
-60.053199999999997
 20
8.8925800000000024
 30
0.0
 70
    32
  0
VERTEX
  5
56AE
  8
240
 10
-59.9923
 20
9.0058399999999992
 30
0.0
 70
    32
  0
VERTEX
  5
56AF
  8
240
 10
-59.930500000000002
 20
9.1181699999999992
 30
0.0
 70
    32
  0
VERTEX
  5
56B0
  8
240
 10
-59.867800000000003
 20
9.2295400000000019
 30
0.0
 70
    32
  0
VERTEX
  5
56B1
  8
240
 10
-59.804299999999998
 20
9.3399500000000018
 30
0.0
 70
    32
  0
VERTEX
  5
56B2
  8
240
 10
-59.740000000000002
 20
9.4493900000000011
 30
0.0
 70
    32
  0
VERTEX
  5
56B3
  8
240
 10
-59.674799999999998
 20
9.5578300000000027
 30
0.0
 70
    32
  0
VERTEX
  5
56B4
  8
240
 10
-59.608699999999992
 20
9.6652700000000014
 30
0.0
 70
    32
  0
VERTEX
  5
56B5
  8
240
 10
-59.541899999999998
 20
9.7716900000000013
 30
0.0
 70
    32
  0
VERTEX
  5
56B6
  8
240
 10
-59.47420000000001
 20
9.8770800000000012
 30
0.0
 70
    32
  0
VERTEX
  5
56B7
  8
240
 10
-59.40570000000001
 20
9.9814300000000014
 30
0.0
 70
    32
  0
VERTEX
  5
56B8
  8
240
 10
-59.336300000000001
 20
10.0847
 30
0.0
 70
    32
  0
VERTEX
  5
56B9
  8
240
 10
-59.266100000000002
 20
10.1869
 30
0.0
 70
    32
  0
VERTEX
  5
56BA
  8
240
 10
-59.195099999999989
 20
10.2881
 30
0.0
 70
    32
  0
VERTEX
  5
56BB
  8
240
 10
-59.1233
 20
10.3881
 30
0.0
 70
    32
  0
VERTEX
  5
56BC
  8
240
 10
-59.050600000000003
 20
10.4871
 30
0.0
 70
    32
  0
VERTEX
  5
56BD
  8
240
 10
-58.9771
 20
10.584899999999999
 30
0.0
 70
    32
  0
VERTEX
  5
56BE
  8
240
 10
-58.902799999999999
 20
10.6816
 30
0.0
 70
    32
  0
VERTEX
  5
56BF
  8
240
 10
-58.8277
 20
10.777100000000001
 30
0.0
 70
    32
  0
VERTEX
  5
56C0
  8
240
 10
-58.751800000000003
 20
10.871499999999999
 30
0.0
 70
    32
  0
VERTEX
  5
56C1
  8
240
 10
-58.6751
 20
10.964700000000001
 30
0.0
 70
    32
  0
VERTEX
  5
56C2
  8
240
 10
-58.597499999999997
 20
11.056699999999999
 30
0.0
 70
    32
  0
VERTEX
  5
56C3
  8
240
 10
-58.519199999999991
 20
11.147500000000001
 30
0.0
 70
    32
  0
VERTEX
  5
56C4
  8
240
 10
-58.439999999999998
 20
11.2371
 30
0.0
 70
    32
  0
VERTEX
  5
56C5
  8
240
 10
-58.359999999999999
 20
11.3254
 30
0.0
 70
    32
  0
VERTEX
  5
56C6
  8
240
 10
-58.279299999999999
 20
11.412599999999999
 30
0.0
 70
    32
  0
VERTEX
  5
56C7
  8
240
 10
-58.197699999999998
 20
11.4984
 30
0.0
 70
    32
  0
VERTEX
  5
56C8
  8
240
 10
-58.115299999999998
 20
11.583
 30
0.0
 70
    32
  0
VERTEX
  5
56C9
  8
240
 10
-58.032099999999993
 20
11.666399999999999
 30
0.0
 70
    32
  0
VERTEX
  5
56CA
  8
240
 10
-57.9482
 20
11.7484
 30
0.0
 70
    32
  0
VERTEX
  5
56CB
  8
240
 10
-57.863399999999999
 20
11.8291
 30
0.0
 70
    32
  0
VERTEX
  5
56CC
  8
240
 10
-57.777900000000002
 20
11.9086
 30
0.0
 70
    32
  0
VERTEX
  5
56CD
  8
240
 10
-57.691600000000001
 20
11.986599999999999
 30
0.0
 70
    32
  0
VERTEX
  5
56CE
  8
240
 10
-57.604500000000002
 20
12.0634
 30
0.0
 70
    32
  0
VERTEX
  5
56CF
  8
240
 10
-57.516599999999997
 20
12.1388
 30
0.0
 70
    32
  0
VERTEX
  5
56D0
  8
240
 10
-57.427900000000001
 20
12.2128
 30
0.0
 70
    32
  0
VERTEX
  5
56D1
  8
240
 10
-57.3384
 20
12.285399999999999
 30
0.0
 70
    32
  0
VERTEX
  5
56D2
  8
240
 10
-57.248199999999997
 20
12.3566
 30
0.0
 70
    32
  0
VERTEX
  5
56D3
  8
240
 10
-57.15720000000001
 20
12.426399999999999
 30
0.0
 70
    32
  0
VERTEX
  5
56D4
  8
240
 10
-57.065399999999997
 20
12.4948
 30
0.0
 70
    32
  0
VERTEX
  5
56D5
  8
240
 10
-56.972799999999999
 20
12.5618
 30
0.0
 70
    32
  0
VERTEX
  5
56D6
  8
240
 10
-56.8795
 20
12.6273
 30
0.0
 70
    32
  0
VERTEX
  5
56D7
  8
240
 10
-56.785400000000003
 20
12.6913
 30
0.0
 70
    32
  0
VERTEX
  5
56D8
  8
240
 10
-56.6905
 20
12.7539
 30
0.0
 70
    32
  0
VERTEX
  5
56D9
  8
240
 10
-56.594900000000003
 20
12.815
 30
0.0
 70
    32
  0
VERTEX
  5
56DA
  8
240
 10
-56.4985
 20
12.874599999999999
 30
0.0
 70
    32
  0
VERTEX
  5
56DB
  8
240
 10
-56.401299999999999
 20
12.932600000000001
 30
0.0
 70
    32
  0
VERTEX
  5
56DC
  8
240
 10
-56.303400000000003
 20
12.9892
 30
0.0
 70
    32
  0
VERTEX
  5
56DD
  8
240
 10
-56.204799999999999
 20
13.0442
 30
0.0
 70
    32
  0
VERTEX
  5
56DE
  8
240
 10
-56.105400000000003
 20
13.0977
 30
0.0
 70
    32
  0
VERTEX
  5
56DF
  8
240
 10
-56.005200000000002
 20
13.149699999999999
 30
0.0
 70
    32
  0
VERTEX
  5
56E0
  8
240
 10
-55.904400000000003
 20
13.2003
 30
0.0
 70
    32
  0
VERTEX
  5
56E1
  8
240
 10
-55.802799999999998
 20
13.2493
 30
0.0
 70
    32
  0
VERTEX
  5
56E2
  8
240
 10
-55.700499999999998
 20
13.296900000000001
 30
0.0
 70
    32
  0
VERTEX
  5
56E3
  8
240
 10
-55.597499999999997
 20
13.343
 30
0.0
 70
    32
  0
VERTEX
  5
56E4
  8
240
 10
-55.4938
 20
13.387600000000001
 30
0.0
 70
    32
  0
VERTEX
  5
56E5
  8
240
 10
-55.389400000000002
 20
13.4307
 30
0.0
 70
    32
  0
VERTEX
  5
56E6
  8
240
 10
-55.284300000000002
 20
13.4724
 30
0.0
 70
    32
  0
VERTEX
  5
56E7
  8
240
 10
-55.1785
 20
13.512700000000001
 30
0.0
 70
    32
  0
VERTEX
  5
56E8
  8
240
 10
-55.072000000000003
 20
13.551500000000001
 30
0.0
 70
    32
  0
VERTEX
  5
56E9
  8
240
 10
-54.9649
 20
13.588800000000001
 30
0.0
 70
    32
  0
VERTEX
  5
56EA
  8
240
 10
-54.857100000000003
 20
13.6248
 30
0.0
 70
    32
  0
VERTEX
  5
56EB
  8
240
 10
-54.748699999999999
 20
13.6593
 30
0.0
 70
    32
  0
VERTEX
  5
56EC
  8
240
 10
-54.639600000000002
 20
13.692399999999999
 30
0.0
 70
    32
  0
VERTEX
  5
56ED
  8
240
 10
-54.529899999999991
 20
13.724
 30
0.0
 70
    32
  0
VERTEX
  5
56EE
  8
240
 10
-54.419499999999999
 20
13.754300000000001
 30
0.0
 70
    32
  0
VERTEX
  5
56EF
  8
240
 10
-54.308500000000002
 20
13.783099999999999
 30
0.0
 70
    32
  0
VERTEX
  5
56F0
  8
240
 10
-54.196899999999999
 20
13.810600000000001
 30
0.0
 70
    32
  0
VERTEX
  5
56F1
  8
240
 10
-54.084699999999998
 20
13.8367
 30
0.0
 70
    32
  0
VERTEX
  5
56F2
  8
240
 10
-53.971899999999998
 20
13.8614
 30
0.0
 70
    32
  0
VERTEX
  5
56F3
  8
240
 10
-53.858400000000003
 20
13.8847
 30
0.0
 70
    32
  0
VERTEX
  5
56F4
  8
240
 10
-53.744399999999992
 20
13.906599999999999
 30
0.0
 70
    32
  0
VERTEX
  5
56F5
  8
240
 10
-53.629800000000003
 20
13.927199999999999
 30
0.0
 70
    32
  0
VERTEX
  5
56F6
  8
240
 10
-53.514600000000002
 20
13.9465
 30
0.0
 70
    32
  0
VERTEX
  5
56F7
  8
240
 10
-53.398800000000001
 20
13.9643
 30
0.0
 70
    32
  0
VERTEX
  5
56F8
  8
240
 10
-53.282499999999999
 20
13.9809
 30
0.0
 70
    32
  0
VERTEX
  5
56F9
  8
240
 10
-53.165599999999991
 20
13.996
 30
0.0
 70
    32
  0
VERTEX
  5
56FA
  8
240
 10
-53.048099999999991
 20
14.0099
 30
0.0
 70
    32
  0
VERTEX
  5
56FB
  8
240
 10
-52.930100000000003
 20
14.022399999999999
 30
0.0
 70
    32
  0
VERTEX
  5
56FC
  8
240
 10
-52.811599999999991
 20
14.0336
 30
0.0
 70
    32
  0
VERTEX
  5
56FD
  8
240
 10
-52.692500000000003
 20
14.0435
 30
0.0
 70
    32
  0
VERTEX
  5
56FE
  8
240
 10
-52.572899999999997
 20
14.052099999999999
 30
0.0
 70
    32
  0
VERTEX
  5
56FF
  8
240
 10
-52.452800000000011
 20
14.0594
 30
0.0
 70
    32
  0
VERTEX
  5
5700
  8
240
 10
-52.33209999999999
 20
14.0654
 30
0.0
 70
    32
  0
VERTEX
  5
5701
  8
240
 10
-52.210999999999991
 20
14.0701
 30
0.0
 70
    32
  0
VERTEX
  5
5702
  8
240
 10
-52.089300000000001
 20
14.073499999999999
 30
0.0
 70
    32
  0
VERTEX
  5
5703
  8
240
 10
-51.967199999999998
 20
14.0756
 30
0.0
 70
    32
  0
VERTEX
  5
5704
  8
240
 10
-51.8446
 20
14.076499999999999
 30
0.0
 70
    32
  0
VERTEX
  5
5705
  8
240
 10
-51.721499999999999
 20
14.076000000000001
 30
0.0
 70
    32
  0
VERTEX
  5
5706
  8
240
 10
-51.597900000000003
 20
14.074400000000001
 30
0.0
 70
    32
  0
VERTEX
  5
5707
  8
240
 10
-51.473799999999997
 20
14.0715
 30
0.0
 70
    32
  0
VERTEX
  5
5708
  8
240
 10
-51.349299999999999
 20
14.067299999999999
 30
0.0
 70
    32
  0
VERTEX
  5
5709
  8
240
 10
-51.224400000000003
 20
14.0619
 30
0.0
 70
    32
  0
VERTEX
  5
570A
  8
240
 10
-51.0989
 20
14.055300000000001
 30
0.0
 70
    32
  0
VERTEX
  5
570B
  8
240
 10
-50.973100000000002
 20
14.0474
 30
0.0
 70
    32
  0
VERTEX
  5
570C
  8
240
 10
-50.846800000000002
 20
14.0383
 30
0.0
 70
    32
  0
VERTEX
  5
570D
  8
240
 10
-50.720100000000002
 20
14.028
 30
0.0
 70
    32
  0
VERTEX
  5
570E
  8
240
 10
-50.593000000000004
 20
14.016500000000001
 30
0.0
 70
    32
  0
VERTEX
  5
570F
  8
240
 10
-50.465400000000002
 20
14.0037
 30
0.0
 70
    32
  0
VERTEX
  5
5710
  8
240
 10
-50.337499999999999
 20
13.989800000000001
 30
0.0
 70
    32
  0
VERTEX
  5
5711
  8
240
 10
-50.209099999999999
 20
13.9747
 30
0.0
 70
    32
  0
VERTEX
  5
5712
  8
240
 10
-50.080399999999997
 20
13.958399999999999
 30
0.0
 70
    32
  0
VERTEX
  5
5713
  8
240
 10
-49.9512
 20
13.940899999999999
 30
0.0
 70
    32
  0
VERTEX
  5
5714
  8
240
 10
-49.821699999999993
 20
13.9223
 30
0.0
 70
    32
  0
VERTEX
  5
5715
  8
240
 10
-49.691800000000001
 20
13.9025
 30
0.0
 70
    32
  0
VERTEX
  5
5716
  8
240
 10
-49.561599999999999
 20
13.881500000000001
 30
0.0
 70
    32
  0
VERTEX
  5
5717
  8
240
 10
-49.430999999999997
 20
13.859400000000001
 30
0.0
 70
    32
  0
VERTEX
  5
5718
  8
240
 10
-49.29999999999999
 20
13.8361
 30
0.0
 70
    32
  0
VERTEX
  5
5719
  8
240
 10
-49.168700000000001
 20
13.8117
 30
0.0
 70
    32
  0
VERTEX
  5
571A
  8
240
 10
-49.036999999999999
 20
13.786099999999999
 30
0.0
 70
    32
  0
VERTEX
  5
571B
  8
240
 10
-48.90509999999999
 20
13.759399999999999
 30
0.0
 70
    32
  0
VERTEX
  5
571C
  8
240
 10
-48.772799999999989
 20
13.7316
 30
0.0
 70
    32
  0
VERTEX
  5
571D
  8
240
 10
-48.640099999999997
 20
13.7027
 30
0.0
 70
    32
  0
VERTEX
  5
571E
  8
240
 10
-48.50719999999999
 20
13.672700000000001
 30
0.0
 70
    32
  0
VERTEX
  5
571F
  8
240
 10
-48.373899999999999
 20
13.641500000000001
 30
0.0
 70
    32
  0
VERTEX
  5
5720
  8
240
 10
-48.240400000000001
 20
13.609299999999999
 30
0.0
 70
    32
  0
VERTEX
  5
5721
  8
240
 10
-48.1066
 20
13.576000000000001
 30
0.0
 70
    32
  0
VERTEX
  5
5722
  8
240
 10
-47.9724
 20
13.541600000000001
 30
0.0
 70
    32
  0
VERTEX
  5
5723
  8
240
 10
-47.838000000000001
 20
13.5061
 30
0.0
 70
    32
  0
VERTEX
  5
5724
  8
240
 10
-47.703299999999999
 20
13.4695
 30
0.0
 70
    32
  0
VERTEX
  5
5725
  8
240
 10
-47.56839999999999
 20
13.431800000000001
 30
0.0
 70
    32
  0
VERTEX
  5
5726
  8
240
 10
-47.433199999999992
 20
13.3931
 30
0.0
 70
    32
  0
VERTEX
  5
5727
  8
240
 10
-47.297699999999999
 20
13.353400000000001
 30
0.0
 70
    32
  0
VERTEX
  5
5728
  8
240
 10
-47.161999999999992
 20
13.3126
 30
0.0
 70
    32
  0
VERTEX
  5
5729
  8
240
 10
-47.026099999999992
 20
13.2707
 30
0.0
 70
    32
  0
VERTEX
  5
572A
  8
240
 10
-46.88989999999999
 20
13.2278
 30
0.0
 70
    32
  0
VERTEX
  5
572B
  8
240
 10
-46.753500000000003
 20
13.1839
 30
0.0
 70
    32
  0
VERTEX
  5
572C
  8
240
 10
-46.616900000000001
 20
13.138999999999999
 30
0.0
 70
    32
  0
VERTEX
  5
572D
  8
240
 10
-46.4801
 20
13.093
 30
0.0
 70
    32
  0
VERTEX
  5
572E
  8
240
 10
-46.3431
 20
13.045999999999999
 30
0.0
 70
    32
  0
VERTEX
  5
572F
  8
240
 10
-46.205800000000004
 20
12.998100000000001
 30
0.0
 70
    32
  0
VERTEX
  5
5730
  8
240
 10
-46.068399999999997
 20
12.9491
 30
0.0
 70
    32
  0
VERTEX
  5
5731
  8
240
 10
-45.930799999999991
 20
12.899100000000001
 30
0.0
 70
    32
  0
VERTEX
  5
5732
  8
240
 10
-45.792999999999992
 20
12.8482
 30
0.0
 70
    32
  0
VERTEX
  5
5733
  8
240
 10
-45.65509999999999
 20
12.796200000000001
 30
0.0
 70
    32
  0
VERTEX
  5
5734
  8
240
 10
-45.516899999999993
 20
12.7433
 30
0.0
 70
    32
  0
VERTEX
  5
5735
  8
240
 10
-45.378700000000002
 20
12.689399999999999
 30
0.0
 70
    32
  0
VERTEX
  5
5736
  8
240
 10
-45.240200000000002
 20
12.634600000000001
 30
0.0
 70
    32
  0
VERTEX
  5
5737
  8
240
 10
-45.101599999999991
 20
12.578799999999999
 30
0.0
 70
    32
  0
VERTEX
  5
5738
  8
240
 10
-44.962899999999998
 20
12.522
 30
0.0
 70
    32
  0
VERTEX
  5
5739
  8
240
 10
-44.824100000000001
 20
12.4643
 30
0.0
 70
    32
  0
VERTEX
  5
573A
  8
240
 10
-44.685099999999998
 20
12.4057
 30
0.0
 70
    32
  0
VERTEX
  5
573B
  8
240
 10
-44.545999999999999
 20
12.3461
 30
0.0
 70
    32
  0
VERTEX
  5
573C
  8
240
 10
-44.40679999999999
 20
12.285600000000001
 30
0.0
 70
    32
  0
VERTEX
  5
573D
  8
240
 10
-44.267499999999998
 20
12.2242
 30
0.0
 70
    32
  0
VERTEX
  5
573E
  8
240
 10
-44.128100000000003
 20
12.161899999999999
 30
0.0
 70
    32
  0
VERTEX
  5
573F
  8
240
 10
-43.988599999999991
 20
12.098599999999999
 30
0.0
 70
    32
  0
VERTEX
  5
5740
  8
240
 10
-43.848999999999997
 20
12.0345
 30
0.0
 70
    32
  0
VERTEX
  5
5741
  8
240
 10
-43.709299999999999
 20
11.9695
 30
0.0
 70
    32
  0
VERTEX
  5
5742
  8
240
 10
-43.569599999999987
 20
11.903499999999999
 30
0.0
 70
    32
  0
VERTEX
  5
5743
  8
240
 10
-43.429799999999993
 20
11.8367
 30
0.0
 70
    32
  0
VERTEX
  5
5744
  8
240
 10
-43.289999999999992
 20
11.7691
 30
0.0
 70
    32
  0
VERTEX
  5
5745
  8
240
 10
-43.150100000000002
 20
11.7005
 30
0.0
 70
    32
  0
VERTEX
  5
5746
  8
240
 10
-43.010100000000001
 20
11.6311
 30
0.0
 70
    32
  0
VERTEX
  5
5747
  8
240
 10
-42.870100000000001
 20
11.5608
 30
0.0
 70
    32
  0
VERTEX
  5
5748
  8
240
 10
-42.7301
 20
11.489699999999999
 30
0.0
 70
    32
  0
VERTEX
  5
5749
  8
240
 10
-42.590099999999993
 20
11.4177
 30
0.0
 70
    32
  0
VERTEX
  5
574A
  8
240
 10
-42.450000000000003
 20
11.344900000000001
 30
0.0
 70
    32
  0
SEQEND
  5
574B
  8
240
  0
POLYLINE
  5
574C
  8
240
 66
     1
 10
0.0
 20
0.0
 30
0.0
 70
     8
  0
VERTEX
  5
574D
  8
240
 10
-42.450000000000003
 20
-11.344900000000001
 30
0.0
 70
    32
  0
VERTEX
  5
574E
  8
240
 10
-42.576900000000002
 20
-11.4176
 30
0.0
 70
    32
  0
VERTEX
  5
574F
  8
240
 10
-42.7042
 20
-11.4893
 30
0.0
 70
    32
  0
VERTEX
  5
5750
  8
240
 10
-42.831899999999997
 20
-11.5602
 30
0.0
 70
    32
  0
VERTEX
  5
5751
  8
240
 10
-42.960000000000001
 20
-11.6302
 30
0.0
 70
    32
  0
VERTEX
  5
5752
  8
240
 10
-43.088500000000003
 20
-11.69929999999999
 30
0.0
 70
    32
  0
VERTEX
  5
5753
  8
240
 10
-43.217300000000002
 20
-11.7674
 30
0.0
 70
    32
  0
VERTEX
  5
5754
  8
240
 10
-43.346600000000002
 20
-11.8347
 30
0.0
 70
    32
  0
VERTEX
  5
5755
  8
240
 10
-43.476199999999999
 20
-11.901
 30
0.0
 70
    32
  0
VERTEX
  5
5756
  8
240
 10
-43.606099999999998
 20
-11.966499999999989
 30
0.0
 70
    32
  0
VERTEX
  5
5757
  8
240
 10
-43.736400000000003
 20
-12.031000000000001
 30
0.0
 70
    32
  0
VERTEX
  5
5758
  8
240
 10
-43.866999999999997
 20
-12.0945
 30
0.0
 70
    32
  0
VERTEX
  5
5759
  8
240
 10
-43.997900000000001
 20
-12.1572
 30
0.0
 70
    32
  0
VERTEX
  5
575A
  8
240
 10
-44.128999999999991
 20
-12.2189
 30
0.0
 70
    32
  0
VERTEX
  5
575B
  8
240
 10
-44.2605
 20
-12.2796
 30
0.0
 70
    32
  0
VERTEX
  5
575C
  8
240
 10
-44.392200000000003
 20
-12.339399999999999
 30
0.0
 70
    32
  0
VERTEX
  5
575D
  8
240
 10
-44.5242
 20
-12.398300000000001
 30
0.0
 70
    32
  0
VERTEX
  5
575E
  8
240
 10
-44.656399999999991
 20
-12.456200000000001
 30
0.0
 70
    32
  0
VERTEX
  5
575F
  8
240
 10
-44.788899999999991
 20
-12.5131
 30
0.0
 70
    32
  0
VERTEX
  5
5760
  8
240
 10
-44.921500000000002
 20
-12.569000000000001
 30
0.0
 70
    32
  0
VERTEX
  5
5761
  8
240
 10
-45.054400000000001
 20
-12.624000000000001
 30
0.0
 70
    32
  0
VERTEX
  5
5762
  8
240
 10
-45.187499999999993
 20
-12.678000000000001
 30
0.0
 70
    32
  0
VERTEX
  5
5763
  8
240
 10
-45.320700000000002
 20
-12.7311
 30
0.0
 70
    32
  0
VERTEX
  5
5764
  8
240
 10
-45.45409999999999
 20
-12.783099999999999
 30
0.0
 70
    32
  0
VERTEX
  5
5765
  8
240
 10
-45.587699999999991
 20
-12.834199999999999
 30
0.0
 70
    32
  0
VERTEX
  5
5766
  8
240
 10
-45.721400000000003
 20
-12.8842
 30
0.0
 70
    32
  0
VERTEX
  5
5767
  8
240
 10
-45.8553
 20
-12.933299999999999
 30
0.0
 70
    32
  0
VERTEX
  5
5768
  8
240
 10
-45.98919999999999
 20
-12.981299999999999
 30
0.0
 70
    32
  0
VERTEX
  5
5769
  8
240
 10
-46.1233
 20
-13.0283
 30
0.0
 70
    32
  0
VERTEX
  5
576A
  8
240
 10
-46.2575
 20
-13.074400000000001
 30
0.0
 70
    32
  0
VERTEX
  5
576B
  8
240
 10
-46.3917
 20
-13.119400000000001
 30
0.0
 70
    32
  0
VERTEX
  5
576C
  8
240
 10
-46.526000000000003
 20
-13.1633
 30
0.0
 70
    32
  0
VERTEX
  5
576D
  8
240
 10
-46.660400000000003
 20
-13.206300000000001
 30
0.0
 70
    32
  0
VERTEX
  5
576E
  8
240
 10
-46.794800000000002
 20
-13.248200000000001
 30
0.0
 70
    32
  0
VERTEX
  5
576F
  8
240
 10
-46.929299999999991
 20
-13.289
 30
0.0
 70
    32
  0
VERTEX
  5
5770
  8
240
 10
-47.06369999999999
 20
-13.328900000000001
 30
0.0
 70
    32
  0
VERTEX
  5
5771
  8
240
 10
-47.1982
 20
-13.367599999999999
 30
0.0
 70
    32
  0
VERTEX
  5
5772
  8
240
 10
-47.332700000000003
 20
-13.4053
 30
0.0
 70
    32
  0
VERTEX
  5
5773
  8
240
 10
-47.467100000000002
 20
-13.442
 30
0.0
 70
    32
  0
VERTEX
  5
5774
  8
240
 10
-47.601599999999991
 20
-13.477600000000001
 30
0.0
 70
    32
  0
VERTEX
  5
5775
  8
240
 10
-47.735900000000001
 20
-13.5121
 30
0.0
 70
    32
  0
VERTEX
  5
5776
  8
240
 10
-47.8703
 20
-13.5456
 30
0.0
 70
    32
  0
VERTEX
  5
5777
  8
240
 10
-48.0045
 20
-13.5779
 30
0.0
 70
    32
  0
VERTEX
  5
5778
  8
240
 10
-48.1387
 20
-13.6092
 30
0.0
 70
    32
  0
VERTEX
  5
5779
  8
240
 10
-48.272799999999997
 20
-13.6394
 30
0.0
 70
    32
  0
VERTEX
  5
577A
  8
240
 10
-48.40679999999999
 20
-13.6685
 30
0.0
 70
    32
  0
VERTEX
  5
577B
  8
240
 10
-48.540700000000001
 20
-13.6965
 30
0.0
 70
    32
  0
VERTEX
  5
577C
  8
240
 10
-48.674399999999999
 20
-13.7234
 30
0.0
 70
    32
  0
VERTEX
  5
577D
  8
240
 10
-48.808
 20
-13.7492
 30
0.0
 70
    32
  0
VERTEX
  5
577E
  8
240
 10
-48.941400000000002
 20
-13.773899999999999
 30
0.0
 70
    32
  0
VERTEX
  5
577F
  8
240
 10
-49.074699999999993
 20
-13.797499999999999
 30
0.0
 70
    32
  0
VERTEX
  5
5780
  8
240
 10
-49.207799999999999
 20
-13.819900000000001
 30
0.0
 70
    32
  0
VERTEX
  5
5781
  8
240
 10
-49.340699999999998
 20
-13.841200000000001
 30
0.0
 70
    32
  0
VERTEX
  5
5782
  8
240
 10
-49.473399999999998
 20
-13.8614
 30
0.0
 70
    32
  0
VERTEX
  5
5783
  8
240
 10
-49.605899999999991
 20
-13.880499999999991
 30
0.0
 70
    32
  0
VERTEX
  5
5784
  8
240
 10
-49.738199999999992
 20
-13.898400000000001
 30
0.0
 70
    32
  0
VERTEX
  5
5785
  8
240
 10
-49.870199999999997
 20
-13.915100000000001
 30
0.0
 70
    32
  0
VERTEX
  5
5786
  8
240
 10
-50.002000000000002
 20
-13.9308
 30
0.0
 70
    32
  0
VERTEX
  5
5787
  8
240
 10
-50.133499999999991
 20
-13.9452
 30
0.0
 70
    32
  0
VERTEX
  5
5788
  8
240
 10
-50.264699999999991
 20
-13.958500000000001
 30
0.0
 70
    32
  0
VERTEX
  5
5789
  8
240
 10
-50.395699999999998
 20
-13.97059999999999
 30
0.0
 70
    32
  0
VERTEX
  5
578A
  8
240
 10
-50.526299999999999
 20
-13.9816
 30
0.0
 70
    32
  0
VERTEX
  5
578B
  8
240
 10
-50.656700000000001
 20
-13.991400000000001
 30
0.0
 70
    32
  0
VERTEX
  5
578C
  8
240
 10
-50.786700000000003
 20
-14.0
 30
0.0
 70
    32
  0
VERTEX
  5
578D
  8
240
 10
-50.9163
 20
-14.007400000000001
 30
0.0
 70
    32
  0
VERTEX
  5
578E
  8
240
 10
-51.0456
 20
-14.0136
 30
0.0
 70
    32
  0
VERTEX
  5
578F
  8
240
 10
-51.174599999999998
 20
-14.018700000000001
 30
0.0
 70
    32
  0
VERTEX
  5
5790
  8
240
 10
-51.303199999999997
 20
-14.022500000000001
 30
0.0
 70
    32
  0
VERTEX
  5
5791
  8
240
 10
-51.4313
 20
-14.0251
 30
0.0
 70
    32
  0
VERTEX
  5
5792
  8
240
 10
-51.559100000000001
 20
-14.0266
 30
0.0
 70
    32
  0
VERTEX
  5
5793
  8
240
 10
-51.686500000000002
 20
-14.0268
 30
0.0
 70
    32
  0
VERTEX
  5
5794
  8
240
 10
-51.813400000000001
 20
-14.0258
 30
0.0
 70
    32
  0
VERTEX
  5
5795
  8
240
 10
-51.939900000000002
 20
-14.0235
 30
0.0
 70
    32
  0
VERTEX
  5
5796
  8
240
 10
-52.066000000000003
 20
-14.02009999999999
 30
0.0
 70
    32
  0
VERTEX
  5
5797
  8
240
 10
-52.191600000000001
 20
-14.015399999999991
 30
0.0
 70
    32
  0
VERTEX
  5
5798
  8
240
 10
-52.316699999999997
 20
-14.009499999999999
 30
0.0
 70
    32
  0
VERTEX
  5
5799
  8
240
 10
-52.441299999999998
 20
-14.0023
 30
0.0
 70
    32
  0
VERTEX
  5
579A
  8
240
 10
-52.5655
 20
-13.9939
 30
0.0
 70
    32
  0
VERTEX
  5
579B
  8
240
 10
-52.689100000000003
 20
-13.984199999999991
 30
0.0
 70
    32
  0
VERTEX
  5
579C
  8
240
 10
-52.812199999999997
 20
-13.9733
 30
0.0
 70
    32
  0
VERTEX
  5
579D
  8
240
 10
-52.934699999999999
 20
-13.9611
 30
0.0
 70
    32
  0
VERTEX
  5
579E
  8
240
 10
-53.056800000000003
 20
-13.947599999999991
 30
0.0
 70
    32
  0
VERTEX
  5
579F
  8
240
 10
-53.178199999999997
 20
-13.9329
 30
0.0
 70
    32
  0
VERTEX
  5
57A0
  8
240
 10
-53.299100000000003
 20
-13.9169
 30
0.0
 70
    32
  0
VERTEX
  5
57A1
  8
240
 10
-53.41940000000001
 20
-13.8996
 30
0.0
 70
    32
  0
VERTEX
  5
57A2
  8
240
 10
-53.539099999999991
 20
-13.881
 30
0.0
 70
    32
  0
VERTEX
  5
57A3
  8
240
 10
-53.65809999999999
 20
-13.8612
 30
0.0
 70
    32
  0
VERTEX
  5
57A4
  8
240
 10
-53.776600000000002
 20
-13.84
 30
0.0
 70
    32
  0
VERTEX
  5
57A5
  8
240
 10
-53.894399999999997
 20
-13.817600000000001
 30
0.0
 70
    32
  0
VERTEX
  5
57A6
  8
240
 10
-54.011600000000001
 20
-13.793799999999999
 30
0.0
 70
    32
  0
VERTEX
  5
57A7
  8
240
 10
-54.128100000000003
 20
-13.768700000000001
 30
0.0
 70
    32
  0
VERTEX
  5
57A8
  8
240
 10
-54.243899999999989
 20
-13.7424
 30
0.0
 70
    32
  0
VERTEX
  5
57A9
  8
240
 10
-54.359099999999991
 20
-13.714600000000001
 30
0.0
 70
    32
  0
VERTEX
  5
57AA
  8
240
 10
-54.47359999999999
 20
-13.685600000000001
 30
0.0
 70
    32
  0
VERTEX
  5
57AB
  8
240
 10
-54.587299999999999
 20
-13.6553
 30
0.0
 70
    32
  0
VERTEX
  5
57AC
  8
240
 10
-54.700299999999999
 20
-13.6236
 30
0.0
 70
    32
  0
VERTEX
  5
57AD
  8
240
 10
-54.812600000000003
 20
-13.5905
 30
0.0
 70
    32
  0
VERTEX
  5
57AE
  8
240
 10
-54.924199999999999
 20
-13.5562
 30
0.0
 70
    32
  0
VERTEX
  5
57AF
  8
240
 10
-55.034999999999989
 20
-13.5204
 30
0.0
 70
    32
  0
VERTEX
  5
57B0
  8
240
 10
-55.145000000000003
 20
-13.4834
 30
0.0
 70
    32
  0
VERTEX
  5
57B1
  8
240
 10
-55.254199999999997
 20
-13.444900000000001
 30
0.0
 70
    32
  0
VERTEX
  5
57B2
  8
240
 10
-55.3626
 20
-13.405099999999999
 30
0.0
 70
    32
  0
VERTEX
  5
57B3
  8
240
 10
-55.470300000000002
 20
-13.364000000000001
 30
0.0
 70
    32
  0
VERTEX
  5
57B4
  8
240
 10
-55.577100000000002
 20
-13.321400000000001
 30
0.0
 70
    32
  0
VERTEX
  5
57B5
  8
240
 10
-55.683
 20
-13.2775
 30
0.0
 70
    32
  0
VERTEX
  5
57B6
  8
240
 10
-55.788200000000003
 20
-13.232200000000001
 30
0.0
 70
    32
  0
VERTEX
  5
57B7
  8
240
 10
-55.892400000000002
 20
-13.185499999999999
 30
0.0
 70
    32
  0
VERTEX
  5
57B8
  8
240
 10
-55.995800000000003
 20
-13.13749999999999
 30
0.0
 70
    32
  0
VERTEX
  5
57B9
  8
240
 10
-56.098300000000002
 20
-13.08799999999999
 30
0.0
 70
    32
  0
VERTEX
  5
57BA
  8
240
 10
-56.200000000000003
 20
-13.037100000000001
 30
0.0
 70
    32
  0
VERTEX
  5
57BB
  8
240
 10
-56.300699999999992
 20
-12.9848
 30
0.0
 70
    32
  0
VERTEX
  5
57BC
  8
240
 10
-56.400500000000001
 20
-12.9312
 30
0.0
 70
    32
  0
VERTEX
  5
57BD
  8
240
 10
-56.499299999999998
 20
-12.875999999999999
 30
0.0
 70
    32
  0
VERTEX
  5
57BE
  8
240
 10
-56.597200000000001
 20
-12.8195
 30
0.0
 70
    32
  0
VERTEX
  5
57BF
  8
240
 10
-56.694200000000002
 20
-12.7616
 30
0.0
 70
    32
  0
VERTEX
  5
57C0
  8
240
 10
-56.790300000000002
 20
-12.70229999999999
 30
0.0
 70
    32
  0
VERTEX
  5
57C1
  8
240
 10
-56.88539999999999
 20
-12.6416
 30
0.0
 70
    32
  0
VERTEX
  5
57C2
  8
240
 10
-56.979599999999998
 20
-12.579499999999999
 30
0.0
 70
    32
  0
VERTEX
  5
57C3
  8
240
 10
-57.072899999999997
 20
-12.516
 30
0.0
 70
    32
  0
VERTEX
  5
57C4
  8
240
 10
-57.165199999999999
 20
-12.4512
 30
0.0
 70
    32
  0
VERTEX
  5
57C5
  8
240
 10
-57.256599999999999
 20
-12.385099999999991
 30
0.0
 70
    32
  0
VERTEX
  5
57C6
  8
240
 10
-57.34709999999999
 20
-12.317600000000001
 30
0.0
 70
    32
  0
VERTEX
  5
57C7
  8
240
 10
-57.436700000000002
 20
-12.248699999999999
 30
0.0
 70
    32
  0
VERTEX
  5
57C8
  8
240
 10
-57.525300000000001
 20
-12.1785
 30
0.0
 70
    32
  0
VERTEX
  5
57C9
  8
240
 10
-57.613100000000003
 20
-12.107100000000001
 30
0.0
 70
    32
  0
VERTEX
  5
57CA
  8
240
 10
-57.699899999999992
 20
-12.0343
 30
0.0
 70
    32
  0
VERTEX
  5
57CB
  8
240
 10
-57.785800000000002
 20
-11.9602
 30
0.0
 70
    32
  0
VERTEX
  5
57CC
  8
240
 10
-57.870800000000003
 20
-11.8848
 30
0.0
 70
    32
  0
VERTEX
  5
57CD
  8
240
 10
-57.954900000000002
 20
-11.80819999999999
 30
0.0
 70
    32
  0
VERTEX
  5
57CE
  8
240
 10
-58.0381
 20
-11.7302
 30
0.0
 70
    32
  0
VERTEX
  5
57CF
  8
240
 10
-58.120399999999989
 20
-11.651
 30
0.0
 70
    32
  0
VERTEX
  5
57D0
  8
240
 10
-58.201799999999999
 20
-11.570600000000001
 30
0.0
 70
    32
  0
VERTEX
  5
57D1
  8
240
 10
-58.282299999999999
 20
-11.48889999999999
 30
0.0
 70
    32
  0
VERTEX
  5
57D2
  8
240
 10
-58.361899999999999
 20
-11.406000000000001
 30
0.0
 70
    32
  0
VERTEX
  5
57D3
  8
240
 10
-58.440600000000003
 20
-11.321799999999991
 30
0.0
 70
    32
  0
VERTEX
  5
57D4
  8
240
 10
-58.5184
 20
-11.236499999999999
 30
0.0
 70
    32
  0
VERTEX
  5
57D5
  8
240
 10
-58.595300000000002
 20
-11.149900000000001
 30
0.0
 70
    32
  0
VERTEX
  5
57D6
  8
240
 10
-58.671300000000002
 20
-11.06209999999999
 30
0.0
 70
    32
  0
VERTEX
  5
57D7
  8
240
 10
-58.746400000000001
 20
-10.973100000000001
 30
0.0
 70
    32
  0
VERTEX
  5
57D8
  8
240
 10
-58.820700000000002
 20
-10.882999999999999
 30
0.0
 70
    32
  0
VERTEX
  5
57D9
  8
240
 10
-58.893999999999998
 20
-10.791700000000001
 30
0.0
 70
    32
  0
VERTEX
  5
57DA
  8
240
 10
-58.966500000000011
 20
-10.69919999999999
 30
0.0
 70
    32
  0
VERTEX
  5
57DB
  8
240
 10
-59.0381
 20
-10.605499999999999
 30
0.0
 70
    32
  0
VERTEX
  5
57DC
  8
240
 10
-59.108899999999998
 20
-10.5107
 30
0.0
 70
    32
  0
VERTEX
  5
57DD
  8
240
 10
-59.178699999999999
 20
-10.414799999999991
 30
0.0
 70
    32
  0
VERTEX
  5
57DE
  8
240
 10
-59.247700000000002
 20
-10.3177
 30
0.0
 70
    32
  0
VERTEX
  5
57DF
  8
240
 10
-59.315800000000003
 20
-10.219599999999989
 30
0.0
 70
    32
  0
VERTEX
  5
57E0
  8
240
 10
-59.383000000000003
 20
-10.1203
 30
0.0
 70
    32
  0
VERTEX
  5
57E1
  8
240
 10
-59.44939999999999
 20
-10.0199
 30
0.0
 70
    32
  0
VERTEX
  5
57E2
  8
240
 10
-59.51489999999999
 20
-9.9183999999999983
 30
0.0
 70
    32
  0
VERTEX
  5
57E3
  8
240
 10
-59.579500000000003
 20
-9.8158299999999983
 30
0.0
 70
    32
  0
VERTEX
  5
57E4
  8
240
 10
-59.643300000000004
 20
-9.7121799999999983
 30
0.0
 70
    32
  0
VERTEX
  5
57E5
  8
240
 10
-59.706200000000003
 20
-9.6074699999999975
 30
0.0
 70
    32
  0
VERTEX
  5
57E6
  8
240
 10
-59.768300000000004
 20
-9.5016999999999978
 30
0.0
 70
    32
  0
VERTEX
  5
57E7
  8
240
 10
-59.829500000000003
 20
-9.3948799999999988
 30
0.0
 70
    32
  0
VERTEX
  5
57E8
  8
240
 10
-59.889800000000001
 20
-9.2870199999999983
 30
0.0
 70
    32
  0
VERTEX
  5
57E9
  8
240
 10
-59.949300000000001
 20
-9.1781299999999977
 30
0.0
 70
    32
  0
VERTEX
  5
57EA
  8
240
 10
-60.008000000000003
 20
-9.0682199999999984
 30
0.0
 70
    32
  0
VERTEX
  5
57EB
  8
240
 10
-60.065800000000003
 20
-8.9572899999999969
 30
0.0
 70
    32
  0
VERTEX
  5
57EC
  8
240
 10
-60.122700000000002
 20
-8.8453599999999994
 30
0.0
 70
    32
  0
VERTEX
  5
57ED
  8
240
 10
-60.178800000000003
 20
-8.7324399999999969
 30
0.0
 70
    32
  0
VERTEX
  5
57EE
  8
240
 10
-60.234099999999998
 20
-8.6185199999999984
 30
0.0
 70
    32
  0
VERTEX
  5
57EF
  8
240
 10
-60.288499999999999
 20
-8.5036399999999972
 30
0.0
 70
    32
  0
VERTEX
  5
57F0
  8
240
 10
-60.342100000000002
 20
-8.3877799999999993
 30
0.0
 70
    32
  0
VERTEX
  5
57F1
  8
240
 10
-60.3949
 20
-8.2709599999999988
 30
0.0
 70
    32
  0
VERTEX
  5
57F2
  8
240
 10
-60.446800000000003
 20
-8.1531899999999968
 30
0.0
 70
    32
  0
VERTEX
  5
57F3
  8
240
 10
-60.497900000000001
 20
-8.0344799999999985
 30
0.0
 70
    32
  0
VERTEX
  5
57F4
  8
240
 10
-60.548200000000001
 20
-7.9148299999999976
 30
0.0
 70
    32
  0
VERTEX
  5
57F5
  8
240
 10
-60.5976
 20
-7.7942699999999983
 30
0.0
 70
    32
  0
VERTEX
  5
57F6
  8
240
 10
-60.6462
 20
-7.6727799999999977
 30
0.0
 70
    32
  0
VERTEX
  5
57F7
  8
240
 10
-60.694000000000003
 20
-7.5503899999999966
 30
0.0
 70
    32
  0
VERTEX
  5
57F8
  8
240
 10
-60.740900000000003
 20
-7.4270999999999976
 30
0.0
 70
    32
  0
VERTEX
  5
57F9
  8
240
 10
-60.787100000000002
 20
-7.3029299999999981
 30
0.0
 70
    32
  0
VERTEX
  5
57FA
  8
240
 10
-60.832399999999993
 20
-7.1778699999999969
 30
0.0
 70
    32
  0
VERTEX
  5
57FB
  8
240
 10
-60.876899999999999
 20
-7.0519399999999974
 30
0.0
 70
    32
  0
VERTEX
  5
57FC
  8
240
 10
-60.9206
 20
-6.9251499999999977
 30
0.0
 70
    32
  0
VERTEX
  5
57FD
  8
240
 10
-60.96350000000001
 20
-6.7975099999999991
 30
0.0
 70
    32
  0
VERTEX
  5
57FE
  8
240
 10
-61.005600000000001
 20
-6.6690199999999971
 30
0.0
 70
    32
  0
VERTEX
  5
57FF
  8
240
 10
-61.046799999999998
 20
-6.5396999999999981
 30
0.0
 70
    32
  0
VERTEX
  5
5800
  8
240
 10
-61.087299999999999
 20
-6.4095499999999976
 30
0.0
 70
    32
  0
VERTEX
  5
5801
  8
240
 10
-61.127000000000002
 20
-6.2785899999999977
 30
0.0
 70
    32
  0
VERTEX
  5
5802
  8
240
 10
-61.16579999999999
 20
-6.1468099999999968
 30
0.0
 70
    32
  0
VERTEX
  5
5803
  8
240
 10
-61.203899999999997
 20
-6.0142399999999983
 30
0.0
 70
    32
  0
VERTEX
  5
5804
  8
240
 10
-61.241100000000003
 20
-5.880869999999998
 30
0.0
 70
    32
  0
VERTEX
  5
5805
  8
240
 10
-61.2776
 20
-5.7467299999999977
 30
0.0
 70
    32
  0
VERTEX
  5
5806
  8
240
 10
-61.313200000000002
 20
-5.6118099999999984
 30
0.0
 70
    32
  0
VERTEX
  5
5807
  8
240
 10
-61.348100000000002
 20
-5.4761199999999981
 30
0.0
 70
    32
  0
VERTEX
  5
5808
  8
240
 10
-61.382199999999997
 20
-5.3396799999999978
 30
0.0
 70
    32
  0
VERTEX
  5
5809
  8
240
 10
-61.415500000000002
 20
-5.202499999999997
 30
0.0
 70
    32
  0
VERTEX
  5
580A
  8
240
 10
-61.448
 20
-5.0645799999999976
 30
0.0
 70
    32
  0
VERTEX
  5
580B
  8
240
 10
-61.479700000000001
 20
-4.925919999999997
 30
0.0
 70
    32
  0
VERTEX
  5
580C
  8
240
 10
-61.5107
 20
-4.7865499999999983
 30
0.0
 70
    32
  0
VERTEX
  5
580D
  8
240
 10
-61.540799999999997
 20
-4.6464699999999981
 30
0.0
 70
    32
  0
VERTEX
  5
580E
  8
240
 10
-61.5702
 20
-4.5056899999999978
 30
0.0
 70
    32
  0
VERTEX
  5
580F
  8
240
 10
-61.598799999999997
 20
-4.3642099999999981
 30
0.0
 70
    32
  0
VERTEX
  5
5810
  8
240
 10
-61.6267
 20
-4.2220499999999976
 30
0.0
 70
    32
  0
VERTEX
  5
5811
  8
240
 10
-61.653700000000001
 20
-4.0792199999999967
 30
0.0
 70
    32
  0
VERTEX
  5
5812
  8
240
 10
-61.68
 20
-3.9357199999999981
 30
0.0
 70
    32
  0
VERTEX
  5
5813
  8
240
 10
-61.705599999999997
 20
-3.7915599999999978
 30
0.0
 70
    32
  0
VERTEX
  5
5814
  8
240
 10
-61.7303
 20
-3.6467499999999982
 30
0.0
 70
    32
  0
VERTEX
  5
5815
  8
240
 10
-61.754300000000001
 20
-3.5012999999999979
 30
0.0
 70
    32
  0
VERTEX
  5
5816
  8
240
 10
-61.7776
 20
-3.3552299999999979
 30
0.0
 70
    32
  0
VERTEX
  5
5817
  8
240
 10
-61.79999999999999
 20
-3.2085299999999979
 30
0.0
 70
    32
  0
VERTEX
  5
5818
  8
240
 10
-61.8217
 20
-3.0612199999999978
 30
0.0
 70
    32
  0
VERTEX
  5
5819
  8
240
 10
-61.842700000000001
 20
-2.9132999999999978
 30
0.0
 70
    32
  0
VERTEX
  5
581A
  8
240
 10
-61.862900000000003
 20
-2.7647899999999979
 30
0.0
 70
    32
  0
VERTEX
  5
581B
  8
240
 10
-61.882399999999997
 20
-2.6156899999999981
 30
0.0
 70
    32
  0
VERTEX
  5
581C
  8
240
 10
-61.9011
 20
-2.4660199999999981
 30
0.0
 70
    32
  0
VERTEX
  5
581D
  8
240
 10
-61.918999999999997
 20
-2.3157799999999971
 30
0.0
 70
    32
  0
VERTEX
  5
581E
  8
240
 10
-61.936199999999999
 20
-2.1649799999999981
 30
0.0
 70
    32
  0
VERTEX
  5
581F
  8
240
 10
-61.9527
 20
-2.0136199999999982
 30
0.0
 70
    32
  0
VERTEX
  5
5820
  8
240
 10
-61.968400000000003
 20
-1.8617299999999981
 30
0.0
 70
    32
  0
VERTEX
  5
5821
  8
240
 10
-61.983400000000003
 20
-1.709299999999998
 30
0.0
 70
    32
  0
VERTEX
  5
5822
  8
240
 10
-61.997700000000002
 20
-1.5563499999999979
 30
0.0
 70
    32
  0
VERTEX
  5
5823
  8
240
 10
-62.011200000000002
 20
-1.402889999999998
 30
0.0
 70
    32
  0
VERTEX
  5
5824
  8
240
 10
-62.024000000000001
 20
-1.248919999999998
 30
0.0
 70
    32
  0
VERTEX
  5
5825
  8
240
 10
-62.036000000000001
 20
-1.0944499999999979
 30
0.0
 70
    32
  0
VERTEX
  5
5826
  8
240
 10
-62.0473
 20
-0.9394929999999983
 30
0.0
 70
    32
  0
VERTEX
  5
5827
  8
240
 10
-62.057899999999997
 20
-0.7840569999999982
 30
0.0
 70
    32
  0
VERTEX
  5
5828
  8
240
 10
-62.067799999999998
 20
-0.6281509999999984
 30
0.0
 70
    32
  0
VERTEX
  5
5829
  8
240
 10
-62.076900000000002
 20
-0.4717829999999983
 30
0.0
 70
    32
  0
VERTEX
  5
582A
  8
240
 10
-62.085299999999989
 20
-0.3149629999999982
 30
0.0
 70
    32
  0
VERTEX
  5
582B
  8
240
 10
-62.093000000000004
 20
-0.1576989999999982
 30
0.0
 70
    32
  0
VERTEX
  5
582C
  8
240
 10
-62.100000000000001
 20
0.0000000013795618
 30
0.0
 70
    32
  0
SEQEND
  5
582D
  8
240
  0
VIEWPORT
  5
22
 67
     1
  8
0
 10
261.51769911504419
 20
148.5
 30
0.0
 40
523.0353982300885
 41
297.0
 68
     1
 69
     1
1001
ACAD
1000
MVIEW
1002
{
1070
    16
1010
0.0
1020
0.0
1030
0.0
1010
0.0
1020
0.0
1030
1.0
1040
0.0
1040
297.0
1040
261.51769911504419
1040
148.5
1040
50.0
1040
0.0
1040
0.0
1070
     0
1070
   100
1070
     1
1070
     1
1070
     0
1070
     0
1070
     0
1070
     0
1040
0.0
1040
0.0
1040
0.0
1040
1.0
1040
1.0
1040
10.0
1040
10.0
1070
     0
1002
{
1002
}
1002
}
1001
GENIUS_GENODEF_13
1002
{
1000
HIER
1070
     0
1002
}
1002
{
1000
MANEDIT
1070
     0
1002
}
1002
{
1000
NOSEL
1070
     0
1002
}
1002
{
1000
BEHIND
1070
     0
1002
}
1002
{
1000
OTHER
1070
     0
1002
}
1002
{
1000
REACTOR
1002
}
1001
GENIUS_GENOBJ-N-SDF_13
1002
{
1000
OWNER
1000
GEN
1002
}
1001
GENIUS_GENSCREG_15
1000
PF
1040
1.0
1000
DF
1040
1.0
1000
MIN
1011
0.0
1021
0.0
1031
0.0
1021
0.0
1031
0.0
1000
MAX
1011
523.0353982300885
1021
0.0
1031
0.0
1021
297.0
1031
0.0
1000
FLAGS
1070
     4
  0
ENDSEC
  0
EOF
