  0
SECTION
  2
HEADER
  9
$ACADVER
  1
AC1009
  9
$INSBASE
 10
0.0
 20
0.0
 30
0.0
  9
$EXTMIN
 10
-66.642024170850931
 20
-27.511725824885161
 30
0.0
  9
$EXTMAX
 10
100.18362294741731
 20
54.000000000000007
 30
0.0
  9
$LIMMIN
 10
0.0
 20
0.0
  9
$LIMMAX
 10
297.0
 20
210.0
  9
$ORTHOMODE
 70
     0
  9
$REGENMODE
 70
     1
  9
$FILLMODE
 70
     1
  9
$QTEXTMODE
 70
     0
  9
$MIRRTEXT
 70
     1
  9
$DRAGMODE
 70
     2
  9
$LTSCALE
 40
10.0
  9
$OSMODE
 70
    37
  9
$ATTMODE
 70
     1
  9
$TEXTSIZE
 40
3.0
  9
$TRACEWID
 40
1.0
  9
$TEXTSTYLE
  7
YOKO
  9
$CLAYER
  8
240
  9
$CELTYPE
  6
BYLAYER
  9
$CECOLOR
 62
   256
  9
$DIMSCALE
 40
1.0
  9
$DIMASZ
 40
2.2299999999999991
  9
$DIMEXO
 40
0.5
  9
$DIMDLI
 40
7.0
  9
$DIMRND
 40
0.0
  9
$DIMDLE
 40
0.0
  9
$DIMEXE
 40
1.0
  9
$DIMTP
 40
0.0
  9
$DIMTM
 40
0.01
  9
$DIMTXT
 40
2.7999999999999989
  9
$DIMCEN
 40
0.0
  9
$DIMTSZ
 40
0.0
  9
$DIMTOL
 70
     0
  9
$DIMLIM
 70
     0
  9
$DIMTIH
 70
     0
  9
$DIMTOH
 70
     0
  9
$DIMSE1
 70
     0
  9
$DIMSE2
 70
     0
  9
$DIMTAD
 70
     3
  9
$DIMZIN
 70
     9
  9
$DIMBLK
  1
OPEN
  9
$DIMASO
 70
     1
  9
$DIMSHO
 70
     1
  9
$DIMPOST
  1

  9
$DIMAPOST
  1

  9
$DIMALT
 70
     0
  9
$DIMALTD
 70
     2
  9
$DIMALTF
 40
25.399999999999999
  9
$DIMLFAC
 40
1.0
  9
$DIMTOFL
 70
     1
  9
$DIMTVP
 40
0.0
  9
$DIMTIX
 70
     1
  9
$DIMSOXD
 70
     0
  9
$DIMSAH
 70
     0
  9
$DIMBLK1
  1

  9
$DIMBLK2
  1

  9
$DIMSTYLE
  2
BIGT
  9
$DIMCLRD
 70
   256
  9
$DIMCLRE
 70
   256
  9
$DIMCLRT
 70
    40
  9
$DIMTFAC
 40
1.0
  9
$DIMGAP
 40
1.0
  9
$LUNITS
 70
     2
  9
$LUPREC
 70
     6
  9
$SKETCHINC
 40
1.0
  9
$FILLETRAD
 40
3.0
  9
$AUNITS
 70
     0
  9
$AUPREC
 70
     6
  9
$MENU
  1
.
  9
$ELEVATION
 40
0.0
  9
$PELEVATION
 40
0.0
  9
$THICKNESS
 40
0.0
  9
$LIMCHECK
 70
     0
  9
$BLIPMODE
 70
     0
  9
$CHAMFERA
 40
0.2
  9
$CHAMFERB
 40
0.2
  9
$SKPOLY
 70
     0
  9
$TDCREATE
 40
2459769.6156388661
  9
$TDUPDATE
 40
2459769.6421100111
  9
$TDINDWG
 40
0.0261423032
  9
$TDUSRTIMER
 40
0.0261422338
  9
$USRTIMER
 70
     1
  9
$ANGBASE
 50
0.0
  9
$ANGDIR
 70
     0
  9
$PDMODE
 70
     1
  9
$PDSIZE
 40
0.0
  9
$PLINEWID
 40
0.0
  9
$COORDS
 70
     1
  9
$SPLFRAME
 70
     0
  9
$SPLINETYPE
 70
     6
  9
$SPLINESEGS
 70
     4
  9
$ATTDIA
 70
     1
  9
$ATTREQ
 70
     1
  9
$HANDLING
 70
     1
  9
$HANDSEED
  5
5C3D
  9
$SURFTAB1
 70
     6
  9
$SURFTAB2
 70
     6
  9
$SURFTYPE
 70
     6
  9
$SURFU
 70
     6
  9
$SURFV
 70
     6
  9
$UCSNAME
  2

  9
$UCSORG
 10
0.0
 20
0.0
 30
0.0
  9
$UCSXDIR
 10
1.0
 20
0.0
 30
0.0
  9
$UCSYDIR
 10
0.0
 20
1.0
 30
0.0
  9
$PUCSNAME
  2

  9
$PUCSORG
 10
0.0
 20
0.0
 30
0.0
  9
$PUCSXDIR
 10
1.0
 20
0.0
 30
0.0
  9
$PUCSYDIR
 10
0.0
 20
1.0
 30
0.0
  9
$USERI1
 70
     1
  9
$USERI2
 70
     0
  9
$USERI3
 70
     0
  9
$USERI4
 70
     0
  9
$USERI5
 70
     0
  9
$USERR1
 40
0.0
  9
$USERR2
 40
0.0
  9
$USERR3
 40
0.0
  9
$USERR4
 40
0.0
  9
$USERR5
 40
0.0
  9
$WORLDVIEW
 70
     1
  9
$SHADEDGE
 70
     3
  9
$SHADEDIF
 70
    70
  9
$TILEMODE
 70
     1
  9
$MAXACTVP
 70
    16
  9
$PLIMCHECK
 70
     0
  9
$PEXTMIN
 10
1.0000000000000000E+020
 20
1.0000000000000000E+020
 30
1.0000000000000000E+020
  9
$PEXTMAX
 10
-1.0000000000000000E+020
 20
-1.0000000000000000E+020
 30
-1.0000000000000000E+020
  9
$PLIMMIN
 10
0.0
 20
0.0
  9
$PLIMMAX
 10
420.0
 20
297.0
  9
$UNITMODE
 70
     0
  9
$VISRETAIN
 70
     1
  9
$PLINEGEN
 70
     0
  9
$PSLTSCALE
 70
     1
  0
ENDSEC
  0
SECTION
  2
TABLES
  0
TABLE
  2
VPORT
 70
     1
  0
VPORT
  2
*ACTIVE
 70
     0
 10
0.0
 20
0.0
 11
1.0
 21
1.0
 12
45.499141548851149
 22
2.522695320306382
 13
0.0
 23
0.0
 14
7.0
 24
7.0
 15
7.0
 25
7.0
 16
0.0
 26
0.0
 36
1.0
 17
0.0
 27
0.0
 37
0.0
 40
133.60487926847159
 41
1.954716981132075
 42
50.0
 43
0.0
 44
0.0
 50
0.0
 51
0.0
 71
     0
 72
  2000
 73
     1
 74
     0
 75
     0
 76
     1
 77
     0
 78
     0
  0
ENDTAB
  0
TABLE
  2
LTYPE
 70
    16
  0
LTYPE
  2
CONTINUOUS
 70
     0
  3
Solid line
 72
    65
 73
     0
 40
0.0
  0
LTYPE
  2
CENTER2
 70
     0
  3
___ _ ___ _ ___ _ ___ _ ___ _ ___ _ ___ _ ___ _
 72
    65
 73
     4
 40
1.125
 49
0.75
 49
-0.125
 49
0.125
 49
-0.125
  0
LTYPE
  2
HIDDEN2
 70
     0
  3
_ _ _ _ _ _ _ _ _ _ _ _ _ _ _ _ _ _ _ _ _ _ _ _
 72
    65
 73
     2
 40
0.1875
 49
0.125
 49
-0.0625
  0
LTYPE
  2
PHANTOM2
 70
     0
  3
___ _ _ ___ _ _ ___ _ _ ___ _ _ ___ _ _ ___ _ _
 72
    65
 73
     6
 40
1.25
 49
0.625
 49
-0.125
 49
0.125
 49
-0.125
 49
0.125
 49
-0.125
  0
LTYPE
  2
AM_ISO02W050
 70
     0
  3
__ __ __ __ __ __ __ __ __ __ __ __ __ __ __
 72
    65
 73
     2
 40
7.5
 49
6.0
 49
-1.5
  0
LTYPE
  2
AMCONSTR
 70
     0
  3
_______________________
 72
    65
 73
     2
 40
9999.0
 49
9999.0
 49
0.0
  0
LTYPE
  2
ACISOWELD
 70
     0
  3
_ _ _ _ _
 72
    65
 73
     2
 40
2.0
 49
2.0
 49
-1.0
  0
LTYPE
  2
ACISOTGB
 70
     0
  3
__ . . __ . .
 72
    65
 73
     6
 40
9.0
 49
4.0
 49
-1.0
 49
1.0
 49
-1.0
 49
1.0
 49
-1.0
  0
LTYPE
  2
ACISOTGL
 70
     0
  3
_ _ _ _ _
 72
    65
 73
     2
 40
3.0
 49
2.0
 49
-1.0
  0
LTYPE
  2
ACJISTGB
 70
     0
  3
__ . . __ . .
 72
    65
 73
     6
 40
9.0
 49
4.0
 49
-1.0
 49
1.0
 49
-1.0
 49
1.0
 49
-1.0
  0
LTYPE
  2
ACJISTGL
 70
     0
  3
_ _ _ _ _
 72
    65
 73
     2
 40
3.0
 49
2.0
 49
-1.0
  0
ENDTAB
  0
TABLE
  2
LAYER
 70
     8
  0
LAYER
  2
0
 70
     0
 62
     7
  6
CONTINUOUS
  0
LAYER
  2
DEFPOINTS
 70
     0
 62
     7
  6
CONTINUOUS
  0
LAYER
  2
245
 70
     0
 62
     2
  6
CENTER2
  0
LAYER
  2
240
 70
     0
 62
     4
  6
CONTINUOUS
  0
LAYER
  2
241
 70
     0
 62
   211
  6
CONTINUOUS
  0
LAYER
  2
242
 70
     0
 62
     3
  6
CONTINUOUS
  0
LAYER
  2
247
 70
     0
 62
    60
  6
CONTINUOUS
  0
LAYER
  2
250
 70
     0
 62
     3
  6
CONTINUOUS
  0
ENDTAB
  0
TABLE
  2
STYLE
 70
     7
  0
STYLE
  2
STANDARD
 70
     0
 40
0.0
 41
1.0
 50
0.0
 71
     0
 42
3.0
  3
romans.shx
  4
extfont.shx
  0
STYLE
  2
ACISOTS
 70
     0
 40
1.0
 41
1.0
 50
0.0
 71
     0
 42
3.0
  3
amgdt.shx
  4
extfont.shx
  0
STYLE
  2
ACISOGDT
 70
     0
 40
0.0
 41
1.0
 50
0.0
 71
     0
 42
3.0
  3
amgdt.shx
  4
extfont.shx
  0
STYLE
  2
ACJISTS
 70
     0
 40
1.0
 41
1.0
 50
0.0
 71
     0
 42
3.0
  3
amgdt.shx
  4
extfont.shx
  0
STYLE
  2
ACJISGDT
 70
     0
 40
0.0
 41
1.0
 50
0.0
 71
     0
 42
3.0
  3
amgdt.shx
  4
extfont.shx
  0
STYLE
  2
YOKO
 70
     0
 40
0.0
 41
1.0
 50
0.0
 71
     0
 42
3.0
  3
romans.shx
  4
extfont.shx
  0
ENDTAB
  0
TABLE
  2
VIEW
 70
     0
  0
ENDTAB
  0
TABLE
  2
UCS
 70
     0
  0
ENDTAB
  0
TABLE
  2
APPID
 70
    40
  0
APPID
  2
ACAD
 70
     0
  0
APPID
  2
GLOBAL
 70
     0
  0
APPID
  2
DETAIL
 70
     0
  0
APPID
  2
GRPNAME
 70
     0
  0
APPID
  2
GPARA
 70
     0
  0
APPID
  2
MCAD_NO_VIS
 70
     0
  0
APPID
  2
ACAD_TEMP_GRAPHIC
 70
     0
  0
APPID
  2
ACATTRIBSERVICES
 70
     0
  0
APPID
  2
GENIUS_GENSCREG_15
 70
     0
  0
APPID
  2
GENIUS_GENODEF_13
 70
     0
  0
APPID
  2
GENIUS_GENOBJ-N-SDF_13
 70
     0
  0
APPID
  2
GENIUS_GENREC_14
 70
     0
  0
APPID
  2
GENIUS_GENOBJ-N-REC_13
 70
     0
  0
APPID
  2
GENIUS_GENDIMSH_14
 70
     0
  0
APPID
  2
GENIUS_GENOBJ-N-DIM_13
 70
     0
  0
APPID
  2
GENIUS_GENDIM_13
 70
     0
  0
APPID
  2
GENIUS_GENDTOL_13
 70
     0
  0
APPID
  2
GENIUS_GENOLIS_13
 70
     0
  0
APPID
  2
GENIUS_GENOENT_13
 70
     0
  0
APPID
  2
GENIUS_GENOBJ-F-FEM_13
 70
     0
  0
APPID
  2
GENIUS_GENOREF_13
 70
     0
  0
APPID
  2
GENIUS_GEFFEM_13
 70
     0
  0
APPID
  2
GENIUS_GEFFEMP_13
 70
     0
  0
APPID
  2
AD_DRAW
 70
     0
  0
APPID
  2
DESIGNERASSEMBLIES
 70
     0
  0
APPID
  2
ACADM_DIM_EDIT
 70
     0
  0
APPID
  2
AMDT_DM_ADJ
 70
     0
  0
APPID
  2
ITEMNAME
 70
     0
  0
APPID
  2
GENIUS_GENOBJ-N-FIL_13
 70
     0
  0
APPID
  2
GENIUS_GENFIL_13
 70
     0
  0
APPID
  2
GENIUS_GENOBJ-N-CHA_13
 70
     0
  0
APPID
  2
ACAD_NAV_VCDISPLAY
 70
     0
  0
APPID
  2
LAYER_SCALE
 70
     0
  0
APPID
  2
ACAD_PSEXT
 70
     0
  0
APPID
  2
ACAD_DSTYLE_DIMRADIAL_EXTENSION
 70
     0
  0
APPID
  2
ACAD_DSTYLE_DIMINSPECT
 70
     0
  0
APPID
  2
ACAD_DSTYLE_DIMANGULAR_EXT
 70
     0
  0
APPID
  2
ACAECLAYERSTANDARD
 70
     0
  0
APPID
  2
ACAD_EXEMPT_FROM_CAD_STANDARDS
 70
     0
  0
APPID
  2
ACAD_MLEADERVER
 70
     0
  0
ENDTAB
  0
TABLE
  2
DIMSTYLE
 70
    30
  0
DIMSTYLE
  2
BIGT
 70
     0
  3

  4

  5
OPEN
  6

  7

 40
1.0
 41
2.2299999999999991
 42
0.5
 43
7.0
 44
1.0
 45
0.0
 46
0.0
 47
0.0
 48
0.01
140
2.7999999999999989
141
0.0
142
0.0
143
25.399999999999999
144
1.0
145
0.0
146
1.0
147
1.0
 71
     0
 72
     0
 73
     0
 74
     0
 75
     0
 76
     0
 77
     3
 78
     9
170
     0
171
     2
172
     1
173
     0
174
     1
175
     0
176
   256
177
   256
178
    40
  0
DIMSTYLE
  2
AM_ISO
 70
     0
  3

  4
"
  5

  6

  7

 40
1.0
 41
2.5
 42
1.0
 43
10.0
 44
1.0
 45
0.0
 46
0.0
 47
0.1
 48
0.1
140
3.5
141
0.0
142
0.0
143
0.0393701
144
1.0
145
0.0
146
0.71
147
1.5
 71
     0
 72
     0
 73
     0
 74
     0
 75
     0
 76
     0
 77
     1
 78
     8
170
     0
171
     2
172
     1
173
     0
174
     0
175
     0
176
   256
177
   256
178
     2
  0
DIMSTYLE
  2
AM_ISO$3
 70
     0
  3

  4
"
  5

  6

  7

 40
1.0
 41
2.5
 42
1.0
 43
10.0
 44
1.0
 45
0.0
 46
0.0
 47
0.1
 48
0.1
140
3.5
141
0.0
142
0.0
143
0.0393701
144
1.0
145
0.0
146
0.71
147
1.5
 71
     0
 72
     0
 73
     0
 74
     1
 75
     0
 76
     0
 77
     1
 78
     8
170
     0
171
     2
172
     0
173
     0
174
     0
175
     0
176
   256
177
   256
178
     2
  0
DIMSTYLE
  2
AM_ISO$4
 70
     0
  3

  4
"
  5

  6

  7

 40
1.0
 41
2.5
 42
1.0
 43
10.0
 44
1.0
 45
0.0
 46
0.0
 47
0.1
 48
0.1
140
3.5
141
0.0
142
0.0
143
0.0393701
144
1.0
145
0.0
146
0.71
147
1.5
 71
     0
 72
     0
 73
     0
 74
     1
 75
     0
 76
     0
 77
     1
 78
     8
170
     0
171
     2
172
     0
173
     0
174
     0
175
     0
176
   256
177
   256
178
     2
  0
DIMSTYLE
  2
AM_ISO$6
 70
     0
  3

  4
"
  5

  6

  7

 40
1.0
 41
2.5
 42
1.0
 43
10.0
 44
1.0
 45
0.0
 46
0.0
 47
0.1
 48
0.1
140
3.5
141
0.0
142
0.0
143
0.0393701
144
1.0
145
0.0
146
0.71
147
1.5
 71
     0
 72
     0
 73
     0
 74
     0
 75
     0
 76
     0
 77
     0
 78
     8
170
     0
171
     2
172
     1
173
     0
174
     0
175
     0
176
   256
177
   256
178
     2
  0
DIMSTYLE
  2
AM_ISO$7
 70
     0
  3

  4
"
  5

  6

  7

 40
1.0
 41
2.5
 42
1.0
 43
10.0
 44
1.0
 45
0.0
 46
0.0
 47
0.1
 48
0.1
140
5.0
141
0.0
142
0.0
143
0.0393701
144
1.0
145
0.0
146
0.71
147
1.5
 71
     0
 72
     0
 73
     0
 74
     0
 75
     0
 76
     0
 77
     1
 78
     8
170
     0
171
     2
172
     1
173
     0
174
     0
175
     0
176
   256
177
   256
178
     2
  0
DIMSTYLE
  2
AM_ISO$SF
 70
     0
  3

  4
"
  5

  6

  7

 40
1.0
 41
2.5
 42
1.0
 43
10.0
 44
1.0
 45
0.0
 46
0.0
 47
0.1
 48
0.1
140
3.5
141
0.0
142
0.0
143
0.0393701
144
1.0
145
0.0
146
0.71
147
1.5
 71
     0
 72
     0
 73
     0
 74
     0
 75
     1
 76
     1
 77
     1
 78
     8
170
     0
171
     2
172
     1
173
     0
174
     0
175
     0
176
   256
177
   256
178
     2
  0
DIMSTYLE
  2
AM_ISO$SH
 70
     0
  3

  4
"
  5

  6
GENAXEH
  7

 40
1.0
 41
2.5
 42
1.0
 43
10.0
 44
1.0
 45
0.0
 46
0.0
 47
0.1
 48
0.1
140
3.5
141
0.0
142
0.0
143
0.0393701
144
2.0
145
0.0
146
0.71
147
1.5
 71
     0
 72
     0
 73
     0
 74
     0
 75
     1
 76
     1
 77
     1
 78
     8
170
     0
171
     2
172
     1
173
     1
174
     0
175
     0
176
   256
177
   256
178
     2
  0
DIMSTYLE
  2
BIGT$2
 70
     0
  3

  4

  5
OPEN
  6

  7

 40
1.0
 41
2.2299999999999991
 42
0.5
 43
7.0
 44
1.0
 45
0.0
 46
0.0
 47
0.0
 48
0.01
140
2.7999999999999989
141
0.0
142
0.0
143
25.399999999999999
144
1.0
145
0.0
146
1.0
147
1.0
 71
     0
 72
     0
 73
     0
 74
     0
 75
     0
 76
     0
 77
     3
 78
     9
170
     0
171
     2
172
     1
173
     0
174
     0
175
     0
176
   256
177
   256
178
    40
  0
DIMSTYLE
  2
BIGT$3
 70
     0
  3

  4

  5
OPEN
  6

  7

 40
1.0
 41
2.2299999999999991
 42
0.5
 43
2.5
 44
1.0
 45
0.0
 46
0.0
 47
0.0
 48
0.01
140
2.7999999999999989
141
0.0
142
0.0
143
25.399999999999999
144
1.0
145
0.0
146
1.0
147
1.0
 71
     0
 72
     0
 73
     0
 74
     0
 75
     0
 76
     0
 77
     3
 78
     9
170
     0
171
     2
172
     1
173
     0
174
     0
175
     0
176
   256
177
   256
178
    40
  0
DIMSTYLE
  2
BIGT$7
 70
     0
  3

  4

  5
OPEN
  6

  7

 40
0.0
 41
2.2299999999999991
 42
0.5
 43
7.0
 44
1.0
 45
0.0
 46
0.0
 47
0.0
 48
0.01
140
2.7999999999999989
141
0.0
142
0.0
143
25.399999999999999
144
1.0
145
0.0
146
1.0
147
1.0
 71
     0
 72
     0
 73
     0
 74
     0
 75
     0
 76
     0
 77
     3
 78
     9
170
     0
171
     2
172
     0
173
     0
174
     0
175
     0
176
   256
177
   256
178
    40
  0
DIMSTYLE
  2
BIGT$6
 70
     0
  3

  4

  5
OPEN
  6

  7

 40
1.0
 41
2.2299999999999991
 42
0.5
 43
2.5
 44
1.0
 45
0.0
 46
0.0
 47
0.0
 48
0.01
140
2.7999999999999989
141
0.0
142
0.0
143
25.399999999999999
144
1.0
145
0.0
146
1.0
147
1.0
 71
     0
 72
     0
 73
     0
 74
     0
 75
     0
 76
     0
 77
     3
 78
     9
170
     0
171
     2
172
     1
173
     0
174
     0
175
     0
176
   256
177
   256
178
    40
  0
DIMSTYLE
  2
BIGT$0
 70
     0
  3

  4

  5
OPEN
  6

  7

 40
1.0
 41
2.2299999999999991
 42
0.5
 43
7.0
 44
1.0
 45
0.0
 46
0.0
 47
0.0
 48
0.01
140
2.7999999999999989
141
0.0
142
0.0
143
25.399999999999999
144
1.0
145
0.0
146
1.0
147
1.0
 71
     0
 72
     0
 73
     0
 74
     0
 75
     0
 76
     0
 77
     3
 78
     9
170
     0
171
     2
172
     1
173
     0
174
     1
175
     0
176
   256
177
   256
178
    40
  0
DIMSTYLE
  2
BIGT$4
 70
     0
  3

  4

  5
OPEN
  6

  7

 40
1.0
 41
2.2299999999999991
 42
0.5
 43
2.5
 44
1.0
 45
0.0
 46
0.0
 47
0.0
 48
0.01
140
2.7999999999999989
141
0.0
142
0.0
143
25.399999999999999
144
1.0
145
0.0
146
1.0
147
1.0
 71
     0
 72
     0
 73
     0
 74
     0
 75
     0
 76
     0
 77
     3
 78
     9
170
     0
171
     2
172
     1
173
     0
174
     0
175
     0
176
   256
177
   256
178
    40
  0
DIMSTYLE
  2
BIGT$SH
 70
     0
  3

  4

  5
OPEN
  6

  7

 40
1.0
 41
2.2299999999999991
 42
0.5
 43
7.0
 44
1.0
 45
0.0
 46
0.0
 47
0.0
 48
0.0
140
2.7999999999999989
141
0.0
142
0.0
143
25.399999999999999
144
1.0
145
0.0
146
1.0
147
1.0
 71
     0
 72
     0
 73
     0
 74
     0
 75
     0
 76
     0
 77
     3
 78
     9
170
     0
171
     2
172
     1
173
     0
174
     0
175
     0
176
   256
177
   256
178
    40
  0
DIMSTYLE
  2
BIGT$SF
 70
     0
  3

  4

  5
OPEN
  6

  7

 40
1.0
 41
2.2299999999999991
 42
0.5
 43
7.0
 44
1.0
 45
0.0
 46
0.0
 47
0.0
 48
0.0
140
2.7999999999999989
141
0.0
142
0.0
143
25.399999999999999
144
1.0
145
0.0
146
1.0
147
1.0
 71
     0
 72
     0
 73
     0
 74
     0
 75
     0
 76
     0
 77
     3
 78
     9
170
     0
171
     2
172
     1
173
     0
174
     0
175
     0
176
   256
177
   256
178
    40
  0
DIMSTYLE
  2
TECHNICAL_OSAKA
 70
     0
  3

  4
"
  5
OPEN30
  6

  7

 40
1.0
 41
2.5
 42
1.0
 43
10.0
 44
1.0
 45
0.0
 46
0.0
 47
0.1
 48
0.1
140
2.7999999999999989
141
0.0
142
0.0
143
0.0393701
144
1.0
145
0.0
146
0.71
147
1.5
 71
     0
 72
     0
 73
     0
 74
     0
 75
     0
 76
     0
 77
     3
 78
     8
170
     0
171
     2
172
     1
173
     0
174
     0
175
     0
176
   256
177
   256
178
    40
  0
DIMSTYLE
  2
TECHNICAL_OSAKA$3
 70
     0
  3

  4
"
  5
OPEN30
  6

  7

 40
1.0
 41
2.5
 42
1.0
 43
10.0
 44
1.0
 45
0.0
 46
0.0
 47
0.1
 48
0.1
140
2.7999999999999989
141
0.0
142
0.0
143
0.0393701
144
1.0
145
0.0
146
0.71
147
1.5
 71
     0
 72
     0
 73
     0
 74
     1
 75
     0
 76
     0
 77
     3
 78
     8
170
     0
171
     2
172
     0
173
     0
174
     0
175
     0
176
   256
177
   256
178
    40
  0
DIMSTYLE
  2
TECHNICAL_OSAKA$4
 70
     0
  3

  4
"
  5
OPEN30
  6

  7

 40
1.0
 41
2.5
 42
1.0
 43
10.0
 44
1.0
 45
0.0
 46
0.0
 47
0.1
 48
0.1
140
2.7999999999999989
141
0.0
142
0.0
143
0.0393701
144
1.0
145
0.0
146
0.71
147
1.5
 71
     0
 72
     0
 73
     0
 74
     1
 75
     0
 76
     0
 77
     3
 78
     8
170
     0
171
     2
172
     0
173
     0
174
     0
175
     0
176
   256
177
   256
178
    40
  0
DIMSTYLE
  2
TECHNICAL_OSAKA$6
 70
     0
  3

  4
"
  5
OPEN30
  6

  7

 40
1.0
 41
2.5
 42
1.0
 43
10.0
 44
1.0
 45
0.0
 46
0.0
 47
0.1
 48
0.1
140
2.7999999999999989
141
0.0
142
0.0
143
0.0393701
144
1.0
145
0.0
146
0.71
147
1.5
 71
     0
 72
     0
 73
     0
 74
     0
 75
     0
 76
     0
 77
     0
 78
     8
170
     0
171
     2
172
     1
173
     0
174
     0
175
     0
176
   256
177
   256
178
    40
  0
DIMSTYLE
  2
TECHNICAL_OSAKA$7
 70
     0
  3

  4
"
  5
OPEN30
  6

  7

 40
1.0
 41
2.5
 42
1.0
 43
10.0
 44
1.0
 45
0.0
 46
0.0
 47
0.1
 48
0.1
140
2.7999999999999989
141
0.0
142
0.0
143
0.0393701
144
1.0
145
0.0
146
0.71
147
1.5
 71
     0
 72
     0
 73
     0
 74
     0
 75
     0
 76
     0
 77
     3
 78
     8
170
     0
171
     2
172
     1
173
     0
174
     0
175
     0
176
   256
177
   256
178
    40
  0
DIMSTYLE
  2
TECHNICAL_OSAKA$SF
 70
     0
  3

  4
"
  5
OPEN30
  6
OPEN30
  7
OPEN30
 40
1.0
 41
2.5
 42
1.0
 43
10.0
 44
1.0
 45
0.0
 46
0.0
 47
0.1
 48
0.1
140
3.5
141
0.0
142
0.0
143
0.0393701
144
1.0
145
0.0
146
0.71
147
1.5
 71
     0
 72
     0
 73
     0
 74
     0
 75
     1
 76
     1
 77
     3
 78
     8
170
     0
171
     2
172
     1
173
     0
174
     0
175
     0
176
   256
177
   256
178
    40
  0
DIMSTYLE
  2
TECHNICAL_OSAKA$SH
 70
     0
  3

  4
"
  5
OPEN30
  6
GENAXEH
  7
OPEN30
 40
1.0
 41
2.5
 42
1.0
 43
10.0
 44
1.0
 45
0.0
 46
0.0
 47
0.1
 48
0.1
140
3.5
141
0.0
142
0.0
143
0.0393701
144
2.0
145
0.0
146
0.71
147
1.5
 71
     0
 72
     0
 73
     0
 74
     0
 75
     1
 76
     1
 77
     3
 78
     8
170
     0
171
     2
172
     1
173
     1
174
     0
175
     0
176
   256
177
   256
178
    40
  0
DIMSTYLE
  2
STANDARD
 70
     0
  3

  4

  5

  6

  7

 40
1.0
 41
0.18
 42
0.0625
 43
0.38
 44
0.18
 45
0.0
 46
0.0
 47
0.0
 48
0.0
140
0.18
141
0.09
142
0.0
143
25.399999999999999
144
1.0
145
0.0
146
1.0
147
0.09
 71
     0
 72
     0
 73
     1
 74
     1
 75
     0
 76
     0
 77
     0
 78
     0
170
     0
171
     2
172
     0
173
     0
174
     0
175
     0
176
     0
177
     0
178
     0
  0
ENDTAB
  0
ENDSEC
  0
SECTION
  2
BLOCKS
  0
BLOCK
  8
0
  2
$MODEL_SPACE
 70
     0
 10
0.0
 20
0.0
 30
0.0
  3
$MODEL_SPACE
  1

  0
ENDBLK
  5
1C
  8
0
  0
BLOCK
 67
     1
  8
0
  2
$PAPER_SPACE
 70
     0
 10
0.0
 20
0.0
 30
0.0
  3
$PAPER_SPACE
  1

  0
ENDBLK
  5
19
 67
     1
  8
0
  0
BLOCK
  8
0
  2
_OPEN
 70
     0
 10
0.0
 20
0.0
 30
0.0
  3
_OPEN
  1

  0
LINE
  5
5B44
  8
0
  6
BYBLOCK
 62
     0
 10
-1.0
 20
0.1666666666666666
 30
0.0
 11
0.0
 21
0.0
 31
0.0
  0
LINE
  5
5B45
  8
0
  6
BYBLOCK
 62
     0
 10
-1.0
 20
-0.1666666666666666
 30
0.0
 11
0.0
 21
0.0
 31
0.0
  0
LINE
  5
5B46
  8
0
  6
BYBLOCK
 62
     0
 10
0.0
 20
0.0
 30
0.0
 11
-1.0
 21
0.0
 31
0.0
  0
ENDBLK
  5
5B47
  8
0
  0
BLOCK
  8
0
  2
GENAXEH
 70
     0
 10
0.0
 20
0.0
 30
0.0
  3
GENAXEH
  1

  0
LINE
  5
5B7F
  8
0
 10
-1.0
 20
0.0
 30
0.0
 11
1.0
 21
0.0
 31
0.0
  0
ENDBLK
  5
5B80
  8
0
  0
BLOCK
  8
0
  2
_OPEN30
 70
     0
 10
0.0
 20
0.0
 30
0.0
  3
_OPEN30
  1

  0
LINE
  5
5BBB
  8
0
  6
BYBLOCK
 62
     0
 10
-1.0
 20
0.26794919
 30
0.0
 11
0.0
 21
0.0
 31
0.0
  0
LINE
  5
5BBC
  8
0
  6
BYBLOCK
 62
     0
 10
0.0
 20
0.0
 30
0.0
 11
-1.0
 21
-0.26794919
 31
0.0
  0
LINE
  5
5BBD
  8
0
  6
BYBLOCK
 62
     0
 10
0.0
 20
0.0
 30
0.0
 11
-1.0
 21
0.0
 31
0.0
  0
ENDBLK
  5
5BBE
  8
0
  0
ENDSEC
  0
SECTION
  2
ENTITIES
  0
LINE
  5
42DF
  8
240
  6
CONTINUOUS
 10
0.0
 20
20.0
 30
0.0
 11
0.0
 21
-20.0
 31
0.0
  0
LINE
  5
42E0
  8
241
  6
CONTINUOUS
 10
42.11081457865032
 20
16.817054437753821
 30
0.0
 11
42.11081457865032
 21
6.5000000026547289
 31
0.0
  0
ARC
  5
42F4
  8
240
  6
CONTINUOUS
 10
58.530007080169412
 20
6.7205720319955731
 30
0.0
 40
1.9515227460775919
 50
62.13116506075356
 51
75.210135879976065
  0
LINE
  5
42F5
  8
240
  6
CONTINUOUS
 10
62.143362511542357
 20
7.0179526192283097
 30
0.0
 11
59.44224450624597
 21
8.4457572124684912
 31
0.0
  0
ARC
  5
42FA
  8
240
  6
CONTINUOUS
 10
71.530899045849296
 20
55.906921133133459
 30
0.0
 40
48.924013003019972
 50
233.033897848246
 51
255.19359699336539
  0
LINE
  5
42FC
  8
241
  6
CONTINUOUS
 10
56.967765264241251
 20
-4.2821441473701416
 30
0.0
 11
61.991069337037082
 21
-6.9374508071740433
 31
0.0
  0
LINE
  5
42FD
  8
240
  6
CONTINUOUS
 10
59.442244506245743
 20
-8.445757212497881
 30
0.0
 11
62.14336251154247
 21
-7.0179526192576409
 31
0.0
  0
ARC
  5
42FE
  8
240
  6
CONTINUOUS
 10
58.530007080167593
 20
-6.7205720320208107
 30
0.0
 40
1.9515227460819631
 50
284.78986412004087
 51
297.86883493923187
  0
ARC
  5
4301
  8
240
  6
CONTINUOUS
 10
71.530899045848628
 20
-55.906921133161582
 30
0.0
 40
48.924013003018658
 50
104.8064030066345
 51
126.96610215175841
  0
LINE
  5
4325
  8
245
  6
CENTER2
 10
-26.0
 20
0.0000000000000284
 30
0.0
 11
77.000000000001194
 21
-0.0000000000000853
 31
0.0
  0
LINE
  5
4399
  8
240
  6
CONTINUOUS
 10
61.991069337037047
 20
-6.9374508071740513
 30
0.0
 11
62.14336251154247
 21
-7.0179526192576409
 31
0.0
  0
LINE
  5
439A
  8
240
  6
CONTINUOUS
 10
61.991069342161637
 20
6.9374508098536261
 30
0.0
 11
62.143362511542357
 21
7.0179526192283097
 31
0.0
  0
LINE
  5
439B
  8
245
  6
CENTER2
 10
75.000000000001478
 20
2.0
 30
0.0
 11
75.000000000001023
 21
-2.0
 31
0.0
  0
LINE
  5
439F
  8
240
  6
CONTINUOUS
 10
19.566987298143911
 20
-20.0
 30
0.0
 11
19.999999999985789
 21
-19.7500000000291
 31
0.0
  0
LINE
  5
43A1
  8
240
  6
CONTINUOUS
 10
19.999999999985789
 20
-19.7500000000291
 30
0.0
 11
21.99999999998569
 21
-19.7500000000291
 31
0.0
  0
LINE
  5
43A3
  8
240
  6
CONTINUOUS
 10
21.99999999998569
 20
-19.7500000000291
 30
0.0
 11
22.433012701908471
 21
-20.00000000004675
 31
0.0
  0
LINE
  5
43A4
  8
241
  6
CONTINUOUS
 10
19.566987298143911
 20
20.0
 30
0.0
 11
19.566987298143911
 21
-20.0
 31
0.0
  0
LINE
  5
43A8
  8
240
  6
CONTINUOUS
 10
19.566987298143911
 20
20.0
 30
0.0
 11
19.999999999985679
 21
19.7500000000291
 31
0.0
  0
LINE
  5
43AA
  8
240
  6
CONTINUOUS
 10
19.999999999985679
 20
19.7500000000291
 30
0.0
 11
21.99999999998558
 21
19.7500000000291
 31
0.0
  0
LINE
  5
43AC
  8
240
  6
CONTINUOUS
 10
21.99999999998558
 20
19.7500000000291
 30
0.0
 11
22.433012701883111
 21
20.00000000003212
 31
0.0
  0
LINE
  5
43AE
  8
241
  6
CONTINUOUS
 10
22.433012701885051
 20
-20.000000000032109
 30
0.0
 11
22.433012701883111
 21
20.00000000003212
 31
0.0
  0
LINE
  5
43B7
  8
241
  6
CONTINUOUS
 10
35.499999999985732
 20
14.398730632810549
 30
0.0
 11
35.499999999985732
 21
-14.3987306328105
 31
0.0
  0
LINE
  5
43BC
  8
240
  6
CONTINUOUS
 10
22.433012701908471
 20
-20.00000000004675
 30
0.0
 11
36.384830577406412
 21
-20.00000000004675
 31
0.0
  0
LINE
  5
43BD
  8
240
  6
CONTINUOUS
 10
22.433012701884959
 20
20.000000000017511
 30
0.0
 11
36.384830577407172
 21
20.000000000017479
 31
0.0
  0
TEXT
  5
47FA
  8
241
  6
CONTINUOUS
 10
-17.0
 20
49.0
 30
0.0
 40
5.0
  1
C4-DDHNN-00075-15
  7
YOKO
 11
-17.0
 21
49.0
 31
0.0
 73
     1
  0
LINE
  5
4E3E
  8
240
  6
CONTINUOUS
 10
-24.0
 20
13.462452753759919
 30
0.0
 11
-0.0000000000000036
 21
14.06250549360146
 31
0.0
  0
LINE
  5
4E3F
  8
240
  6
CONTINUOUS
 10
-0.0000000000000036
 20
-14.062505499322411
 30
0.0
 11
-24.0
 21
-13.46245267871182
 31
0.0
  0
LINE
  5
4E40
  8
240
  6
CONTINUOUS
 10
-24.0
 20
-13.46245267871182
 30
0.0
 11
-24.0
 21
13.462452753759919
 31
0.0
  0
LINE
  5
4E41
  8
241
  6
CONTINUOUS
 10
-19.800000000000001
 20
-2.5425000000000182
 30
0.0
 11
-19.800000000000001
 21
2.5425000000000169
 31
0.0
  0
LINE
  5
4E42
  8
241
  6
CONTINUOUS
 10
-24.0
 20
-2.5425000000000182
 30
0.0
 11
-19.800000000000001
 21
-2.5425000000000182
 31
0.0
  0
LINE
  5
4E43
  8
241
  6
CONTINUOUS
 10
-24.0
 20
2.5425000000000169
 30
0.0
 11
-19.800000000000001
 21
2.5425000000000169
 31
0.0
  0
LINE
  5
4E44
  8
250
  6
CONTINUOUS
 10
-14.21116305741373
 20
-15.30479900198344
 30
0.0
 11
-12.92248792332026
 21
-13.739414860668489
 31
0.0
  0
LINE
  5
4E45
  8
250
  6
CONTINUOUS
 10
-13.63381278811733
 20
-15.638132335131839
 30
0.0
 11
-12.92248792332026
 21
-13.739414860668489
 31
0.0
  0
LINE
  5
4E46
  8
250
  6
CONTINUOUS
 10
-12.92248792332026
 20
-13.739414860668489
 30
0.0
 11
-13.92248792276553
 21
-15.47146566855764
 31
0.0
  0
LINE
  5
4E47
  8
250
  6
CONTINUOUS
 10
-13.92248792276553
 20
-15.47146566855764
 30
0.0
 11
-17.582293443320282
 21
-21.810434780668452
 31
0.0
1001
ACAD
1000
DSTYLE
1002
{
1070
     6
1000
OPEN
1070
    41
1040
2.0
1070
    42
1040
2.0
1070
    44
1040
2.0
1070
   140
1040
4.0
1070
   343
1005
0
1002
}
  0
TEXT
  5
4E48
  8
250
  6
CONTINUOUS
 10
-25.582293443320282
 20
-20.810434780668441
 30
0.0
 40
2.799999999999998
  1
C4
  7
YOKO
1001
ITEMNAME
1000
LNSP3
  0
LINE
  5
4E49
  8
250
  6
CONTINUOUS
 10
-17.582293443320282
 20
-21.810434780668452
 30
0.0
 11
-27.982293443320319
 21
-21.810434780668452
 31
0.0
1001
ITEMNAME
1000
LNSP2
  0
LINE
  5
4E4A
  8
247
  6
CONTINUOUS
 10
3.9999999999999392
 20
-8.75
 30
0.0
 11
3.999999999999996
 21
-4.1153846156699947
 31
0.0
  0
LINE
  5
4E4B
  8
247
  6
CONTINUOUS
 10
1.499999999999996
 20
-7.9548934999879739
 30
0.0
 11
3.5999999999160042
 21
-8.5570588100573541
 31
0.0
  0
LINE
  5
4E4C
  8
247
  6
CONTINUOUS
 10
2.496153846113994
 20
-7.325151403519043
 30
0.0
 11
2.496153846113994
 21
-8.2405360188670311
 31
0.0
  0
ARC
  5
4E4D
  8
247
  6
CONTINUOUS
 10
1.8847190672940961
 20
-7.0872634019468128
 30
0.0
 40
0.3876715809326743
 50
72.997889675292001
 51
172.92416621851359
  0
ARC
  5
4E4E
  8
247
  6
CONTINUOUS
 10
1.8052231310280109
 20
-7.3824775568041332
 30
0.0
 40
0.6933047965358772
 50
4.7429368522022122
 51
73.849226273266538
1001
GENIUS_GENOBJ-N-FIL_13
1002
{
1000
OWNER
1000
GEN
1002
}
1001
GENIUS_GENODEF_13
1002
{
1000
HIER
1070
     0
1002
}
1002
{
1000
MANEDIT
1070
     0
1002
}
1002
{
1000
NOSEL
1070
     0
1002
}
1002
{
1000
BEHIND
1070
     0
1002
}
1002
{
1000
OTHER
1070
     0
1002
}
1002
{
1000
REACTOR
1002
}
  0
LINE
  5
4E4F
  8
247
  6
CONTINUOUS
 10
3.5999999999160042
 20
-7.641674194709366
 30
0.0
 11
3.5999999999160042
 21
-8.5570588100573541
 31
0.0
  0
LINE
  5
4E50
  8
247
  6
CONTINUOUS
 10
1.499999999999996
 20
-7.9548934999879739
 30
0.0
 11
1.499999999999996
 21
-7.0395088846399281
 31
0.0
  0
ARC
  5
4E51
  8
247
  6
CONTINUOUS
 10
2.8874169627678681
 20
-7.3783064762668573
 30
0.0
 40
0.394857301075386
 50
65.990941652528875
 51
172.26344345906909
  0
ARC
  5
4E52
  8
247
  6
CONTINUOUS
 10
2.891200327332565
 20
-7.7124466104269231
 30
0.0
 40
0.7123241612361686
 50
5.7019851642564632
 51
77.277338436822191
1001
GENIUS_GENOBJ-N-FIL_13
1002
{
1000
OWNER
1000
GEN
1002
}
1001
GENIUS_GENODEF_13
1002
{
1000
HIER
1070
     0
1002
}
1002
{
1000
MANEDIT
1070
     0
1002
}
1002
{
1000
NOSEL
1070
     0
1002
}
1002
{
1000
BEHIND
1070
     0
1002
}
1002
{
1000
OTHER
1070
     0
1002
}
1002
{
1000
REACTOR
1002
}
  0
LINE
  5
4E53
  8
247
  6
CONTINUOUS
 10
3.5999999999160042
 20
-6.6839818870633962
 30
0.0
 11
1.499999999999996
 21
-6.0818165769939583
 31
0.0
  0
LINE
  5
4E54
  8
247
  6
CONTINUOUS
 10
1.499999999999996
 20
-4.585662730907984
 30
0.0
 11
1.499999999999996
 21
-4.9816783643035469
 31
0.0
  0
LINE
  5
4E55
  8
247
  6
CONTINUOUS
 10
3.5999999999160042
 20
-5.6087396539439851
 30
0.0
 11
3.5999999999160042
 21
-5.1779704231919359
 31
0.0
  0
ARC
  5
4E56
  8
247
  6
CONTINUOUS
 10
2.958299595083357
 20
-4.3818165770699693
 30
0.0
 40
1.576855057639547
 50
202.3594881415292
 51
254.99324854284609
  0
ARC
  5
4E57
  8
247
  6
CONTINUOUS
 10
2.0658188585381332
 20
-4.8475113661332321
 30
0.0
 40
0.6234706797009447
 50
94.994589319075374
 51
155.1663289573039
1001
GENIUS_GENOBJ-N-FIL_13
1002
{
1000
OWNER
1000
GEN
1002
}
1001
GENIUS_GENODEF_13
1002
{
1000
HIER
1070
     0
1002
}
1002
{
1000
MANEDIT
1070
     0
1002
}
1002
{
1000
NOSEL
1070
     0
1002
}
1002
{
1000
BEHIND
1070
     0
1002
}
1002
{
1000
OTHER
1070
     0
1002
}
1002
{
1000
REACTOR
1002
}
  0
ARC
  5
4E58
  8
247
  6
CONTINUOUS
 10
2.6621021219694359
 20
-5.4441839510327554
 30
0.0
 40
0.9749472149106983
 50
15.8460965557808
 51
82.325137004169065
  0
ARC
  5
4E59
  8
247
  6
CONTINUOUS
 10
2.8714704019710631
 20
-5.0352116387722381
 30
0.0
 40
0.9271945638692009
 50
249.7136016704969
 51
321.78874565641041
1001
GENIUS_GENOBJ-N-FIL_13
1002
{
1000
OWNER
1000
GEN
1002
}
1001
GENIUS_GENODEF_13
1002
{
1000
HIER
1070
     0
1002
}
1002
{
1000
MANEDIT
1070
     0
1002
}
1002
{
1000
NOSEL
1070
     0
1002
}
1002
{
1000
BEHIND
1070
     0
1002
}
1002
{
1000
OTHER
1070
     0
1002
}
1002
{
1000
REACTOR
1002
}
  0
LINE
  5
4E5A
  8
247
  6
CONTINUOUS
 10
2.79230769225597
 20
-4.9625858078159686
 30
0.0
 11
2.79230769225597
 21
-4.4779704232199711
 31
0.0
  0
ARC
  5
4E5B
  8
247
  6
CONTINUOUS
 10
2.749999999999996
 20
-8.75
 30
0.0
 40
1.25
 50
180.0
 51
0.0
  0
LINE
  5
4E5C
  8
247
  6
CONTINUOUS
 10
1.499999999999996
 20
-8.75
 30
0.0
 11
1.499999999999996
 21
-8.3038461539139803
 31
0.0
  0
ARC
  5
4E5D
  8
247
  6
CONTINUOUS
 10
2.749999999999996
 20
-4.1153846156699947
 30
0.0
 40
1.25
 50
0.0
 51
180.0
  0
LINE
  5
4E5E
  8
241
  6
CONTINUOUS
 10
6.6999999999999851
 20
5.4434495400000174
 30
0.0
 11
6.6999999999999851
 21
19.23457711999998
 31
0.0
  0
LINE
  5
4E5F
  8
241
  6
CONTINUOUS
 10
9.3000000000000078
 20
5.4434495400000174
 30
0.0
 11
9.3000000000000078
 21
19.23457711999998
 31
0.0
  0
LINE
  5
4E60
  8
241
  6
CONTINUOUS
 10
6.6999999999999851
 20
5.4434495400000174
 30
0.0
 11
9.3000000000000078
 21
5.4434495400000174
 31
0.0
  0
LINE
  5
4E61
  8
241
  6
CONTINUOUS
 10
6.6999999999999851
 20
19.23457711999998
 30
0.0
 11
9.3000000000000078
 21
19.23457711999998
 31
0.0
  0
ARC
  5
4E62
  8
241
  6
CONTINUOUS
 10
19.246864401683411
 20
12.33901333
 30
0.0
 40
14.316864401683389
 50
151.2074813466148
 51
208.7925186533852
  0
ARC
  5
4E63
  8
241
  6
CONTINUOUS
 10
-3.2468644016833572
 20
12.33901333
 30
0.0
 40
14.31686440168337
 50
331.20748134661483
 51
28.792518653385219
  0
LINE
  5
4E64
  8
241
  6
CONTINUOUS
 10
6.6999999999999851
 20
-5.4434495400000174
 30
0.0
 11
6.6999999999999851
 21
-19.23457711999998
 31
0.0
  0
LINE
  5
4E65
  8
241
  6
CONTINUOUS
 10
9.3000000000000078
 20
-5.4434495400000174
 30
0.0
 11
9.3000000000000078
 21
-19.23457711999998
 31
0.0
  0
LINE
  5
4E66
  8
241
  6
CONTINUOUS
 10
6.6999999999999851
 20
-5.4434495400000174
 30
0.0
 11
9.3000000000000078
 21
-5.4434495400000174
 31
0.0
  0
LINE
  5
4E67
  8
241
  6
CONTINUOUS
 10
6.6999999999999851
 20
-19.23457711999998
 30
0.0
 11
9.3000000000000078
 21
-19.23457711999998
 31
0.0
  0
ARC
  5
4E68
  8
241
  6
CONTINUOUS
 10
19.246864401683411
 20
-12.33901333
 30
0.0
 40
14.316864401683389
 50
151.2074813466148
 51
208.7925186533852
  0
ARC
  5
4E69
  8
241
  6
CONTINUOUS
 10
-3.2468644016833572
 20
-12.33901333
 30
0.0
 40
14.31686440168337
 50
331.20748134661483
 51
28.792518653385219
  0
ARC
  5
4E6A
  8
241
  6
CONTINUOUS
 10
-20.845185903844769
 20
-0.0000000000000003
 30
0.0
 40
2.7489488579447801
 50
292.34687274647803
 51
67.65312725352193
  0
LINE
  5
4E6B
  8
245
  6
CENTER2
 10
-48.999999999999872
 20
17.642024170851101
 30
0.0
 11
-48.999999999999879
 21
-17.642024170850959
 31
0.0
  0
LINE
  5
4E6C
  8
245
  6
CENTER2
 10
-66.642024170850931
 20
0.0000000000000708
 30
0.0
 11
-31.357975829148842
 21
0.0000000000000708
 31
0.0
  0
CIRCLE
  5
4E6D
  8
241
  6
CONTINUOUS
 10
-48.99999999999995
 20
0.0000000000000708
 30
0.0
 40
6.2999999999999821
  0
CIRCLE
  5
4E6E
  8
242
  6
CONTINUOUS
 10
-48.99999999999995
 20
0.0000000000000708
 30
0.0
 40
7.0
  0
ARC
  5
4E6F
  8
241
  6
CONTINUOUS
 10
-63.99999999999995
 20
0.0000000000000708
 30
0.0
 40
4.0
 50
303.68130686566468
 51
57.096903795047488
  0
ARC
  5
4E70
  8
241
  6
CONTINUOUS
 10
-32.189999999999863
 20
0.0000000000000708
 30
0.0
 40
4.0
 50
129.75569266280169
 51
231.35348123898601
  0
CIRCLE
  5
4E71
  8
241
  6
CONTINUOUS
 10
-48.99999999999995
 20
0.0000000000000708
 30
0.0
 40
9.0
  0
LINE
  5
514D
  8
240
  6
CONTINUOUS
 10
19.566987298143911
 20
20.0
 30
0.0
 11
0.0
 21
20.0
 31
0.0
  0
LINE
  5
514E
  8
240
  6
CONTINUOUS
 10
19.566987298143911
 20
-20.0
 30
0.0
 11
0.0
 21
-20.0
 31
0.0
  0
LINE
  5
5280
  8
240
  6
CONTINUOUS
 10
73.273070001880626
 20
1.064412999999913
 30
0.0
 11
61.991069342161637
 21
6.9374508098536261
 31
0.0
  0
LINE
  5
5281
  8
240
  6
CONTINUOUS
 10
73.273070001880626
 20
-1.0644130000000791
 30
0.0
 11
61.991069337037047
 21
-6.9374508071740513
 31
0.0
  0
LINE
  5
5282
  8
241
  6
CONTINUOUS
 10
61.991069341880618
 20
6.9374508099999144
 30
0.0
 11
56.972719178590872
 21
4.2847627732680778
 31
0.0
  0
ARC
  5
5284
  8
240
  6
CONTINUOUS
 10
72.718971671880638
 20
-0.000000000000083
 30
0.0
 40
1.1999999999999991
 50
297.49999999999977
 51
62.500000000000199
  0
TEXT
  5
5286
  8
250
  6
CONTINUOUS
 10
81.250289614083982
 20
-26.511725824885161
 30
0.0
 40
2.799999999999998
  1
DN1504
  7
YOKO
1001
ITEMNAME
1000
LNSP3
  0
LINE
  5
576E
  8
241
  6
CONTINUOUS
 10
52.222127604663271
 20
6.5000000066723018
 30
0.0
 11
37.758891098473228
 21
6.5000000009255601
 31
0.0
  0
LINE
  5
576F
  8
241
  6
CONTINUOUS
 10
36.258891096575603
 20
5.0000000038464876
 30
0.0
 11
36.258891094117502
 21
-5.0000000044541988
 31
0.0
  0
ARC
  5
5770
  8
241
  6
CONTINUOUS
 10
37.758891096063962
 20
5.0000000014372219
 30
0.0
 40
1.5
 50
89.999999999998366
 51
180.0
  0
LINE
  5
5771
  8
241
  6
CONTINUOUS
 10
37.758891094439861
 20
-6.499999996892333
 30
0.0
 11
52.211558043834017
 21
-6.4999999976279721
 31
0.0
  0
ARC
  5
5772
  8
241
  6
CONTINUOUS
 10
37.758891096849112
 20
-4.9999999974039948
 30
0.0
 40
1.5
 50
180.0
 51
269.99999999999841
  0
CIRCLE
  5
5773
  8
241
  6
CONTINUOUS
 10
44.258891095365492
 20
-0.0000000000000491
 30
0.0
 40
4.25
  0
LINE
  5
5774
  8
241
  6
CONTINUOUS
 10
43.10419055501378
 20
-2.0000000024878721
 30
0.0
 11
41.949490016942683
 21
0.0000000021283532
 31
0.0
  0
LINE
  5
5775
  8
241
  6
CONTINUOUS
 10
46.568292173788379
 20
-0.0000000021284657
 30
0.0
 11
45.413591633436617
 21
-2.0000000046163029
 31
0.0
  0
LINE
  5
5776
  8
241
  6
CONTINUOUS
 10
45.413591633436617
 20
-2.0000000046163029
 30
0.0
 11
43.10419055501378
 21
-2.0000000024878721
 31
0.0
  0
LINE
  5
5777
  8
241
  6
CONTINUOUS
 10
45.413591635717196
 20
2.0000000024877731
 30
0.0
 11
46.568292173788379
 21
-0.0000000021284657
 31
0.0
  0
LINE
  5
5778
  8
241
  6
CONTINUOUS
 10
43.104190557294331
 20
2.0000000046161901
 30
0.0
 11
45.413591635717196
 21
2.0000000024877731
 31
0.0
  0
LINE
  5
5779
  8
241
  6
CONTINUOUS
 10
41.949490016942683
 20
0.0000000021283532
 30
0.0
 11
43.104190557294331
 21
2.0000000046161901
 31
0.0
  0
LINE
  5
577A
  8
241
  6
CONTINUOUS
 10
52.211558043834017
 20
-6.4999999976279721
 30
0.0
 11
61.109291110461633
 21
-2.3509189291704531
 31
0.0
  0
LINE
  5
577D
  8
241
  6
CONTINUOUS
 10
52.222127604663271
 20
6.5000000066723018
 30
0.0
 11
61.163148620681653
 21
2.3307334319500299
 31
0.0
  0
ARC
  5
577E
  8
241
  6
CONTINUOUS
 10
60.258891095403257
 20
0.0000000006075644
 30
0.0
 40
2.5
 50
289.88662279817117
 51
68.795179404455666
  0
LINE
  5
5781
  8
241
  6
CONTINUOUS
 10
42.11081457865032
 20
-6.4999999971138456
 30
0.0
 11
42.11081457865032
 21
-16.817054437783099
 31
0.0
  0
LINE
  5
57B4
  8
240
  6
CONTINUOUS
 10
39.864459737469581
 20
18.674101434100809
 30
0.0
 11
42.110814578651748
 21
16.817054437752819
 31
0.0
  0
LINE
  5
57B5
  8
240
  6
CONTINUOUS
 10
36.384830577407172
 20
20.000000000017479
 30
0.0
 11
38.853066036030107
 21
19.223696115858889
 31
0.0
  0
ARC
  5
57B6
  8
240
  6
CONTINUOUS
 10
37.952981900026693
 20
16.36190497251614
 30
0.0
 40
3.0
 50
50.419681226775538
 51
72.540712401285575
1001
GENIUS_GENOBJ-N-FIL_13
1002
{
1000
OWNER
1000
GEN
1002
}
1001
GENIUS_GENODEF_13
1002
{
1000
HIER
1070
     0
1002
}
1002
{
1000
MANEDIT
1070
     0
1002
}
1002
{
1000
NOSEL
1070
     0
1002
}
1002
{
1000
BEHIND
1070
     0
1002
}
1002
{
1000
OTHER
1070
     0
1002
}
1002
{
1000
REACTOR
1002
}
  0
ARC
  5
57D5
  8
241
  6
CONTINUOUS
 10
40.081380595722052
 20
14.22579214705716
 30
0.0
 40
4.5846434848136317
 50
94.674777214277
 51
177.83821867261469
  0
LINE
  5
57DD
  8
240
  6
CONTINUOUS
 10
39.864459737469538
 20
-18.674101434100901
 30
0.0
 11
42.110814578651713
 21
-16.817054437752908
 31
0.0
  0
LINE
  5
57DE
  8
240
  6
CONTINUOUS
 10
36.384830577407129
 20
-20.000000000017561
 30
0.0
 11
38.853066036030071
 21
-19.223696115858971
 31
0.0
  0
ARC
  5
57DF
  8
240
  6
CONTINUOUS
 10
37.952981900026657
 20
-16.361904972516228
 30
0.0
 40
3.0
 50
287.4592875987143
 51
309.58031877322429
1001
GENIUS_GENOBJ-N-FIL_13
1002
{
1000
OWNER
1000
GEN
1002
}
1001
GENIUS_GENODEF_13
1002
{
1000
HIER
1070
     0
1002
}
1002
{
1000
MANEDIT
1070
     0
1002
}
1002
{
1000
NOSEL
1070
     0
1002
}
1002
{
1000
BEHIND
1070
     0
1002
}
1002
{
1000
OTHER
1070
     0
1002
}
1002
{
1000
REACTOR
1002
}
  0
ARC
  5
57E0
  8
241
  6
CONTINUOUS
 10
40.081380595722017
 20
-14.22579214705725
 30
0.0
 40
4.5846434848136317
 50
182.1617813273852
 51
265.32522278572281
  0
LINE
  5
57E1
  8
250
  6
CONTINUOUS
 10
36.884830577407158
 20
20.000000000017309
 30
0.0
 11
92.0
 21
20.000000000017302
 31
0.0
  0
LINE
  5
57E2
  8
250
  6
CONTINUOUS
 10
36.884830577407811
 20
-20.000000000017462
 30
0.0
 11
92.0
 21
-20.000000000017469
 31
0.0
  0
LINE
  5
57E3
  8
250
  6
CONTINUOUS
 10
91.0
 20
17.770000000017301
 30
0.0
 11
91.0
 21
-17.770000000017468
 31
0.0
  0
LINE
  5
57E7
  8
250
  6
CONTINUOUS
 10
75.000000000001478
 20
2.5
 30
0.0
 11
75.000000000001478
 21
36.0
 31
0.0
  0
LINE
  5
57E8
  8
250
  6
CONTINUOUS
 10
0.0
 20
20.5
 30
0.0
 11
0.000000000000001
 21
36.0
 31
0.0
  0
LINE
  5
57E9
  8
250
  6
CONTINUOUS
 10
72.770000000001474
 20
35.0
 30
0.0
 11
2.23
 21
35.0
 31
0.0
  0
LINE
  5
57EE
  8
250
  6
CONTINUOUS
 10
79.361693318489927
 20
-27.511725824885161
 30
0.0
 11
100.18362294741731
 21
-27.511725824885161
 31
0.0
1001
ACAD
1000
DSTYLE
1002
{
1070
    41
1040
2.0
1070
    79
1070
     2
1070
   140
1040
2.799999999999998
1070
   179
1070
     3
1070
   341
1005
0
1070
   371
1070
    -1
1070
   372
1070
    -1
1002
}
  0
LINE
  5
57F0
  8
250
  6
CONTINUOUS
 10
65.316091352573835
 20
-3.1840295970291121
 30
0.0
 11
79.361693318489927
 21
-27.511725824885161
 31
0.0
  0
LINE
  5
57F1
  8
240
  6
CONTINUOUS
 10
-42.450000000000003
 20
-11.344900000000001
 30
0.0
 11
-42.576899999999988
 21
-11.4176
 31
0.0
  0
LINE
  5
57F2
  8
240
  6
CONTINUOUS
 10
-42.576899999999988
 20
-11.4176
 30
0.0
 11
-42.7042
 21
-11.4893
 31
0.0
  0
LINE
  5
57F3
  8
240
  6
CONTINUOUS
 10
-42.7042
 20
-11.4893
 30
0.0
 11
-42.83189999999999
 21
-11.5602
 31
0.0
  0
LINE
  5
57F4
  8
240
  6
CONTINUOUS
 10
-42.83189999999999
 20
-11.5602
 30
0.0
 11
-42.960000000000008
 21
-11.6302
 31
0.0
  0
LINE
  5
57F5
  8
240
  6
CONTINUOUS
 10
-42.960000000000008
 20
-11.6302
 30
0.0
 11
-43.08850000000001
 21
-11.69929999999999
 31
0.0
  0
LINE
  5
57F6
  8
240
  6
CONTINUOUS
 10
-43.08850000000001
 20
-11.69929999999999
 30
0.0
 11
-43.217299999999987
 21
-11.7674
 31
0.0
  0
LINE
  5
57F7
  8
240
  6
CONTINUOUS
 10
-43.217299999999987
 20
-11.7674
 30
0.0
 11
-43.346599999999988
 21
-11.8347
 31
0.0
  0
LINE
  5
57F8
  8
240
  6
CONTINUOUS
 10
-43.346599999999988
 20
-11.8347
 30
0.0
 11
-43.476199999999999
 21
-11.900999999999989
 31
0.0
  0
LINE
  5
57F9
  8
240
  6
CONTINUOUS
 10
-43.476199999999999
 20
-11.900999999999989
 30
0.0
 11
-43.606099999999998
 21
-11.966499999999989
 31
0.0
  0
LINE
  5
57FA
  8
240
  6
CONTINUOUS
 10
-43.606099999999998
 20
-11.966499999999989
 30
0.0
 11
-43.736400000000003
 21
-12.031000000000001
 31
0.0
  0
LINE
  5
57FB
  8
240
  6
CONTINUOUS
 10
-43.736400000000003
 20
-12.031000000000001
 30
0.0
 11
-43.86699999999999
 21
-12.094499999999989
 31
0.0
  0
LINE
  5
57FC
  8
240
  6
CONTINUOUS
 10
-43.86699999999999
 20
-12.094499999999989
 30
0.0
 11
-43.997900000000001
 21
-12.1572
 31
0.0
  0
LINE
  5
57FD
  8
240
  6
CONTINUOUS
 10
-43.997900000000001
 20
-12.1572
 30
0.0
 11
-44.128999999999991
 21
-12.2189
 31
0.0
  0
LINE
  5
57FE
  8
240
  6
CONTINUOUS
 10
-44.128999999999991
 20
-12.2189
 30
0.0
 11
-44.2605
 21
-12.2796
 31
0.0
  0
LINE
  5
57FF
  8
240
  6
CONTINUOUS
 10
-44.2605
 20
-12.2796
 30
0.0
 11
-44.392200000000003
 21
-12.339399999999999
 31
0.0
  0
LINE
  5
5800
  8
240
  6
CONTINUOUS
 10
-44.392200000000003
 20
-12.339399999999999
 30
0.0
 11
-44.5242
 21
-12.398300000000001
 31
0.0
  0
LINE
  5
5801
  8
240
  6
CONTINUOUS
 10
-44.5242
 20
-12.398300000000001
 30
0.0
 11
-44.656399999999991
 21
-12.456200000000001
 31
0.0
  0
LINE
  5
5802
  8
240
  6
CONTINUOUS
 10
-44.656399999999991
 20
-12.456200000000001
 30
0.0
 11
-44.788899999999977
 21
-12.5131
 31
0.0
  0
LINE
  5
5803
  8
240
  6
CONTINUOUS
 10
-44.788899999999977
 20
-12.5131
 30
0.0
 11
-44.921500000000009
 21
-12.569000000000001
 31
0.0
  0
LINE
  5
5804
  8
240
  6
CONTINUOUS
 10
-44.921500000000009
 20
-12.569000000000001
 30
0.0
 11
-45.054400000000001
 21
-12.624000000000001
 31
0.0
  0
LINE
  5
5805
  8
240
  6
CONTINUOUS
 10
-45.054400000000001
 20
-12.624000000000001
 30
0.0
 11
-45.187499999999993
 21
-12.678000000000001
 31
0.0
  0
LINE
  5
5806
  8
240
  6
CONTINUOUS
 10
-45.187499999999993
 20
-12.678000000000001
 30
0.0
 11
-45.320700000000002
 21
-12.7311
 31
0.0
  0
LINE
  5
5807
  8
240
  6
CONTINUOUS
 10
-45.320700000000002
 20
-12.7311
 30
0.0
 11
-45.454099999999983
 21
-12.783099999999999
 31
0.0
  0
LINE
  5
5808
  8
240
  6
CONTINUOUS
 10
-45.454099999999983
 20
-12.783099999999999
 30
0.0
 11
-45.587699999999977
 21
-12.83419999999999
 31
0.0
  0
LINE
  5
5809
  8
240
  6
CONTINUOUS
 10
-45.587699999999977
 20
-12.83419999999999
 30
0.0
 11
-45.721400000000003
 21
-12.8842
 31
0.0
  0
LINE
  5
580A
  8
240
  6
CONTINUOUS
 10
-45.721400000000003
 20
-12.8842
 30
0.0
 11
-45.8553
 21
-12.933299999999999
 31
0.0
  0
LINE
  5
580B
  8
240
  6
CONTINUOUS
 10
-45.8553
 20
-12.933299999999999
 30
0.0
 11
-45.989199999999983
 21
-12.981299999999999
 31
0.0
  0
LINE
  5
580C
  8
240
  6
CONTINUOUS
 10
-45.989199999999983
 20
-12.981299999999999
 30
0.0
 11
-46.1233
 21
-13.0283
 31
0.0
  0
LINE
  5
580D
  8
240
  6
CONTINUOUS
 10
-46.1233
 20
-13.0283
 30
0.0
 11
-46.257499999999993
 21
-13.07439999999999
 31
0.0
  0
LINE
  5
580E
  8
240
  6
CONTINUOUS
 10
-46.257499999999993
 20
-13.07439999999999
 30
0.0
 11
-46.3917
 21
-13.119400000000001
 31
0.0
  0
LINE
  5
580F
  8
240
  6
CONTINUOUS
 10
-46.3917
 20
-13.119400000000001
 30
0.0
 11
-46.52600000000001
 21
-13.1633
 31
0.0
  0
LINE
  5
5810
  8
240
  6
CONTINUOUS
 10
-46.52600000000001
 20
-13.1633
 30
0.0
 11
-46.66040000000001
 21
-13.206300000000001
 31
0.0
  0
LINE
  5
5811
  8
240
  6
CONTINUOUS
 10
-46.66040000000001
 20
-13.206300000000001
 30
0.0
 11
-46.794800000000002
 21
-13.248200000000001
 31
0.0
  0
LINE
  5
5812
  8
240
  6
CONTINUOUS
 10
-46.794800000000002
 20
-13.248200000000001
 30
0.0
 11
-46.929299999999976
 21
-13.289
 31
0.0
  0
LINE
  5
5813
  8
240
  6
CONTINUOUS
 10
-46.929299999999976
 20
-13.289
 30
0.0
 11
-47.063699999999983
 21
-13.328900000000001
 31
0.0
  0
LINE
  5
5814
  8
240
  6
CONTINUOUS
 10
-47.063699999999983
 20
-13.328900000000001
 30
0.0
 11
-47.1982
 21
-13.367599999999991
 31
0.0
  0
LINE
  5
5815
  8
240
  6
CONTINUOUS
 10
-47.1982
 20
-13.367599999999991
 30
0.0
 11
-47.332700000000003
 21
-13.40529999999999
 31
0.0
  0
LINE
  5
5816
  8
240
  6
CONTINUOUS
 10
-47.332700000000003
 20
-13.40529999999999
 30
0.0
 11
-47.467100000000002
 21
-13.442
 31
0.0
  0
LINE
  5
5817
  8
240
  6
CONTINUOUS
 10
-47.467100000000002
 20
-13.442
 30
0.0
 11
-47.601599999999991
 21
-13.477600000000001
 31
0.0
  0
LINE
  5
5818
  8
240
  6
CONTINUOUS
 10
-47.601599999999991
 20
-13.477600000000001
 30
0.0
 11
-47.735900000000001
 21
-13.5121
 31
0.0
  0
LINE
  5
5819
  8
240
  6
CONTINUOUS
 10
-47.735900000000001
 20
-13.5121
 30
0.0
 11
-47.8703
 21
-13.5456
 31
0.0
  0
LINE
  5
581A
  8
240
  6
CONTINUOUS
 10
-47.8703
 20
-13.5456
 30
0.0
 11
-48.004500000000007
 21
-13.5779
 31
0.0
  0
LINE
  5
581B
  8
240
  6
CONTINUOUS
 10
-48.004500000000007
 20
-13.5779
 30
0.0
 11
-48.1387
 21
-13.6092
 31
0.0
  0
LINE
  5
581C
  8
240
  6
CONTINUOUS
 10
-48.1387
 20
-13.6092
 30
0.0
 11
-48.272799999999997
 21
-13.6394
 31
0.0
  0
LINE
  5
581D
  8
240
  6
CONTINUOUS
 10
-48.272799999999997
 20
-13.6394
 30
0.0
 11
-48.406799999999983
 21
-13.6685
 31
0.0
  0
LINE
  5
581E
  8
240
  6
CONTINUOUS
 10
-48.406799999999983
 20
-13.6685
 30
0.0
 11
-48.540700000000001
 21
-13.6965
 31
0.0
  0
LINE
  5
581F
  8
240
  6
CONTINUOUS
 10
-48.540700000000001
 20
-13.6965
 30
0.0
 11
-48.674400000000013
 21
-13.7234
 31
0.0
  0
LINE
  5
5820
  8
240
  6
CONTINUOUS
 10
-48.674400000000013
 20
-13.7234
 30
0.0
 11
-48.808
 21
-13.7492
 31
0.0
  0
LINE
  5
5821
  8
240
  6
CONTINUOUS
 10
-48.808
 20
-13.7492
 30
0.0
 11
-48.941400000000002
 21
-13.773899999999999
 31
0.0
  0
LINE
  5
5822
  8
240
  6
CONTINUOUS
 10
-48.941400000000002
 20
-13.773899999999999
 30
0.0
 11
-49.074699999999993
 21
-13.797499999999999
 31
0.0
  0
LINE
  5
5823
  8
240
  6
CONTINUOUS
 10
-49.074699999999993
 20
-13.797499999999999
 30
0.0
 11
-49.207799999999999
 21
-13.819900000000001
 31
0.0
  0
LINE
  5
5824
  8
240
  6
CONTINUOUS
 10
-49.207799999999999
 20
-13.819900000000001
 30
0.0
 11
-49.340699999999998
 21
-13.841200000000001
 31
0.0
  0
LINE
  5
5825
  8
240
  6
CONTINUOUS
 10
-49.340699999999998
 20
-13.841200000000001
 30
0.0
 11
-49.473399999999998
 21
-13.8614
 31
0.0
  0
LINE
  5
5826
  8
240
  6
CONTINUOUS
 10
-49.473399999999998
 20
-13.8614
 30
0.0
 11
-49.605899999999991
 21
-13.880499999999991
 31
0.0
  0
LINE
  5
5827
  8
240
  6
CONTINUOUS
 10
-49.605899999999991
 20
-13.880499999999991
 30
0.0
 11
-49.738199999999992
 21
-13.898400000000001
 31
0.0
  0
LINE
  5
5828
  8
240
  6
CONTINUOUS
 10
-49.738199999999992
 20
-13.898400000000001
 30
0.0
 11
-49.870199999999997
 21
-13.915100000000001
 31
0.0
  0
LINE
  5
5829
  8
240
  6
CONTINUOUS
 10
-49.870199999999997
 20
-13.915100000000001
 30
0.0
 11
-50.00200000000001
 21
-13.9308
 31
0.0
  0
LINE
  5
582A
  8
240
  6
CONTINUOUS
 10
-50.00200000000001
 20
-13.9308
 30
0.0
 11
-50.133499999999991
 21
-13.9452
 31
0.0
  0
LINE
  5
582B
  8
240
  6
CONTINUOUS
 10
-50.133499999999991
 20
-13.9452
 30
0.0
 11
-50.264699999999991
 21
-13.958500000000001
 31
0.0
  0
LINE
  5
582C
  8
240
  6
CONTINUOUS
 10
-50.264699999999991
 20
-13.958500000000001
 30
0.0
 11
-50.395700000000012
 21
-13.97059999999999
 31
0.0
  0
LINE
  5
582D
  8
240
  6
CONTINUOUS
 10
-50.395700000000012
 20
-13.97059999999999
 30
0.0
 11
-50.526299999999999
 21
-13.9816
 31
0.0
  0
LINE
  5
582E
  8
240
  6
CONTINUOUS
 10
-50.526299999999999
 20
-13.9816
 30
0.0
 11
-50.656700000000001
 21
-13.991400000000001
 31
0.0
  0
LINE
  5
582F
  8
240
  6
CONTINUOUS
 10
-50.656700000000001
 20
-13.991400000000001
 30
0.0
 11
-50.78670000000001
 21
-14.0
 31
0.0
  0
LINE
  5
5830
  8
240
  6
CONTINUOUS
 10
-50.78670000000001
 20
-14.0
 30
0.0
 11
-50.916300000000007
 21
-14.007400000000001
 31
0.0
  0
LINE
  5
5831
  8
240
  6
CONTINUOUS
 10
-50.916300000000007
 20
-14.007400000000001
 30
0.0
 11
-51.045600000000007
 21
-14.01359999999999
 31
0.0
  0
LINE
  5
5832
  8
240
  6
CONTINUOUS
 10
-51.045600000000007
 20
-14.01359999999999
 30
0.0
 11
-51.174599999999998
 21
-14.018700000000001
 31
0.0
  0
LINE
  5
5833
  8
240
  6
CONTINUOUS
 10
-51.174599999999998
 20
-14.018700000000001
 30
0.0
 11
-51.303200000000011
 21
-14.022500000000001
 31
0.0
  0
LINE
  5
5834
  8
240
  6
CONTINUOUS
 10
-51.303200000000011
 20
-14.022500000000001
 30
0.0
 11
-51.431300000000007
 21
-14.0251
 31
0.0
  0
LINE
  5
5835
  8
240
  6
CONTINUOUS
 10
-51.431300000000007
 20
-14.0251
 30
0.0
 11
-51.559100000000001
 21
-14.0266
 31
0.0
  0
LINE
  5
5836
  8
240
  6
CONTINUOUS
 10
-51.559100000000001
 20
-14.0266
 30
0.0
 11
-51.686500000000009
 21
-14.0268
 31
0.0
  0
LINE
  5
5837
  8
240
  6
CONTINUOUS
 10
-51.686500000000009
 20
-14.0268
 30
0.0
 11
-51.813400000000001
 21
-14.0258
 31
0.0
  0
LINE
  5
5838
  8
240
  6
CONTINUOUS
 10
-51.813400000000001
 20
-14.0258
 30
0.0
 11
-51.939900000000009
 21
-14.0235
 31
0.0
  0
LINE
  5
5839
  8
240
  6
CONTINUOUS
 10
-51.939900000000009
 20
-14.0235
 30
0.0
 11
-52.066000000000003
 21
-14.02009999999999
 31
0.0
  0
LINE
  5
583A
  8
240
  6
CONTINUOUS
 10
-52.066000000000003
 20
-14.02009999999999
 30
0.0
 11
-52.191600000000008
 21
-14.015399999999991
 31
0.0
  0
LINE
  5
583B
  8
240
  6
CONTINUOUS
 10
-52.191600000000008
 20
-14.015399999999991
 30
0.0
 11
-52.316699999999997
 21
-14.009499999999999
 31
0.0
  0
LINE
  5
583C
  8
240
  6
CONTINUOUS
 10
-52.316699999999997
 20
-14.009499999999999
 30
0.0
 11
-52.441299999999998
 21
-14.0023
 31
0.0
  0
LINE
  5
583D
  8
240
  6
CONTINUOUS
 10
-52.441299999999998
 20
-14.0023
 30
0.0
 11
-52.5655
 21
-13.993899999999989
 31
0.0
  0
LINE
  5
583E
  8
240
  6
CONTINUOUS
 10
-52.5655
 20
-13.993899999999989
 30
0.0
 11
-52.68910000000001
 21
-13.984199999999991
 31
0.0
  0
LINE
  5
583F
  8
240
  6
CONTINUOUS
 10
-52.68910000000001
 20
-13.984199999999991
 30
0.0
 11
-52.812200000000011
 21
-13.9733
 31
0.0
  0
LINE
  5
5840
  8
240
  6
CONTINUOUS
 10
-52.812200000000011
 20
-13.9733
 30
0.0
 11
-52.934700000000007
 21
-13.9611
 31
0.0
  0
LINE
  5
5841
  8
240
  6
CONTINUOUS
 10
-52.934700000000007
 20
-13.9611
 30
0.0
 11
-53.05680000000001
 21
-13.947599999999991
 31
0.0
  0
LINE
  5
5842
  8
240
  6
CONTINUOUS
 10
-53.05680000000001
 20
-13.947599999999991
 30
0.0
 11
-53.178200000000011
 21
-13.9329
 31
0.0
  0
LINE
  5
5843
  8
240
  6
CONTINUOUS
 10
-53.178200000000011
 20
-13.9329
 30
0.0
 11
-53.29910000000001
 21
-13.9169
 31
0.0
  0
LINE
  5
5844
  8
240
  6
CONTINUOUS
 10
-53.29910000000001
 20
-13.9169
 30
0.0
 11
-53.41940000000001
 21
-13.8996
 31
0.0
  0
LINE
  5
5845
  8
240
  6
CONTINUOUS
 10
-53.41940000000001
 20
-13.8996
 30
0.0
 11
-53.539099999999991
 21
-13.881
 31
0.0
  0
LINE
  5
5846
  8
240
  6
CONTINUOUS
 10
-53.539099999999991
 20
-13.881
 30
0.0
 11
-53.65809999999999
 21
-13.8612
 31
0.0
  0
LINE
  5
5847
  8
240
  6
CONTINUOUS
 10
-53.65809999999999
 20
-13.8612
 30
0.0
 11
-53.776600000000002
 21
-13.84
 31
0.0
  0
LINE
  5
5848
  8
240
  6
CONTINUOUS
 10
-53.776600000000002
 20
-13.84
 30
0.0
 11
-53.894399999999997
 21
-13.817600000000001
 31
0.0
  0
LINE
  5
5849
  8
240
  6
CONTINUOUS
 10
-53.894399999999997
 20
-13.817600000000001
 30
0.0
 11
-54.011600000000001
 21
-13.793799999999999
 31
0.0
  0
LINE
  5
584A
  8
240
  6
CONTINUOUS
 10
-54.011600000000001
 20
-13.793799999999999
 30
0.0
 11
-54.128100000000003
 21
-13.768700000000001
 31
0.0
  0
LINE
  5
584B
  8
240
  6
CONTINUOUS
 10
-54.128100000000003
 20
-13.768700000000001
 30
0.0
 11
-54.243899999999989
 21
-13.7424
 31
0.0
  0
LINE
  5
584C
  8
240
  6
CONTINUOUS
 10
-54.243899999999989
 20
-13.7424
 30
0.0
 11
-54.359099999999991
 21
-13.714600000000001
 31
0.0
  0
LINE
  5
584D
  8
240
  6
CONTINUOUS
 10
-54.359099999999991
 20
-13.714600000000001
 30
0.0
 11
-54.47359999999999
 21
-13.685600000000001
 31
0.0
  0
LINE
  5
584E
  8
240
  6
CONTINUOUS
 10
-54.47359999999999
 20
-13.685600000000001
 30
0.0
 11
-54.587299999999999
 21
-13.65529999999999
 31
0.0
  0
LINE
  5
584F
  8
240
  6
CONTINUOUS
 10
-54.587299999999999
 20
-13.65529999999999
 30
0.0
 11
-54.700299999999999
 21
-13.6236
 31
0.0
  0
LINE
  5
5850
  8
240
  6
CONTINUOUS
 10
-54.700299999999999
 20
-13.6236
 30
0.0
 11
-54.812600000000003
 21
-13.5905
 31
0.0
  0
LINE
  5
5851
  8
240
  6
CONTINUOUS
 10
-54.812600000000003
 20
-13.5905
 30
0.0
 11
-54.924199999999999
 21
-13.5562
 31
0.0
  0
LINE
  5
5852
  8
240
  6
CONTINUOUS
 10
-54.924199999999999
 20
-13.5562
 30
0.0
 11
-55.034999999999989
 21
-13.5204
 31
0.0
  0
LINE
  5
5853
  8
240
  6
CONTINUOUS
 10
-55.034999999999989
 20
-13.5204
 30
0.0
 11
-55.14500000000001
 21
-13.4834
 31
0.0
  0
LINE
  5
5854
  8
240
  6
CONTINUOUS
 10
-55.14500000000001
 20
-13.4834
 30
0.0
 11
-55.254199999999997
 21
-13.444900000000001
 31
0.0
  0
LINE
  5
5855
  8
240
  6
CONTINUOUS
 10
-55.254199999999997
 20
-13.444900000000001
 30
0.0
 11
-55.3626
 21
-13.405099999999999
 31
0.0
  0
LINE
  5
5856
  8
240
  6
CONTINUOUS
 10
-55.3626
 20
-13.405099999999999
 30
0.0
 11
-55.470300000000009
 21
-13.364000000000001
 31
0.0
  0
LINE
  5
5857
  8
240
  6
CONTINUOUS
 10
-55.470300000000009
 20
-13.364000000000001
 30
0.0
 11
-55.577100000000002
 21
-13.321400000000001
 31
0.0
  0
LINE
  5
5858
  8
240
  6
CONTINUOUS
 10
-55.577100000000002
 20
-13.321400000000001
 30
0.0
 11
-55.683
 21
-13.2775
 31
0.0
  0
LINE
  5
5859
  8
240
  6
CONTINUOUS
 10
-55.683
 20
-13.2775
 30
0.0
 11
-55.788200000000003
 21
-13.232200000000001
 31
0.0
  0
LINE
  5
585A
  8
240
  6
CONTINUOUS
 10
-55.788200000000003
 20
-13.232200000000001
 30
0.0
 11
-55.892400000000009
 21
-13.185499999999999
 31
0.0
  0
LINE
  5
585B
  8
240
  6
CONTINUOUS
 10
-55.892400000000009
 20
-13.185499999999999
 30
0.0
 11
-55.995800000000003
 21
-13.13749999999999
 31
0.0
  0
LINE
  5
585C
  8
240
  6
CONTINUOUS
 10
-55.995800000000003
 20
-13.13749999999999
 30
0.0
 11
-56.098300000000009
 21
-13.08799999999999
 31
0.0
  0
LINE
  5
585D
  8
240
  6
CONTINUOUS
 10
-56.098300000000009
 20
-13.08799999999999
 30
0.0
 11
-56.200000000000003
 21
-13.037100000000001
 31
0.0
  0
LINE
  5
585E
  8
240
  6
CONTINUOUS
 10
-56.200000000000003
 20
-13.037100000000001
 30
0.0
 11
-56.300699999999992
 21
-12.9848
 31
0.0
  0
LINE
  5
585F
  8
240
  6
CONTINUOUS
 10
-56.300699999999992
 20
-12.9848
 30
0.0
 11
-56.400500000000008
 21
-12.9312
 31
0.0
  0
LINE
  5
5860
  8
240
  6
CONTINUOUS
 10
-56.400500000000008
 20
-12.9312
 30
0.0
 11
-56.499300000000012
 21
-12.875999999999999
 31
0.0
  0
LINE
  5
5861
  8
240
  6
CONTINUOUS
 10
-56.499300000000012
 20
-12.875999999999999
 30
0.0
 11
-56.597200000000001
 21
-12.8195
 31
0.0
  0
LINE
  5
5862
  8
240
  6
CONTINUOUS
 10
-56.597200000000001
 20
-12.8195
 30
0.0
 11
-56.694200000000009
 21
-12.7616
 31
0.0
  0
LINE
  5
5863
  8
240
  6
CONTINUOUS
 10
-56.694200000000009
 20
-12.7616
 30
0.0
 11
-56.790300000000002
 21
-12.70229999999999
 31
0.0
  0
LINE
  5
5864
  8
240
  6
CONTINUOUS
 10
-56.790300000000002
 20
-12.70229999999999
 30
0.0
 11
-56.88539999999999
 21
-12.64159999999999
 31
0.0
  0
LINE
  5
5865
  8
240
  6
CONTINUOUS
 10
-56.88539999999999
 20
-12.64159999999999
 30
0.0
 11
-56.979600000000012
 21
-12.579499999999991
 31
0.0
  0
LINE
  5
5866
  8
240
  6
CONTINUOUS
 10
-56.979600000000012
 20
-12.579499999999991
 30
0.0
 11
-57.072899999999997
 21
-12.516
 31
0.0
  0
LINE
  5
5867
  8
240
  6
CONTINUOUS
 10
-57.072899999999997
 20
-12.516
 30
0.0
 11
-57.165199999999999
 21
-12.4512
 31
0.0
  0
LINE
  5
5868
  8
240
  6
CONTINUOUS
 10
-57.165199999999999
 20
-12.4512
 30
0.0
 11
-57.256600000000013
 21
-12.385099999999991
 31
0.0
  0
LINE
  5
5869
  8
240
  6
CONTINUOUS
 10
-57.256600000000013
 20
-12.385099999999991
 30
0.0
 11
-57.34709999999999
 21
-12.317600000000001
 31
0.0
  0
LINE
  5
586A
  8
240
  6
CONTINUOUS
 10
-57.34709999999999
 20
-12.317600000000001
 30
0.0
 11
-57.436700000000002
 21
-12.248699999999999
 31
0.0
  0
LINE
  5
586B
  8
240
  6
CONTINUOUS
 10
-57.436700000000002
 20
-12.248699999999999
 30
0.0
 11
-57.525300000000001
 21
-12.1785
 31
0.0
  0
LINE
  5
586C
  8
240
  6
CONTINUOUS
 10
-57.525300000000001
 20
-12.1785
 30
0.0
 11
-57.613100000000003
 21
-12.107100000000001
 31
0.0
  0
LINE
  5
586D
  8
240
  6
CONTINUOUS
 10
-57.613100000000003
 20
-12.107100000000001
 30
0.0
 11
-57.699899999999992
 21
-12.0343
 31
0.0
  0
LINE
  5
586E
  8
240
  6
CONTINUOUS
 10
-57.699899999999992
 20
-12.0343
 30
0.0
 11
-57.785800000000009
 21
-11.9602
 31
0.0
  0
LINE
  5
586F
  8
240
  6
CONTINUOUS
 10
-57.785800000000009
 20
-11.9602
 30
0.0
 11
-57.870800000000003
 21
-11.8848
 31
0.0
  0
LINE
  5
5870
  8
240
  6
CONTINUOUS
 10
-57.870800000000003
 20
-11.8848
 30
0.0
 11
-57.954900000000002
 21
-11.80819999999999
 31
0.0
  0
LINE
  5
5871
  8
240
  6
CONTINUOUS
 10
-57.954900000000002
 20
-11.80819999999999
 30
0.0
 11
-58.0381
 21
-11.730199999999989
 31
0.0
  0
LINE
  5
5872
  8
240
  6
CONTINUOUS
 10
-58.0381
 20
-11.730199999999989
 30
0.0
 11
-58.120399999999989
 21
-11.650999999999989
 31
0.0
  0
LINE
  5
5873
  8
240
  6
CONTINUOUS
 10
-58.120399999999989
 20
-11.650999999999989
 30
0.0
 11
-58.201799999999999
 21
-11.570600000000001
 31
0.0
  0
LINE
  5
5874
  8
240
  6
CONTINUOUS
 10
-58.201799999999999
 20
-11.570600000000001
 30
0.0
 11
-58.282300000000014
 21
-11.48889999999998
 31
0.0
  0
LINE
  5
5875
  8
240
  6
CONTINUOUS
 10
-58.282300000000014
 20
-11.48889999999998
 30
0.0
 11
-58.361900000000013
 21
-11.406000000000001
 31
0.0
  0
LINE
  5
5876
  8
240
  6
CONTINUOUS
 10
-58.361900000000013
 20
-11.406000000000001
 30
0.0
 11
-58.440600000000003
 21
-11.321799999999991
 31
0.0
  0
LINE
  5
5877
  8
240
  6
CONTINUOUS
 10
-58.440600000000003
 20
-11.321799999999991
 30
0.0
 11
-58.5184
 21
-11.236499999999999
 31
0.0
  0
LINE
  5
5878
  8
240
  6
CONTINUOUS
 10
-58.5184
 20
-11.236499999999999
 30
0.0
 11
-58.595300000000009
 21
-11.149900000000001
 31
0.0
  0
LINE
  5
5879
  8
240
  6
CONTINUOUS
 10
-58.595300000000009
 20
-11.149900000000001
 30
0.0
 11
-58.671300000000002
 21
-11.06209999999999
 31
0.0
  0
LINE
  5
587A
  8
240
  6
CONTINUOUS
 10
-58.671300000000002
 20
-11.06209999999999
 30
0.0
 11
-58.746400000000008
 21
-10.973100000000001
 31
0.0
  0
LINE
  5
587B
  8
240
  6
CONTINUOUS
 10
-58.746400000000008
 20
-10.973100000000001
 30
0.0
 11
-58.820700000000002
 21
-10.88299999999999
 31
0.0
  0
LINE
  5
587C
  8
240
  6
CONTINUOUS
 10
-58.820700000000002
 20
-10.88299999999999
 30
0.0
 11
-58.894000000000013
 21
-10.791700000000001
 31
0.0
  0
LINE
  5
587D
  8
240
  6
CONTINUOUS
 10
-58.894000000000013
 20
-10.791700000000001
 30
0.0
 11
-58.966500000000011
 21
-10.69919999999999
 31
0.0
  0
LINE
  5
587E
  8
240
  6
CONTINUOUS
 10
-58.966500000000011
 20
-10.69919999999999
 30
0.0
 11
-59.0381
 21
-10.605499999999999
 31
0.0
  0
LINE
  5
587F
  8
240
  6
CONTINUOUS
 10
-59.0381
 20
-10.605499999999999
 30
0.0
 11
-59.108900000000013
 21
-10.5107
 31
0.0
  0
LINE
  5
5880
  8
240
  6
CONTINUOUS
 10
-59.108900000000013
 20
-10.5107
 30
0.0
 11
-59.178699999999999
 21
-10.414799999999991
 31
0.0
  0
LINE
  5
5881
  8
240
  6
CONTINUOUS
 10
-59.178699999999999
 20
-10.414799999999991
 30
0.0
 11
-59.247700000000009
 21
-10.3177
 31
0.0
  0
LINE
  5
5882
  8
240
  6
CONTINUOUS
 10
-59.247700000000009
 20
-10.3177
 30
0.0
 11
-59.31580000000001
 21
-10.21959999999998
 31
0.0
  0
LINE
  5
5883
  8
240
  6
CONTINUOUS
 10
-59.31580000000001
 20
-10.21959999999998
 30
0.0
 11
-59.38300000000001
 21
-10.1203
 31
0.0
  0
LINE
  5
5884
  8
240
  6
CONTINUOUS
 10
-59.38300000000001
 20
-10.1203
 30
0.0
 11
-59.44939999999999
 21
-10.0199
 31
0.0
  0
LINE
  5
5885
  8
240
  6
CONTINUOUS
 10
-59.44939999999999
 20
-10.0199
 30
0.0
 11
-59.51489999999999
 21
-9.9183999999999983
 31
0.0
  0
LINE
  5
5886
  8
240
  6
CONTINUOUS
 10
-59.51489999999999
 20
-9.9183999999999983
 30
0.0
 11
-59.57950000000001
 21
-9.8158299999999983
 31
0.0
  0
LINE
  5
5887
  8
240
  6
CONTINUOUS
 10
-59.57950000000001
 20
-9.8158299999999983
 30
0.0
 11
-59.643300000000011
 21
-9.7121799999999965
 31
0.0
  0
LINE
  5
5888
  8
240
  6
CONTINUOUS
 10
-59.643300000000011
 20
-9.7121799999999965
 30
0.0
 11
-59.70620000000001
 21
-9.6074699999999993
 31
0.0
  0
LINE
  5
5889
  8
240
  6
CONTINUOUS
 10
-59.70620000000001
 20
-9.6074699999999993
 30
0.0
 11
-59.768300000000011
 21
-9.5016999999999996
 31
0.0
  0
LINE
  5
588A
  8
240
  6
CONTINUOUS
 10
-59.768300000000011
 20
-9.5016999999999996
 30
0.0
 11
-59.82950000000001
 21
-9.3948800000000006
 31
0.0
  0
LINE
  5
588B
  8
240
  6
CONTINUOUS
 10
-59.82950000000001
 20
-9.3948800000000006
 30
0.0
 11
-59.889800000000008
 21
-9.2870199999999983
 31
0.0
  0
LINE
  5
588C
  8
240
  6
CONTINUOUS
 10
-59.889800000000008
 20
-9.2870199999999983
 30
0.0
 11
-59.949300000000001
 21
-9.1781299999999941
 31
0.0
  0
LINE
  5
588D
  8
240
  6
CONTINUOUS
 10
-59.949300000000001
 20
-9.1781299999999941
 30
0.0
 11
-60.00800000000001
 21
-9.0682199999999966
 31
0.0
  0
LINE
  5
588E
  8
240
  6
CONTINUOUS
 10
-60.00800000000001
 20
-9.0682199999999966
 30
0.0
 11
-60.06580000000001
 21
-8.9572900000000004
 31
0.0
  0
LINE
  5
588F
  8
240
  6
CONTINUOUS
 10
-60.06580000000001
 20
-8.9572900000000004
 30
0.0
 11
-60.122700000000002
 21
-8.8453599999999994
 31
0.0
  0
LINE
  5
5890
  8
240
  6
CONTINUOUS
 10
-60.122700000000002
 20
-8.8453599999999994
 30
0.0
 11
-60.17880000000001
 21
-8.7324399999999969
 31
0.0
  0
LINE
  5
5891
  8
240
  6
CONTINUOUS
 10
-60.17880000000001
 20
-8.7324399999999969
 30
0.0
 11
-60.234099999999998
 21
-8.6185199999999966
 31
0.0
  0
LINE
  5
5892
  8
240
  6
CONTINUOUS
 10
-60.234099999999998
 20
-8.6185199999999966
 30
0.0
 11
-60.288499999999999
 21
-8.5036399999999972
 31
0.0
  0
LINE
  5
5893
  8
240
  6
CONTINUOUS
 10
-60.288499999999999
 20
-8.5036399999999972
 30
0.0
 11
-60.342100000000002
 21
-8.3877799999999993
 31
0.0
  0
LINE
  5
5894
  8
240
  6
CONTINUOUS
 10
-60.342100000000002
 20
-8.3877799999999993
 30
0.0
 11
-60.3949
 21
-8.2709600000000023
 31
0.0
  0
LINE
  5
5895
  8
240
  6
CONTINUOUS
 10
-60.3949
 20
-8.2709600000000023
 30
0.0
 11
-60.44680000000001
 21
-8.1531899999999951
 31
0.0
  0
LINE
  5
5896
  8
240
  6
CONTINUOUS
 10
-60.44680000000001
 20
-8.1531899999999951
 30
0.0
 11
-60.497900000000001
 21
-8.0344800000000021
 31
0.0
  0
LINE
  5
5897
  8
240
  6
CONTINUOUS
 10
-60.497900000000001
 20
-8.0344800000000021
 30
0.0
 11
-60.548200000000008
 21
-7.914829999999994
 31
0.0
  0
LINE
  5
5898
  8
240
  6
CONTINUOUS
 10
-60.548200000000008
 20
-7.914829999999994
 30
0.0
 11
-60.5976
 21
-7.7942699999999974
 31
0.0
  0
LINE
  5
5899
  8
240
  6
CONTINUOUS
 10
-60.5976
 20
-7.7942699999999974
 30
0.0
 11
-60.646200000000007
 21
-7.672779999999995
 31
0.0
  0
LINE
  5
589A
  8
240
  6
CONTINUOUS
 10
-60.646200000000007
 20
-7.672779999999995
 30
0.0
 11
-60.694000000000003
 21
-7.5503899999999931
 31
0.0
  0
LINE
  5
589B
  8
240
  6
CONTINUOUS
 10
-60.694000000000003
 20
-7.5503899999999931
 30
0.0
 11
-60.740900000000011
 21
-7.4270999999999949
 31
0.0
  0
LINE
  5
589C
  8
240
  6
CONTINUOUS
 10
-60.740900000000011
 20
-7.4270999999999949
 30
0.0
 11
-60.787100000000002
 21
-7.3029299999999964
 31
0.0
  0
LINE
  5
589D
  8
240
  6
CONTINUOUS
 10
-60.787100000000002
 20
-7.3029299999999964
 30
0.0
 11
-60.832399999999993
 21
-7.1778699999999978
 31
0.0
  0
LINE
  5
589E
  8
240
  6
CONTINUOUS
 10
-60.832399999999993
 20
-7.1778699999999978
 30
0.0
 11
-60.876900000000013
 21
-7.0519399999999939
 31
0.0
  0
LINE
  5
589F
  8
240
  6
CONTINUOUS
 10
-60.876900000000013
 20
-7.0519399999999939
 30
0.0
 11
-60.9206
 21
-6.925149999999995
 31
0.0
  0
LINE
  5
58A0
  8
240
  6
CONTINUOUS
 10
-60.9206
 20
-6.925149999999995
 30
0.0
 11
-60.96350000000001
 21
-6.7975100000000017
 31
0.0
  0
LINE
  5
58A1
  8
240
  6
CONTINUOUS
 10
-60.96350000000001
 20
-6.7975100000000017
 30
0.0
 11
-61.005600000000001
 21
-6.6690199999999962
 31
0.0
  0
LINE
  5
58A2
  8
240
  6
CONTINUOUS
 10
-61.005600000000001
 20
-6.6690199999999962
 30
0.0
 11
-61.046799999999998
 21
-6.5396999999999963
 31
0.0
  0
LINE
  5
58A3
  8
240
  6
CONTINUOUS
 10
-61.046799999999998
 20
-6.5396999999999963
 30
0.0
 11
-61.087299999999999
 21
-6.409549999999995
 31
0.0
  0
LINE
  5
58A4
  8
240
  6
CONTINUOUS
 10
-61.087299999999999
 20
-6.409549999999995
 30
0.0
 11
-61.12700000000001
 21
-6.2785899999999941
 31
0.0
  0
LINE
  5
58A5
  8
240
  6
CONTINUOUS
 10
-61.12700000000001
 20
-6.2785899999999941
 30
0.0
 11
-61.16579999999999
 21
-6.146809999999995
 31
0.0
  0
LINE
  5
58A6
  8
240
  6
CONTINUOUS
 10
-61.16579999999999
 20
-6.146809999999995
 30
0.0
 11
-61.203899999999997
 21
-6.01424
 31
0.0
  0
LINE
  5
58A7
  8
240
  6
CONTINUOUS
 10
-61.203899999999997
 20
-6.01424
 30
0.0
 11
-61.241100000000003
 21
-5.8808700000000007
 31
0.0
  0
LINE
  5
58A8
  8
240
  6
CONTINUOUS
 10
-61.241100000000003
 20
-5.8808700000000007
 30
0.0
 11
-61.277600000000007
 21
-5.7467299999999986
 31
0.0
  0
LINE
  5
58A9
  8
240
  6
CONTINUOUS
 10
-61.277600000000007
 20
-5.7467299999999986
 30
0.0
 11
-61.313200000000009
 21
-5.6118099999999913
 31
0.0
  0
LINE
  5
58AA
  8
240
  6
CONTINUOUS
 10
-61.313200000000009
 20
-5.6118099999999913
 30
0.0
 11
-61.348100000000002
 21
-5.4761199999999937
 31
0.0
  0
LINE
  5
58AB
  8
240
  6
CONTINUOUS
 10
-61.348100000000002
 20
-5.4761199999999937
 30
0.0
 11
-61.382199999999997
 21
-5.3396800000000013
 31
0.0
  0
LINE
  5
58AC
  8
240
  6
CONTINUOUS
 10
-61.382199999999997
 20
-5.3396800000000013
 30
0.0
 11
-61.415500000000009
 21
-5.2024999999999997
 31
0.0
  0
LINE
  5
58AD
  8
240
  6
CONTINUOUS
 10
-61.415500000000009
 20
-5.2024999999999997
 30
0.0
 11
-61.448
 21
-5.0645799999999923
 31
0.0
  0
LINE
  5
58AE
  8
240
  6
CONTINUOUS
 10
-61.448
 20
-5.0645799999999923
 30
0.0
 11
-61.479700000000001
 21
-4.9259199999999899
 31
0.0
  0
LINE
  5
58AF
  8
240
  6
CONTINUOUS
 10
-61.479700000000001
 20
-4.9259199999999899
 30
0.0
 11
-61.5107
 21
-4.7865500000000054
 31
0.0
  0
LINE
  5
58B0
  8
240
  6
CONTINUOUS
 10
-61.5107
 20
-4.7865500000000054
 30
0.0
 11
-61.540799999999997
 21
-4.6464699999999928
 31
0.0
  0
LINE
  5
58B1
  8
240
  6
CONTINUOUS
 10
-61.540799999999997
 20
-4.6464699999999928
 30
0.0
 11
-61.5702
 21
-4.5056900000000013
 31
0.0
  0
LINE
  5
58B2
  8
240
  6
CONTINUOUS
 10
-61.5702
 20
-4.5056900000000013
 30
0.0
 11
-61.598799999999997
 21
-4.364209999999999
 31
0.0
  0
LINE
  5
58B3
  8
240
  6
CONTINUOUS
 10
-61.598799999999997
 20
-4.364209999999999
 30
0.0
 11
-61.6267
 21
-4.222049999999995
 31
0.0
  0
LINE
  5
58B4
  8
240
  6
CONTINUOUS
 10
-61.6267
 20
-4.222049999999995
 30
0.0
 11
-61.653700000000001
 21
-4.0792199999999923
 31
0.0
  0
LINE
  5
58B5
  8
240
  6
CONTINUOUS
 10
-61.653700000000001
 20
-4.0792199999999923
 30
0.0
 11
-61.680000000000007
 21
-3.935720000000003
 31
0.0
  0
LINE
  5
58B6
  8
240
  6
CONTINUOUS
 10
-61.680000000000007
 20
-3.935720000000003
 30
0.0
 11
-61.705599999999997
 21
-3.791560000000004
 31
0.0
  0
LINE
  5
58B7
  8
240
  6
CONTINUOUS
 10
-61.705599999999997
 20
-3.791560000000004
 30
0.0
 11
-61.7303
 21
-3.6467499999999968
 31
0.0
  0
LINE
  5
58B8
  8
240
  6
CONTINUOUS
 10
-61.7303
 20
-3.6467499999999968
 30
0.0
 11
-61.754300000000001
 21
-3.5013000000000001
 31
0.0
  0
LINE
  5
58B9
  8
240
  6
CONTINUOUS
 10
-61.754300000000001
 20
-3.5013000000000001
 30
0.0
 11
-61.777600000000007
 21
-3.3552299999999922
 31
0.0
  0
LINE
  5
58BA
  8
240
  6
CONTINUOUS
 10
-61.777600000000007
 20
-3.3552299999999922
 30
0.0
 11
-61.79999999999999
 21
-3.2085299999999961
 31
0.0
  0
LINE
  5
58BB
  8
240
  6
CONTINUOUS
 10
-61.79999999999999
 20
-3.2085299999999961
 30
0.0
 11
-61.821700000000007
 21
-3.0612199999999921
 31
0.0
  0
LINE
  5
58BC
  8
240
  6
CONTINUOUS
 10
-61.821700000000007
 20
-3.0612199999999921
 30
0.0
 11
-61.842700000000008
 21
-2.913299999999992
 31
0.0
  0
LINE
  5
58BD
  8
240
  6
CONTINUOUS
 10
-61.842700000000008
 20
-2.913299999999992
 30
0.0
 11
-61.86290000000001
 21
-2.7647899999999912
 31
0.0
  0
LINE
  5
58BE
  8
240
  6
CONTINUOUS
 10
-61.86290000000001
 20
-2.7647899999999912
 30
0.0
 11
-61.882399999999997
 21
-2.6156900000000012
 31
0.0
  0
LINE
  5
58BF
  8
240
  6
CONTINUOUS
 10
-61.882399999999997
 20
-2.6156900000000012
 30
0.0
 11
-61.9011
 21
-2.4660199999999999
 31
0.0
  0
LINE
  5
58C0
  8
240
  6
CONTINUOUS
 10
-61.9011
 20
-2.4660199999999999
 30
0.0
 11
-61.918999999999997
 21
-2.3157799999999891
 31
0.0
  0
LINE
  5
58C1
  8
240
  6
CONTINUOUS
 10
-61.918999999999997
 20
-2.3157799999999891
 30
0.0
 11
-61.936199999999999
 21
-2.1649799999999999
 31
0.0
  0
LINE
  5
58C2
  8
240
  6
CONTINUOUS
 10
-61.936199999999999
 20
-2.1649799999999999
 30
0.0
 11
-61.9527
 21
-2.0136200000000031
 31
0.0
  0
LINE
  5
58C3
  8
240
  6
CONTINUOUS
 10
-61.9527
 20
-2.0136200000000031
 30
0.0
 11
-61.968400000000003
 21
-1.8617299999999939
 31
0.0
  0
LINE
  5
58C4
  8
240
  6
CONTINUOUS
 10
-61.968400000000003
 20
-1.8617299999999939
 30
0.0
 11
-61.983400000000003
 21
-1.7092999999999989
 31
0.0
  0
LINE
  5
58C5
  8
240
  6
CONTINUOUS
 10
-61.983400000000003
 20
-1.7092999999999989
 30
0.0
 11
-61.997700000000002
 21
-1.5563499999999939
 31
0.0
  0
LINE
  5
58C6
  8
240
  6
CONTINUOUS
 10
-61.997700000000002
 20
-1.5563499999999939
 30
0.0
 11
-62.011200000000002
 21
-1.4028899999999991
 31
0.0
  0
LINE
  5
58C7
  8
240
  6
CONTINUOUS
 10
-62.011200000000002
 20
-1.4028899999999991
 30
0.0
 11
-62.024000000000001
 21
-1.248919999999998
 31
0.0
  0
LINE
  5
58C8
  8
240
  6
CONTINUOUS
 10
-62.024000000000001
 20
-1.248919999999998
 30
0.0
 11
-62.036000000000001
 21
-1.094449999999995
 31
0.0
  0
LINE
  5
58C9
  8
240
  6
CONTINUOUS
 10
-62.036000000000001
 20
-1.094449999999995
 30
0.0
 11
-62.047300000000007
 21
-0.9394929999999989
 31
0.0
  0
LINE
  5
58CA
  8
240
  6
CONTINUOUS
 10
-62.047300000000007
 20
-0.9394929999999989
 30
0.0
 11
-62.057899999999997
 21
-0.7840570000000044
 31
0.0
  0
LINE
  5
58CB
  8
240
  6
CONTINUOUS
 10
-62.057899999999997
 20
-0.7840570000000044
 30
0.0
 11
-62.067800000000013
 21
-0.6281510000000028
 31
0.0
  0
LINE
  5
58CC
  8
240
  6
CONTINUOUS
 10
-62.067800000000013
 20
-0.6281510000000028
 30
0.0
 11
-62.076900000000009
 21
-0.4717830000000024
 31
0.0
  0
LINE
  5
58CD
  8
240
  6
CONTINUOUS
 10
-62.076900000000009
 20
-0.4717830000000024
 30
0.0
 11
-62.085299999999989
 21
-0.3149629999999919
 31
0.0
  0
LINE
  5
58CE
  8
240
  6
CONTINUOUS
 10
-62.085299999999989
 20
-0.3149629999999919
 30
0.0
 11
-62.093000000000004
 21
-0.1576989999999941
 31
0.0
  0
LINE
  5
58CF
  8
240
  6
CONTINUOUS
 10
-62.093000000000004
 20
-0.1576989999999941
 30
0.0
 11
-62.100000000000001
 21
0.0000000013795611
 31
0.0
  0
LINE
  5
58D0
  8
240
  6
CONTINUOUS
 10
-62.100000000000001
 20
-0.0000000016944742
 30
0.0
 11
-62.099499999999999
 21
0.1461890000000065
 31
0.0
  0
LINE
  5
58D1
  8
240
  6
CONTINUOUS
 10
-62.099499999999999
 20
0.1461890000000065
 30
0.0
 11
-62.097999999999999
 21
0.2923059999999961
 31
0.0
  0
LINE
  5
58D2
  8
240
  6
CONTINUOUS
 10
-62.097999999999999
 20
0.2923059999999961
 30
0.0
 11
-62.095500000000001
 21
0.438337000000004
 31
0.0
  0
LINE
  5
58D3
  8
240
  6
CONTINUOUS
 10
-62.095500000000001
 20
0.438337000000004
 30
0.0
 11
-62.092100000000002
 21
0.584269000000006
 31
0.0
  0
LINE
  5
58D4
  8
240
  6
CONTINUOUS
 10
-62.092100000000002
 20
0.584269000000006
 30
0.0
 11
-62.087600000000009
 21
0.7300890000000065
 31
0.0
  0
LINE
  5
58D5
  8
240
  6
CONTINUOUS
 10
-62.087600000000009
 20
0.7300890000000065
 30
0.0
 11
-62.0822
 21
0.8757839999999957
 31
0.0
  0
LINE
  5
58D6
  8
240
  6
CONTINUOUS
 10
-62.0822
 20
0.8757839999999957
 30
0.0
 11
-62.075800000000001
 21
1.0213399999999939
 31
0.0
  0
LINE
  5
58D7
  8
240
  6
CONTINUOUS
 10
-62.075800000000001
 20
1.0213399999999939
 30
0.0
 11
-62.0685
 21
1.1667500000000071
 31
0.0
  0
LINE
  5
58D8
  8
240
  6
CONTINUOUS
 10
-62.0685
 20
1.1667500000000071
 30
0.0
 11
-62.060200000000009
 21
1.311989999999994
 31
0.0
  0
LINE
  5
58D9
  8
240
  6
CONTINUOUS
 10
-62.060200000000009
 20
1.311989999999994
 30
0.0
 11
-62.050899999999999
 21
1.4570499999999951
 31
0.0
  0
LINE
  5
58DA
  8
240
  6
CONTINUOUS
 10
-62.050899999999999
 20
1.4570499999999951
 30
0.0
 11
-62.040700000000001
 21
1.601920000000006
 31
0.0
  0
LINE
  5
58DB
  8
240
  6
CONTINUOUS
 10
-62.040700000000001
 20
1.601920000000006
 30
0.0
 11
-62.029499999999999
 21
1.746589999999997
 31
0.0
  0
LINE
  5
58DC
  8
240
  6
CONTINUOUS
 10
-62.029499999999999
 20
1.746589999999997
 30
0.0
 11
-62.017300000000013
 21
1.8910400000000029
 31
0.0
  0
LINE
  5
58DD
  8
240
  6
CONTINUOUS
 10
-62.017300000000013
 20
1.8910400000000029
 30
0.0
 11
-62.004199999999997
 21
2.0352699999999961
 31
0.0
  0
LINE
  5
58DE
  8
240
  6
CONTINUOUS
 10
-62.004199999999997
 20
2.0352699999999961
 30
0.0
 11
-61.990099999999998
 21
2.1792499999999948
 31
0.0
  0
LINE
  5
58DF
  8
240
  6
CONTINUOUS
 10
-61.990099999999998
 20
2.1792499999999948
 30
0.0
 11
-61.975099999999998
 21
2.3229699999999971
 31
0.0
  0
LINE
  5
58E0
  8
240
  6
CONTINUOUS
 10
-61.975099999999998
 20
2.3229699999999971
 30
0.0
 11
-61.959100000000007
 21
2.4664199999999981
 31
0.0
  0
LINE
  5
58E1
  8
240
  6
CONTINUOUS
 10
-61.959100000000007
 20
2.4664199999999981
 30
0.0
 11
-61.9422
 21
2.6095899999999959
 31
0.0
  0
LINE
  5
58E2
  8
240
  6
CONTINUOUS
 10
-61.9422
 20
2.6095899999999959
 30
0.0
 11
-61.924300000000002
 21
2.7524700000000011
 31
0.0
  0
LINE
  5
58E3
  8
240
  6
CONTINUOUS
 10
-61.924300000000002
 20
2.7524700000000011
 30
0.0
 11
-61.905500000000004
 21
2.8950399999999941
 31
0.0
  0
LINE
  5
58E4
  8
240
  6
CONTINUOUS
 10
-61.905500000000004
 20
2.8950399999999941
 30
0.0
 11
-61.885800000000003
 21
3.0372799999999951
 31
0.0
  0
LINE
  5
58E5
  8
240
  6
CONTINUOUS
 10
-61.885800000000003
 20
3.0372799999999951
 30
0.0
 11
-61.865099999999998
 21
3.1791900000000051
 31
0.0
  0
LINE
  5
58E6
  8
240
  6
CONTINUOUS
 10
-61.865099999999998
 20
3.1791900000000051
 30
0.0
 11
-61.843400000000003
 21
3.320750000000003
 31
0.0
  0
LINE
  5
58E7
  8
240
  6
CONTINUOUS
 10
-61.843400000000003
 20
3.320750000000003
 30
0.0
 11
-61.820900000000009
 21
3.4619500000000012
 31
0.0
  0
LINE
  5
58E8
  8
240
  6
CONTINUOUS
 10
-61.820900000000009
 20
3.4619500000000012
 30
0.0
 11
-61.797300000000007
 21
3.6027799999999952
 31
0.0
  0
LINE
  5
58E9
  8
240
  6
CONTINUOUS
 10
-61.797300000000007
 20
3.6027799999999952
 30
0.0
 11
-61.772900000000007
 21
3.7432200000000071
 31
0.0
  0
LINE
  5
58EA
  8
240
  6
CONTINUOUS
 10
-61.772900000000007
 20
3.7432200000000071
 30
0.0
 11
-61.747500000000002
 21
3.8832600000000062
 31
0.0
  0
LINE
  5
58EB
  8
240
  6
CONTINUOUS
 10
-61.747500000000002
 20
3.8832600000000062
 30
0.0
 11
-61.72120000000001
 21
4.0228799999999998
 31
0.0
  0
LINE
  5
58EC
  8
240
  6
CONTINUOUS
 10
-61.72120000000001
 20
4.0228799999999998
 30
0.0
 11
-61.694000000000003
 21
4.1620800000000031
 31
0.0
  0
LINE
  5
58ED
  8
240
  6
CONTINUOUS
 10
-61.694000000000003
 20
4.1620800000000031
 30
0.0
 11
-61.66579999999999
 21
4.3008399999999929
 31
0.0
  0
LINE
  5
58EE
  8
240
  6
CONTINUOUS
 10
-61.66579999999999
 20
4.3008399999999929
 30
0.0
 11
-61.636800000000008
 21
4.439149999999997
 31
0.0
  0
LINE
  5
58EF
  8
240
  6
CONTINUOUS
 10
-61.636800000000008
 20
4.439149999999997
 30
0.0
 11
-61.606800000000007
 21
4.576980000000006
 31
0.0
  0
LINE
  5
58F0
  8
240
  6
CONTINUOUS
 10
-61.606800000000007
 20
4.576980000000006
 30
0.0
 11
-61.575800000000001
 21
4.7143400000000071
 31
0.0
  0
LINE
  5
58F1
  8
240
  6
CONTINUOUS
 10
-61.575800000000001
 20
4.7143400000000071
 30
0.0
 11
-61.54399999999999
 21
4.8512099999999938
 31
0.0
  0
LINE
  5
58F2
  8
240
  6
CONTINUOUS
 10
-61.54399999999999
 20
4.8512099999999938
 30
0.0
 11
-61.511300000000013
 21
4.9875800000000083
 31
0.0
  0
LINE
  5
58F3
  8
240
  6
CONTINUOUS
 10
-61.511300000000013
 20
4.9875800000000083
 30
0.0
 11
-61.47760000000001
 21
5.123419999999995
 31
0.0
  0
LINE
  5
58F4
  8
240
  6
CONTINUOUS
 10
-61.47760000000001
 20
5.123419999999995
 30
0.0
 11
-61.442999999999998
 21
5.258729999999999
 31
0.0
  0
LINE
  5
58F5
  8
240
  6
CONTINUOUS
 10
-61.442999999999998
 20
5.258729999999999
 30
0.0
 11
-61.407499999999999
 21
5.3935000000000031
 31
0.0
  0
LINE
  5
58F6
  8
240
  6
CONTINUOUS
 10
-61.407499999999999
 20
5.3935000000000031
 30
0.0
 11
-61.371200000000002
 21
5.527709999999999
 31
0.0
  0
LINE
  5
58F7
  8
240
  6
CONTINUOUS
 10
-61.371200000000002
 20
5.527709999999999
 30
0.0
 11
-61.3339
 21
5.6613499999999979
 31
0.0
  0
LINE
  5
58F8
  8
240
  6
CONTINUOUS
 10
-61.3339
 20
5.6613499999999979
 30
0.0
 11
-61.295699999999997
 21
5.7943999999999951
 31
0.0
  0
LINE
  5
58F9
  8
240
  6
CONTINUOUS
 10
-61.295699999999997
 20
5.7943999999999951
 30
0.0
 11
-61.256599999999992
 21
5.926860000000004
 31
0.0
  0
LINE
  5
58FA
  8
240
  6
CONTINUOUS
 10
-61.256599999999992
 20
5.926860000000004
 30
0.0
 11
-61.2166
 21
6.058710000000004
 31
0.0
  0
LINE
  5
58FB
  8
240
  6
CONTINUOUS
 10
-61.2166
 20
6.058710000000004
 30
0.0
 11
-61.175699999999999
 21
6.189930000000003
 31
0.0
  0
LINE
  5
58FC
  8
240
  6
CONTINUOUS
 10
-61.175699999999999
 20
6.189930000000003
 30
0.0
 11
-61.13389999999999
 21
6.320520000000001
 31
0.0
  0
LINE
  5
58FD
  8
240
  6
CONTINUOUS
 10
-61.13389999999999
 20
6.320520000000001
 30
0.0
 11
-61.091200000000001
 21
6.4504600000000059
 31
0.0
  0
LINE
  5
58FE
  8
240
  6
CONTINUOUS
 10
-61.091200000000001
 20
6.4504600000000059
 30
0.0
 11
-61.047600000000003
 21
6.579729999999997
 31
0.0
  0
LINE
  5
58FF
  8
240
  6
CONTINUOUS
 10
-61.047600000000003
 20
6.579729999999997
 30
0.0
 11
-61.003199999999993
 21
6.7083300000000028
 31
0.0
  0
LINE
  5
5900
  8
240
  6
CONTINUOUS
 10
-61.003199999999993
 20
6.7083300000000028
 30
0.0
 11
-60.957800000000013
 21
6.8362400000000028
 31
0.0
  0
LINE
  5
5901
  8
240
  6
CONTINUOUS
 10
-60.957800000000013
 20
6.8362400000000028
 30
0.0
 11
-60.911600000000007
 21
6.9634499999999937
 31
0.0
  0
LINE
  5
5902
  8
240
  6
CONTINUOUS
 10
-60.911600000000007
 20
6.9634499999999937
 30
0.0
 11
-60.864500000000007
 21
7.0899399999999977
 31
0.0
  0
LINE
  5
5903
  8
240
  6
CONTINUOUS
 10
-60.864500000000007
 20
7.0899399999999977
 30
0.0
 11
-60.816499999999991
 21
7.2156999999999982
 31
0.0
  0
LINE
  5
5904
  8
240
  6
CONTINUOUS
 10
-60.816499999999991
 20
7.2156999999999982
 30
0.0
 11
-60.767600000000002
 21
7.3407300000000069
 31
0.0
  0
LINE
  5
5905
  8
240
  6
CONTINUOUS
 10
-60.767600000000002
 20
7.3407300000000069
 30
0.0
 11
-60.7179
 21
7.4649900000000002
 31
0.0
  0
LINE
  5
5906
  8
240
  6
CONTINUOUS
 10
-60.7179
 20
7.4649900000000002
 30
0.0
 11
-60.667200000000008
 21
7.5884900000000073
 31
0.0
  0
LINE
  5
5907
  8
240
  6
CONTINUOUS
 10
-60.667200000000008
 20
7.5884900000000073
 30
0.0
 11
-60.615800000000007
 21
7.7112099999999941
 31
0.0
  0
LINE
  5
5908
  8
240
  6
CONTINUOUS
 10
-60.615800000000007
 20
7.7112099999999941
 30
0.0
 11
-60.563400000000001
 21
7.8331400000000002
 31
0.0
  0
LINE
  5
5909
  8
240
  6
CONTINUOUS
 10
-60.563400000000001
 20
7.8331400000000002
 30
0.0
 11
-60.510100000000008
 21
7.9542600000000041
 31
0.0
  0
LINE
  5
590A
  8
240
  6
CONTINUOUS
 10
-60.510100000000008
 20
7.9542600000000041
 30
0.0
 11
-60.456000000000003
 21
8.0745500000000021
 31
0.0
  0
LINE
  5
590B
  8
240
  6
CONTINUOUS
 10
-60.456000000000003
 20
8.0745500000000021
 30
0.0
 11
-60.4011
 21
8.1940200000000072
 31
0.0
  0
LINE
  5
590C
  8
240
  6
CONTINUOUS
 10
-60.4011
 20
8.1940200000000072
 30
0.0
 11
-60.345199999999998
 21
8.3126400000000018
 31
0.0
  0
LINE
  5
590D
  8
240
  6
CONTINUOUS
 10
-60.345199999999998
 20
8.3126400000000018
 30
0.0
 11
-60.288600000000002
 21
8.4304000000000041
 31
0.0
  0
LINE
  5
590E
  8
240
  6
CONTINUOUS
 10
-60.288600000000002
 20
8.4304000000000041
 30
0.0
 11
-60.231000000000009
 21
8.5472800000000007
 31
0.0
  0
LINE
  5
590F
  8
240
  6
CONTINUOUS
 10
-60.231000000000009
 20
8.5472800000000007
 30
0.0
 11
-60.172600000000003
 21
8.6632800000000003
 31
0.0
  0
LINE
  5
5910
  8
240
  6
CONTINUOUS
 10
-60.172600000000003
 20
8.6632800000000003
 30
0.0
 11
-60.113300000000002
 21
8.7783900000000017
 31
0.0
  0
LINE
  5
5911
  8
240
  6
CONTINUOUS
 10
-60.113300000000002
 20
8.7783900000000017
 30
0.0
 11
-60.053200000000011
 21
8.8925800000000095
 31
0.0
  0
LINE
  5
5912
  8
240
  6
CONTINUOUS
 10
-60.053200000000011
 20
8.8925800000000095
 30
0.0
 11
-59.9923
 21
9.0058400000000063
 31
0.0
  0
LINE
  5
5913
  8
240
  6
CONTINUOUS
 10
-59.9923
 20
9.0058400000000063
 30
0.0
 11
-59.930500000000009
 21
9.1181699999999921
 31
0.0
  0
LINE
  5
5914
  8
240
  6
CONTINUOUS
 10
-59.930500000000009
 20
9.1181699999999921
 30
0.0
 11
-59.867800000000003
 21
9.2295400000000001
 31
0.0
  0
LINE
  5
5915
  8
240
  6
CONTINUOUS
 10
-59.867800000000003
 20
9.2295400000000001
 30
0.0
 11
-59.804299999999998
 21
9.3399500000000018
 31
0.0
  0
LINE
  5
5916
  8
240
  6
CONTINUOUS
 10
-59.804299999999998
 20
9.3399500000000018
 30
0.0
 11
-59.740000000000009
 21
9.4493899999999922
 31
0.0
  0
LINE
  5
5917
  8
240
  6
CONTINUOUS
 10
-59.740000000000009
 20
9.4493899999999922
 30
0.0
 11
-59.674800000000012
 21
9.5578299999999956
 31
0.0
  0
LINE
  5
5918
  8
240
  6
CONTINUOUS
 10
-59.674800000000012
 20
9.5578299999999956
 30
0.0
 11
-59.608699999999992
 21
9.6652699999999925
 31
0.0
  0
LINE
  5
5919
  8
240
  6
CONTINUOUS
 10
-59.608699999999992
 20
9.6652699999999925
 30
0.0
 11
-59.541899999999998
 21
9.7716900000000066
 31
0.0
  0
LINE
  5
591A
  8
240
  6
CONTINUOUS
 10
-59.541899999999998
 20
9.7716900000000066
 30
0.0
 11
-59.47420000000001
 21
9.8770800000000065
 31
0.0
  0
LINE
  5
591B
  8
240
  6
CONTINUOUS
 10
-59.47420000000001
 20
9.8770800000000065
 30
0.0
 11
-59.40570000000001
 21
9.9814300000000031
 31
0.0
  0
LINE
  5
591C
  8
240
  6
CONTINUOUS
 10
-59.40570000000001
 20
9.9814300000000031
 30
0.0
 11
-59.336300000000001
 21
10.084699999999989
 31
0.0
  0
LINE
  5
591D
  8
240
  6
CONTINUOUS
 10
-59.336300000000001
 20
10.084699999999989
 30
0.0
 11
-59.266100000000009
 21
10.186899999999991
 31
0.0
  0
LINE
  5
591E
  8
240
  6
CONTINUOUS
 10
-59.266100000000009
 20
10.186899999999991
 30
0.0
 11
-59.195099999999989
 21
10.2881
 31
0.0
  0
LINE
  5
591F
  8
240
  6
CONTINUOUS
 10
-59.195099999999989
 20
10.2881
 30
0.0
 11
-59.1233
 21
10.388099999999991
 31
0.0
  0
LINE
  5
5920
  8
240
  6
CONTINUOUS
 10
-59.1233
 20
10.388099999999991
 30
0.0
 11
-59.050600000000003
 21
10.4871
 31
0.0
  0
LINE
  5
5921
  8
240
  6
CONTINUOUS
 10
-59.050600000000003
 20
10.4871
 30
0.0
 11
-58.9771
 21
10.584899999999999
 31
0.0
  0
LINE
  5
5922
  8
240
  6
CONTINUOUS
 10
-58.9771
 20
10.584899999999999
 30
0.0
 11
-58.902799999999999
 21
10.6816
 31
0.0
  0
LINE
  5
5923
  8
240
  6
CONTINUOUS
 10
-58.902799999999999
 20
10.6816
 30
0.0
 11
-58.8277
 21
10.777100000000001
 31
0.0
  0
LINE
  5
5924
  8
240
  6
CONTINUOUS
 10
-58.8277
 20
10.777100000000001
 30
0.0
 11
-58.751800000000003
 21
10.871499999999999
 31
0.0
  0
LINE
  5
5925
  8
240
  6
CONTINUOUS
 10
-58.751800000000003
 20
10.871499999999999
 30
0.0
 11
-58.6751
 21
10.96469999999999
 31
0.0
  0
LINE
  5
5926
  8
240
  6
CONTINUOUS
 10
-58.6751
 20
10.96469999999999
 30
0.0
 11
-58.597499999999997
 21
11.056699999999999
 31
0.0
  0
LINE
  5
5927
  8
240
  6
CONTINUOUS
 10
-58.597499999999997
 20
11.056699999999999
 30
0.0
 11
-58.519199999999991
 21
11.14750000000001
 31
0.0
  0
LINE
  5
5928
  8
240
  6
CONTINUOUS
 10
-58.519199999999991
 20
11.14750000000001
 30
0.0
 11
-58.439999999999998
 21
11.237099999999989
 31
0.0
  0
LINE
  5
5929
  8
240
  6
CONTINUOUS
 10
-58.439999999999998
 20
11.237099999999989
 30
0.0
 11
-58.359999999999999
 21
11.3254
 31
0.0
  0
LINE
  5
592A
  8
240
  6
CONTINUOUS
 10
-58.359999999999999
 20
11.3254
 30
0.0
 11
-58.279300000000013
 21
11.412599999999991
 31
0.0
  0
LINE
  5
592B
  8
240
  6
CONTINUOUS
 10
-58.279300000000013
 20
11.412599999999991
 30
0.0
 11
-58.197699999999998
 21
11.4984
 31
0.0
  0
LINE
  5
592C
  8
240
  6
CONTINUOUS
 10
-58.197699999999998
 20
11.4984
 30
0.0
 11
-58.115300000000012
 21
11.583
 31
0.0
  0
LINE
  5
592D
  8
240
  6
CONTINUOUS
 10
-58.115300000000012
 20
11.583
 30
0.0
 11
-58.032099999999993
 21
11.666399999999991
 31
0.0
  0
LINE
  5
592E
  8
240
  6
CONTINUOUS
 10
-58.032099999999993
 20
11.666399999999991
 30
0.0
 11
-57.9482
 21
11.7484
 31
0.0
  0
LINE
  5
592F
  8
240
  6
CONTINUOUS
 10
-57.9482
 20
11.7484
 30
0.0
 11
-57.863399999999999
 21
11.82909999999999
 31
0.0
  0
LINE
  5
5930
  8
240
  6
CONTINUOUS
 10
-57.863399999999999
 20
11.82909999999999
 30
0.0
 11
-57.777900000000002
 21
11.9086
 31
0.0
  0
LINE
  5
5931
  8
240
  6
CONTINUOUS
 10
-57.777900000000002
 20
11.9086
 30
0.0
 11
-57.691600000000008
 21
11.98659999999999
 31
0.0
  0
LINE
  5
5932
  8
240
  6
CONTINUOUS
 10
-57.691600000000008
 20
11.98659999999999
 30
0.0
 11
-57.604500000000002
 21
12.0634
 31
0.0
  0
LINE
  5
5933
  8
240
  6
CONTINUOUS
 10
-57.604500000000002
 20
12.0634
 30
0.0
 11
-57.516599999999997
 21
12.1388
 31
0.0
  0
LINE
  5
5934
  8
240
  6
CONTINUOUS
 10
-57.516599999999997
 20
12.1388
 30
0.0
 11
-57.427900000000008
 21
12.2128
 31
0.0
  0
LINE
  5
5935
  8
240
  6
CONTINUOUS
 10
-57.427900000000008
 20
12.2128
 30
0.0
 11
-57.3384
 21
12.28539999999999
 31
0.0
  0
LINE
  5
5936
  8
240
  6
CONTINUOUS
 10
-57.3384
 20
12.28539999999999
 30
0.0
 11
-57.248199999999997
 21
12.3566
 31
0.0
  0
LINE
  5
5937
  8
240
  6
CONTINUOUS
 10
-57.248199999999997
 20
12.3566
 30
0.0
 11
-57.15720000000001
 21
12.426399999999999
 31
0.0
  0
LINE
  5
5938
  8
240
  6
CONTINUOUS
 10
-57.15720000000001
 20
12.426399999999999
 30
0.0
 11
-57.065399999999997
 21
12.4948
 31
0.0
  0
LINE
  5
5939
  8
240
  6
CONTINUOUS
 10
-57.065399999999997
 20
12.4948
 30
0.0
 11
-56.972800000000007
 21
12.5618
 31
0.0
  0
LINE
  5
593A
  8
240
  6
CONTINUOUS
 10
-56.972800000000007
 20
12.5618
 30
0.0
 11
-56.8795
 21
12.6273
 31
0.0
  0
LINE
  5
593B
  8
240
  6
CONTINUOUS
 10
-56.8795
 20
12.6273
 30
0.0
 11
-56.78540000000001
 21
12.6913
 31
0.0
  0
LINE
  5
593C
  8
240
  6
CONTINUOUS
 10
-56.78540000000001
 20
12.6913
 30
0.0
 11
-56.6905
 21
12.7539
 31
0.0
  0
LINE
  5
593D
  8
240
  6
CONTINUOUS
 10
-56.6905
 20
12.7539
 30
0.0
 11
-56.59490000000001
 21
12.815
 31
0.0
  0
LINE
  5
593E
  8
240
  6
CONTINUOUS
 10
-56.59490000000001
 20
12.815
 30
0.0
 11
-56.4985
 21
12.874599999999999
 31
0.0
  0
LINE
  5
593F
  8
240
  6
CONTINUOUS
 10
-56.4985
 20
12.874599999999999
 30
0.0
 11
-56.401299999999999
 21
12.93260000000001
 31
0.0
  0
LINE
  5
5940
  8
240
  6
CONTINUOUS
 10
-56.401299999999999
 20
12.93260000000001
 30
0.0
 11
-56.303400000000011
 21
12.9892
 31
0.0
  0
LINE
  5
5941
  8
240
  6
CONTINUOUS
 10
-56.303400000000011
 20
12.9892
 30
0.0
 11
-56.204799999999999
 21
13.0442
 31
0.0
  0
LINE
  5
5942
  8
240
  6
CONTINUOUS
 10
-56.204799999999999
 20
13.0442
 30
0.0
 11
-56.105400000000003
 21
13.0977
 31
0.0
  0
LINE
  5
5943
  8
240
  6
CONTINUOUS
 10
-56.105400000000003
 20
13.0977
 30
0.0
 11
-56.005200000000002
 21
13.14969999999999
 31
0.0
  0
LINE
  5
5944
  8
240
  6
CONTINUOUS
 10
-56.005200000000002
 20
13.14969999999999
 30
0.0
 11
-55.904400000000003
 21
13.2003
 31
0.0
  0
LINE
  5
5945
  8
240
  6
CONTINUOUS
 10
-55.904400000000003
 20
13.2003
 30
0.0
 11
-55.802800000000012
 21
13.2493
 31
0.0
  0
LINE
  5
5946
  8
240
  6
CONTINUOUS
 10
-55.802800000000012
 20
13.2493
 30
0.0
 11
-55.700500000000012
 21
13.29689999999999
 31
0.0
  0
LINE
  5
5947
  8
240
  6
CONTINUOUS
 10
-55.700500000000012
 20
13.29689999999999
 30
0.0
 11
-55.597499999999997
 21
13.343
 31
0.0
  0
LINE
  5
5948
  8
240
  6
CONTINUOUS
 10
-55.597499999999997
 20
13.343
 30
0.0
 11
-55.493800000000007
 21
13.387600000000001
 31
0.0
  0
LINE
  5
5949
  8
240
  6
CONTINUOUS
 10
-55.493800000000007
 20
13.387600000000001
 30
0.0
 11
-55.389400000000009
 21
13.4307
 31
0.0
  0
LINE
  5
594A
  8
240
  6
CONTINUOUS
 10
-55.389400000000009
 20
13.4307
 30
0.0
 11
-55.284300000000002
 21
13.47239999999999
 31
0.0
  0
LINE
  5
594B
  8
240
  6
CONTINUOUS
 10
-55.284300000000002
 20
13.47239999999999
 30
0.0
 11
-55.1785
 21
13.51269999999999
 31
0.0
  0
LINE
  5
594C
  8
240
  6
CONTINUOUS
 10
-55.1785
 20
13.51269999999999
 30
0.0
 11
-55.072000000000003
 21
13.551500000000001
 31
0.0
  0
LINE
  5
594D
  8
240
  6
CONTINUOUS
 10
-55.072000000000003
 20
13.551500000000001
 30
0.0
 11
-54.9649
 21
13.588800000000001
 31
0.0
  0
LINE
  5
594E
  8
240
  6
CONTINUOUS
 10
-54.9649
 20
13.588800000000001
 30
0.0
 11
-54.857100000000003
 21
13.62479999999999
 31
0.0
  0
LINE
  5
594F
  8
240
  6
CONTINUOUS
 10
-54.857100000000003
 20
13.62479999999999
 30
0.0
 11
-54.748699999999999
 21
13.6593
 31
0.0
  0
LINE
  5
5950
  8
240
  6
CONTINUOUS
 10
-54.748699999999999
 20
13.6593
 30
0.0
 11
-54.639600000000002
 21
13.69239999999999
 31
0.0
  0
LINE
  5
5951
  8
240
  6
CONTINUOUS
 10
-54.639600000000002
 20
13.69239999999999
 30
0.0
 11
-54.529899999999991
 21
13.724
 31
0.0
  0
LINE
  5
5952
  8
240
  6
CONTINUOUS
 10
-54.529899999999991
 20
13.724
 30
0.0
 11
-54.419499999999999
 21
13.754300000000001
 31
0.0
  0
LINE
  5
5953
  8
240
  6
CONTINUOUS
 10
-54.419499999999999
 20
13.754300000000001
 30
0.0
 11
-54.308500000000009
 21
13.783099999999999
 31
0.0
  0
LINE
  5
5954
  8
240
  6
CONTINUOUS
 10
-54.308500000000009
 20
13.783099999999999
 30
0.0
 11
-54.196899999999999
 21
13.81059999999999
 31
0.0
  0
LINE
  5
5955
  8
240
  6
CONTINUOUS
 10
-54.196899999999999
 20
13.81059999999999
 30
0.0
 11
-54.084699999999998
 21
13.836700000000009
 31
0.0
  0
LINE
  5
5956
  8
240
  6
CONTINUOUS
 10
-54.084699999999998
 20
13.836700000000009
 30
0.0
 11
-53.971900000000012
 21
13.8614
 31
0.0
  0
LINE
  5
5957
  8
240
  6
CONTINUOUS
 10
-53.971900000000012
 20
13.8614
 30
0.0
 11
-53.858400000000003
 21
13.88469999999999
 31
0.0
  0
LINE
  5
5958
  8
240
  6
CONTINUOUS
 10
-53.858400000000003
 20
13.88469999999999
 30
0.0
 11
-53.744399999999992
 21
13.906599999999999
 31
0.0
  0
LINE
  5
5959
  8
240
  6
CONTINUOUS
 10
-53.744399999999992
 20
13.906599999999999
 30
0.0
 11
-53.629800000000003
 21
13.927199999999999
 31
0.0
  0
LINE
  5
595A
  8
240
  6
CONTINUOUS
 10
-53.629800000000003
 20
13.927199999999999
 30
0.0
 11
-53.514600000000002
 21
13.9465
 31
0.0
  0
LINE
  5
595B
  8
240
  6
CONTINUOUS
 10
-53.514600000000002
 20
13.9465
 30
0.0
 11
-53.398800000000001
 21
13.964299999999991
 31
0.0
  0
LINE
  5
595C
  8
240
  6
CONTINUOUS
 10
-53.398800000000001
 20
13.964299999999991
 30
0.0
 11
-53.282499999999999
 21
13.9809
 31
0.0
  0
LINE
  5
595D
  8
240
  6
CONTINUOUS
 10
-53.282499999999999
 20
13.9809
 30
0.0
 11
-53.165599999999991
 21
13.99599999999999
 31
0.0
  0
LINE
  5
595E
  8
240
  6
CONTINUOUS
 10
-53.165599999999991
 20
13.99599999999999
 30
0.0
 11
-53.048099999999991
 21
14.0099
 31
0.0
  0
LINE
  5
595F
  8
240
  6
CONTINUOUS
 10
-53.048099999999991
 20
14.0099
 30
0.0
 11
-52.93010000000001
 21
14.022399999999999
 31
0.0
  0
LINE
  5
5960
  8
240
  6
CONTINUOUS
 10
-52.93010000000001
 20
14.022399999999999
 30
0.0
 11
-52.811599999999991
 21
14.033600000000011
 31
0.0
  0
LINE
  5
5961
  8
240
  6
CONTINUOUS
 10
-52.811599999999991
 20
14.033600000000011
 30
0.0
 11
-52.69250000000001
 21
14.043499999999989
 31
0.0
  0
LINE
  5
5962
  8
240
  6
CONTINUOUS
 10
-52.69250000000001
 20
14.043499999999989
 30
0.0
 11
-52.572900000000011
 21
14.05209999999999
 31
0.0
  0
LINE
  5
5963
  8
240
  6
CONTINUOUS
 10
-52.572900000000011
 20
14.05209999999999
 30
0.0
 11
-52.452800000000011
 21
14.0594
 31
0.0
  0
LINE
  5
5964
  8
240
  6
CONTINUOUS
 10
-52.452800000000011
 20
14.0594
 30
0.0
 11
-52.33209999999999
 21
14.06539999999999
 31
0.0
  0
LINE
  5
5965
  8
240
  6
CONTINUOUS
 10
-52.33209999999999
 20
14.06539999999999
 30
0.0
 11
-52.210999999999991
 21
14.070099999999989
 31
0.0
  0
LINE
  5
5966
  8
240
  6
CONTINUOUS
 10
-52.210999999999991
 20
14.070099999999989
 30
0.0
 11
-52.089300000000009
 21
14.07349999999999
 31
0.0
  0
LINE
  5
5967
  8
240
  6
CONTINUOUS
 10
-52.089300000000009
 20
14.07349999999999
 30
0.0
 11
-51.967199999999998
 21
14.075599999999991
 31
0.0
  0
LINE
  5
5968
  8
240
  6
CONTINUOUS
 10
-51.967199999999998
 20
14.075599999999991
 30
0.0
 11
-51.8446
 21
14.07649999999999
 31
0.0
  0
LINE
  5
5969
  8
240
  6
CONTINUOUS
 10
-51.8446
 20
14.07649999999999
 30
0.0
 11
-51.721500000000013
 21
14.07599999999999
 31
0.0
  0
LINE
  5
596A
  8
240
  6
CONTINUOUS
 10
-51.721500000000013
 20
14.07599999999999
 30
0.0
 11
-51.597900000000003
 21
14.074400000000001
 31
0.0
  0
LINE
  5
596B
  8
240
  6
CONTINUOUS
 10
-51.597900000000003
 20
14.074400000000001
 30
0.0
 11
-51.473799999999997
 21
14.0715
 31
0.0
  0
LINE
  5
596C
  8
240
  6
CONTINUOUS
 10
-51.473799999999997
 20
14.0715
 30
0.0
 11
-51.349299999999999
 21
14.067299999999999
 31
0.0
  0
LINE
  5
596D
  8
240
  6
CONTINUOUS
 10
-51.349299999999999
 20
14.067299999999999
 30
0.0
 11
-51.224400000000003
 21
14.061899999999991
 31
0.0
  0
LINE
  5
596E
  8
240
  6
CONTINUOUS
 10
-51.224400000000003
 20
14.061899999999991
 30
0.0
 11
-51.0989
 21
14.055300000000001
 31
0.0
  0
LINE
  5
596F
  8
240
  6
CONTINUOUS
 10
-51.0989
 20
14.055300000000001
 30
0.0
 11
-50.973100000000002
 21
14.047399999999991
 31
0.0
  0
LINE
  5
5970
  8
240
  6
CONTINUOUS
 10
-50.973100000000002
 20
14.047399999999991
 30
0.0
 11
-50.846800000000002
 21
14.038299999999991
 31
0.0
  0
LINE
  5
5971
  8
240
  6
CONTINUOUS
 10
-50.846800000000002
 20
14.038299999999991
 30
0.0
 11
-50.720100000000002
 21
14.02799999999999
 31
0.0
  0
LINE
  5
5972
  8
240
  6
CONTINUOUS
 10
-50.720100000000002
 20
14.02799999999999
 30
0.0
 11
-50.593000000000004
 21
14.01650000000001
 31
0.0
  0
LINE
  5
5973
  8
240
  6
CONTINUOUS
 10
-50.593000000000004
 20
14.01650000000001
 30
0.0
 11
-50.465400000000002
 21
14.00369999999999
 31
0.0
  0
LINE
  5
5974
  8
240
  6
CONTINUOUS
 10
-50.465400000000002
 20
14.00369999999999
 30
0.0
 11
-50.337500000000013
 21
13.989800000000001
 31
0.0
  0
LINE
  5
5975
  8
240
  6
CONTINUOUS
 10
-50.337500000000013
 20
13.989800000000001
 30
0.0
 11
-50.209099999999999
 21
13.9747
 31
0.0
  0
LINE
  5
5976
  8
240
  6
CONTINUOUS
 10
-50.209099999999999
 20
13.9747
 30
0.0
 11
-50.080399999999997
 21
13.95839999999999
 31
0.0
  0
LINE
  5
5977
  8
240
  6
CONTINUOUS
 10
-50.080399999999997
 20
13.95839999999999
 30
0.0
 11
-49.9512
 21
13.940899999999999
 31
0.0
  0
LINE
  5
5978
  8
240
  6
CONTINUOUS
 10
-49.9512
 20
13.940899999999999
 30
0.0
 11
-49.821699999999993
 21
13.9223
 31
0.0
  0
LINE
  5
5979
  8
240
  6
CONTINUOUS
 10
-49.821699999999993
 20
13.9223
 30
0.0
 11
-49.691800000000001
 21
13.9025
 31
0.0
  0
LINE
  5
597A
  8
240
  6
CONTINUOUS
 10
-49.691800000000001
 20
13.9025
 30
0.0
 11
-49.561599999999999
 21
13.881500000000001
 31
0.0
  0
LINE
  5
597B
  8
240
  6
CONTINUOUS
 10
-49.561599999999999
 20
13.881500000000001
 30
0.0
 11
-49.430999999999997
 21
13.85939999999999
 31
0.0
  0
LINE
  5
597C
  8
240
  6
CONTINUOUS
 10
-49.430999999999997
 20
13.85939999999999
 30
0.0
 11
-49.29999999999999
 21
13.8361
 31
0.0
  0
LINE
  5
597D
  8
240
  6
CONTINUOUS
 10
-49.29999999999999
 20
13.8361
 30
0.0
 11
-49.168700000000001
 21
13.8117
 31
0.0
  0
LINE
  5
597E
  8
240
  6
CONTINUOUS
 10
-49.168700000000001
 20
13.8117
 30
0.0
 11
-49.036999999999999
 21
13.786099999999999
 31
0.0
  0
LINE
  5
597F
  8
240
  6
CONTINUOUS
 10
-49.036999999999999
 20
13.786099999999999
 30
0.0
 11
-48.90509999999999
 21
13.759399999999999
 31
0.0
  0
LINE
  5
5980
  8
240
  6
CONTINUOUS
 10
-48.90509999999999
 20
13.759399999999999
 30
0.0
 11
-48.772799999999982
 21
13.7316
 31
0.0
  0
LINE
  5
5981
  8
240
  6
CONTINUOUS
 10
-48.772799999999982
 20
13.7316
 30
0.0
 11
-48.640099999999997
 21
13.702699999999989
 31
0.0
  0
LINE
  5
5982
  8
240
  6
CONTINUOUS
 10
-48.640099999999997
 20
13.702699999999989
 30
0.0
 11
-48.50719999999999
 21
13.672700000000001
 31
0.0
  0
LINE
  5
5983
  8
240
  6
CONTINUOUS
 10
-48.50719999999999
 20
13.672700000000001
 30
0.0
 11
-48.373899999999999
 21
13.64150000000001
 31
0.0
  0
LINE
  5
5984
  8
240
  6
CONTINUOUS
 10
-48.373899999999999
 20
13.64150000000001
 30
0.0
 11
-48.240400000000001
 21
13.609299999999999
 31
0.0
  0
LINE
  5
5985
  8
240
  6
CONTINUOUS
 10
-48.240400000000001
 20
13.609299999999999
 30
0.0
 11
-48.1066
 21
13.57599999999999
 31
0.0
  0
LINE
  5
5986
  8
240
  6
CONTINUOUS
 10
-48.1066
 20
13.57599999999999
 30
0.0
 11
-47.972399999999993
 21
13.541600000000001
 31
0.0
  0
LINE
  5
5987
  8
240
  6
CONTINUOUS
 10
-47.972399999999993
 20
13.541600000000001
 30
0.0
 11
-47.837999999999987
 21
13.5061
 31
0.0
  0
LINE
  5
5988
  8
240
  6
CONTINUOUS
 10
-47.837999999999987
 20
13.5061
 30
0.0
 11
-47.703299999999999
 21
13.469499999999989
 31
0.0
  0
LINE
  5
5989
  8
240
  6
CONTINUOUS
 10
-47.703299999999999
 20
13.469499999999989
 30
0.0
 11
-47.56839999999999
 21
13.43179999999999
 31
0.0
  0
LINE
  5
598A
  8
240
  6
CONTINUOUS
 10
-47.56839999999999
 20
13.43179999999999
 30
0.0
 11
-47.433199999999992
 21
13.3931
 31
0.0
  0
LINE
  5
598B
  8
240
  6
CONTINUOUS
 10
-47.433199999999992
 20
13.3931
 30
0.0
 11
-47.297699999999992
 21
13.35339999999999
 31
0.0
  0
LINE
  5
598C
  8
240
  6
CONTINUOUS
 10
-47.297699999999992
 20
13.35339999999999
 30
0.0
 11
-47.161999999999992
 21
13.3126
 31
0.0
  0
LINE
  5
598D
  8
240
  6
CONTINUOUS
 10
-47.161999999999992
 20
13.3126
 30
0.0
 11
-47.026099999999992
 21
13.2707
 31
0.0
  0
LINE
  5
598E
  8
240
  6
CONTINUOUS
 10
-47.026099999999992
 20
13.2707
 30
0.0
 11
-46.889899999999983
 21
13.2278
 31
0.0
  0
LINE
  5
598F
  8
240
  6
CONTINUOUS
 10
-46.889899999999983
 20
13.2278
 30
0.0
 11
-46.753500000000003
 21
13.183899999999991
 31
0.0
  0
LINE
  5
5990
  8
240
  6
CONTINUOUS
 10
-46.753500000000003
 20
13.183899999999991
 30
0.0
 11
-46.616900000000001
 21
13.13899999999999
 31
0.0
  0
LINE
  5
5991
  8
240
  6
CONTINUOUS
 10
-46.616900000000001
 20
13.13899999999999
 30
0.0
 11
-46.480099999999993
 21
13.093
 31
0.0
  0
LINE
  5
5992
  8
240
  6
CONTINUOUS
 10
-46.480099999999993
 20
13.093
 30
0.0
 11
-46.343099999999993
 21
13.04599999999999
 31
0.0
  0
LINE
  5
5993
  8
240
  6
CONTINUOUS
 10
-46.343099999999993
 20
13.04599999999999
 30
0.0
 11
-46.205800000000011
 21
12.99809999999999
 31
0.0
  0
LINE
  5
5994
  8
240
  6
CONTINUOUS
 10
-46.205800000000011
 20
12.99809999999999
 30
0.0
 11
-46.068399999999997
 21
12.9491
 31
0.0
  0
LINE
  5
5995
  8
240
  6
CONTINUOUS
 10
-46.068399999999997
 20
12.9491
 30
0.0
 11
-45.930799999999991
 21
12.899100000000001
 31
0.0
  0
LINE
  5
5996
  8
240
  6
CONTINUOUS
 10
-45.930799999999991
 20
12.899100000000001
 30
0.0
 11
-45.792999999999992
 21
12.8482
 31
0.0
  0
LINE
  5
5997
  8
240
  6
CONTINUOUS
 10
-45.792999999999992
 20
12.8482
 30
0.0
 11
-45.655099999999983
 21
12.796200000000001
 31
0.0
  0
LINE
  5
5998
  8
240
  6
CONTINUOUS
 10
-45.655099999999983
 20
12.796200000000001
 30
0.0
 11
-45.516899999999993
 21
12.7433
 31
0.0
  0
LINE
  5
5999
  8
240
  6
CONTINUOUS
 10
-45.516899999999993
 20
12.7433
 30
0.0
 11
-45.378700000000002
 21
12.689399999999999
 31
0.0
  0
LINE
  5
599A
  8
240
  6
CONTINUOUS
 10
-45.378700000000002
 20
12.689399999999999
 30
0.0
 11
-45.240200000000002
 21
12.634600000000001
 31
0.0
  0
LINE
  5
599B
  8
240
  6
CONTINUOUS
 10
-45.240200000000002
 20
12.634600000000001
 30
0.0
 11
-45.101599999999991
 21
12.578799999999999
 31
0.0
  0
LINE
  5
599C
  8
240
  6
CONTINUOUS
 10
-45.101599999999991
 20
12.578799999999999
 30
0.0
 11
-44.962899999999991
 21
12.522
 31
0.0
  0
LINE
  5
599D
  8
240
  6
CONTINUOUS
 10
-44.962899999999991
 20
12.522
 30
0.0
 11
-44.824100000000001
 21
12.464299999999991
 31
0.0
  0
LINE
  5
599E
  8
240
  6
CONTINUOUS
 10
-44.824100000000001
 20
12.464299999999991
 30
0.0
 11
-44.685100000000013
 21
12.405699999999991
 31
0.0
  0
LINE
  5
599F
  8
240
  6
CONTINUOUS
 10
-44.685100000000013
 20
12.405699999999991
 30
0.0
 11
-44.545999999999992
 21
12.346100000000011
 31
0.0
  0
LINE
  5
59A0
  8
240
  6
CONTINUOUS
 10
-44.545999999999992
 20
12.346100000000011
 30
0.0
 11
-44.40679999999999
 21
12.285600000000001
 31
0.0
  0
LINE
  5
59A1
  8
240
  6
CONTINUOUS
 10
-44.40679999999999
 20
12.285600000000001
 30
0.0
 11
-44.267499999999998
 21
12.224199999999991
 31
0.0
  0
LINE
  5
59A2
  8
240
  6
CONTINUOUS
 10
-44.267499999999998
 20
12.224199999999991
 30
0.0
 11
-44.128100000000003
 21
12.161899999999999
 31
0.0
  0
LINE
  5
59A3
  8
240
  6
CONTINUOUS
 10
-44.128100000000003
 20
12.161899999999999
 30
0.0
 11
-43.988599999999991
 21
12.098599999999999
 31
0.0
  0
LINE
  5
59A4
  8
240
  6
CONTINUOUS
 10
-43.988599999999991
 20
12.098599999999999
 30
0.0
 11
-43.84899999999999
 21
12.034499999999991
 31
0.0
  0
LINE
  5
59A5
  8
240
  6
CONTINUOUS
 10
-43.84899999999999
 20
12.034499999999991
 30
0.0
 11
-43.709299999999999
 21
11.969499999999989
 31
0.0
  0
LINE
  5
59A6
  8
240
  6
CONTINUOUS
 10
-43.709299999999999
 20
11.969499999999989
 30
0.0
 11
-43.56959999999998
 21
11.90349999999999
 31
0.0
  0
LINE
  5
59A7
  8
240
  6
CONTINUOUS
 10
-43.56959999999998
 20
11.90349999999999
 30
0.0
 11
-43.429799999999993
 21
11.836700000000009
 31
0.0
  0
LINE
  5
59A8
  8
240
  6
CONTINUOUS
 10
-43.429799999999993
 20
11.836700000000009
 30
0.0
 11
-43.289999999999992
 21
11.769099999999989
 31
0.0
  0
LINE
  5
59A9
  8
240
  6
CONTINUOUS
 10
-43.289999999999992
 20
11.769099999999989
 30
0.0
 11
-43.150100000000002
 21
11.7005
 31
0.0
  0
LINE
  5
59AA
  8
240
  6
CONTINUOUS
 10
-43.150100000000002
 20
11.7005
 30
0.0
 11
-43.010099999999987
 21
11.6311
 31
0.0
  0
LINE
  5
59AB
  8
240
  6
CONTINUOUS
 10
-43.010099999999987
 20
11.6311
 30
0.0
 11
-42.870100000000008
 21
11.5608
 31
0.0
  0
LINE
  5
59AC
  8
240
  6
CONTINUOUS
 10
-42.870100000000008
 20
11.5608
 30
0.0
 11
-42.730099999999993
 21
11.489699999999999
 31
0.0
  0
LINE
  5
59AD
  8
240
  6
CONTINUOUS
 10
-42.730099999999993
 20
11.489699999999999
 30
0.0
 11
-42.590099999999993
 21
11.417699999999989
 31
0.0
  0
LINE
  5
59AE
  8
240
  6
CONTINUOUS
 10
-42.590099999999993
 20
11.417699999999989
 30
0.0
 11
-42.450000000000003
 21
11.34489999999999
 31
0.0
  0
LINE
  5
59AF
  8
240
  6
CONTINUOUS
 10
-42.450000000000003
 20
11.34489999999999
 30
0.0
 11
-42.323700000000002
 21
11.2714
 31
0.0
  0
LINE
  5
59B0
  8
240
  6
CONTINUOUS
 10
-42.323700000000002
 20
11.2714
 30
0.0
 11
-42.197899999999983
 21
11.196999999999999
 31
0.0
  0
LINE
  5
59B1
  8
240
  6
CONTINUOUS
 10
-42.197899999999983
 20
11.196999999999999
 30
0.0
 11
-42.072599999999987
 21
11.1219
 31
0.0
  0
LINE
  5
59B2
  8
240
  6
CONTINUOUS
 10
-42.072599999999987
 20
11.1219
 30
0.0
 11
-41.947999999999993
 21
11.0459
 31
0.0
  0
LINE
  5
59B3
  8
240
  6
CONTINUOUS
 10
-41.947999999999993
 20
11.0459
 30
0.0
 11
-41.823900000000002
 21
10.969200000000001
 31
0.0
  0
LINE
  5
59B4
  8
240
  6
CONTINUOUS
 10
-41.823900000000002
 20
10.969200000000001
 30
0.0
 11
-41.700400000000002
 21
10.89159999999999
 31
0.0
  0
LINE
  5
59B5
  8
240
  6
CONTINUOUS
 10
-41.700400000000002
 20
10.89159999999999
 30
0.0
 11
-41.577599999999983
 21
10.8133
 31
0.0
  0
LINE
  5
59B6
  8
240
  6
CONTINUOUS
 10
-41.577599999999983
 20
10.8133
 30
0.0
 11
-41.455299999999987
 21
10.734299999999999
 31
0.0
  0
LINE
  5
59B7
  8
240
  6
CONTINUOUS
 10
-41.455299999999987
 20
10.734299999999999
 30
0.0
 11
-41.333699999999993
 21
10.654500000000001
 31
0.0
  0
LINE
  5
59B8
  8
240
  6
CONTINUOUS
 10
-41.333699999999993
 20
10.654500000000001
 30
0.0
 11
-41.212699999999977
 21
10.573899999999989
 31
0.0
  0
LINE
  5
59B9
  8
240
  6
CONTINUOUS
 10
-41.212699999999977
 20
10.573899999999989
 30
0.0
 11
-41.092399999999991
 21
10.492599999999991
 31
0.0
  0
LINE
  5
59BA
  8
240
  6
CONTINUOUS
 10
-41.092399999999991
 20
10.492599999999991
 30
0.0
 11
-40.972700000000003
 21
10.410600000000001
 31
0.0
  0
LINE
  5
59BB
  8
240
  6
CONTINUOUS
 10
-40.972700000000003
 20
10.410600000000001
 30
0.0
 11
-40.8536
 21
10.327799999999989
 31
0.0
  0
LINE
  5
59BC
  8
240
  6
CONTINUOUS
 10
-40.8536
 20
10.327799999999989
 30
0.0
 11
-40.735299999999988
 21
10.24429999999999
 31
0.0
  0
LINE
  5
59BD
  8
240
  6
CONTINUOUS
 10
-40.735299999999988
 20
10.24429999999999
 30
0.0
 11
-40.61760000000001
 21
10.1602
 31
0.0
  0
LINE
  5
59BE
  8
240
  6
CONTINUOUS
 10
-40.61760000000001
 20
10.1602
 30
0.0
 11
-40.500699999999988
 21
10.0753
 31
0.0
  0
LINE
  5
59BF
  8
240
  6
CONTINUOUS
 10
-40.500699999999988
 20
10.0753
 30
0.0
 11
-40.384399999999999
 21
9.9897299999999944
 31
0.0
  0
LINE
  5
59C0
  8
240
  6
CONTINUOUS
 10
-40.384399999999999
 20
9.9897299999999944
 30
0.0
 11
-40.268900000000002
 21
9.903490000000005
 31
0.0
  0
LINE
  5
59C1
  8
240
  6
CONTINUOUS
 10
-40.268900000000002
 20
9.903490000000005
 30
0.0
 11
-40.1541
 21
9.8165800000000019
 31
0.0
  0
LINE
  5
59C2
  8
240
  6
CONTINUOUS
 10
-40.1541
 20
9.8165800000000019
 30
0.0
 11
-40.040100000000002
 21
9.7289999999999992
 31
0.0
  0
LINE
  5
59C3
  8
240
  6
CONTINUOUS
 10
-40.040100000000002
 20
9.7289999999999992
 30
0.0
 11
-39.9268
 21
9.6407700000000034
 31
0.0
  0
LINE
  5
59C4
  8
240
  6
CONTINUOUS
 10
-39.9268
 20
9.6407700000000034
 30
0.0
 11
-39.8142
 21
9.551879999999997
 31
0.0
  0
LINE
  5
59C5
  8
240
  6
CONTINUOUS
 10
-39.8142
 20
9.551879999999997
 30
0.0
 11
-39.702399999999997
 21
9.4623600000000039
 31
0.0
  0
LINE
  5
59C6
  8
240
  6
CONTINUOUS
 10
-39.702399999999997
 20
9.4623600000000039
 30
0.0
 11
-39.5914
 21
9.3722099999999955
 31
0.0
  0
LINE
  5
59C7
  8
240
  6
CONTINUOUS
 10
-39.5914
 20
9.3722099999999955
 30
0.0
 11
-39.481200000000001
 21
9.2814400000000035
 31
0.0
  0
LINE
  5
59C8
  8
240
  6
CONTINUOUS
 10
-39.481200000000001
 20
9.2814400000000035
 30
0.0
 11
-39.371800000000007
 21
9.1900499999999994
 31
0.0
  0
LINE
  5
59C9
  8
240
  6
CONTINUOUS
 10
-39.371800000000007
 20
9.1900499999999994
 30
0.0
 11
-39.263199999999998
 21
9.0980600000000038
 31
0.0
  0
LINE
  5
59CA
  8
240
  6
CONTINUOUS
 10
-39.263199999999998
 20
9.0980600000000038
 30
0.0
 11
-39.155500000000018
 21
9.0054599999999994
 31
0.0
  0
LINE
  5
59CB
  8
240
  6
CONTINUOUS
 10
-39.155500000000018
 20
9.0054599999999994
 30
0.0
 11
-39.04849999999999
 21
8.9122799999999955
 31
0.0
  0
LINE
  5
59CC
  8
240
  6
CONTINUOUS
 10
-39.04849999999999
 20
8.9122799999999955
 30
0.0
 11
-38.942399999999992
 21
8.8185200000000066
 31
0.0
  0
LINE
  5
59CD
  8
240
  6
CONTINUOUS
 10
-38.942399999999992
 20
8.8185200000000066
 30
0.0
 11
-38.837200000000003
 21
8.724180000000004
 31
0.0
  0
LINE
  5
59CE
  8
240
  6
CONTINUOUS
 10
-38.837200000000003
 20
8.724180000000004
 30
0.0
 11
-38.732799999999997
 21
8.6292799999999943
 31
0.0
  0
LINE
  5
59CF
  8
240
  6
CONTINUOUS
 10
-38.732799999999997
 20
8.6292799999999943
 30
0.0
 11
-38.629300000000001
 21
8.5338300000000071
 31
0.0
  0
LINE
  5
59D0
  8
240
  6
CONTINUOUS
 10
-38.629300000000001
 20
8.5338300000000071
 30
0.0
 11
-38.526700000000012
 21
8.4378200000000021
 31
0.0
  0
LINE
  5
59D1
  8
240
  6
CONTINUOUS
 10
-38.526700000000012
 20
8.4378200000000021
 30
0.0
 11
-38.424999999999997
 21
8.3412799999999976
 31
0.0
  0
LINE
  5
59D2
  8
240
  6
CONTINUOUS
 10
-38.424999999999997
 20
8.3412799999999976
 30
0.0
 11
-38.32419999999999
 21
8.2442100000000096
 31
0.0
  0
LINE
  5
59D3
  8
240
  6
CONTINUOUS
 10
-38.32419999999999
 20
8.2442100000000096
 30
0.0
 11
-38.224299999999999
 21
8.1466099999999955
 31
0.0
  0
LINE
  5
59D4
  8
240
  6
CONTINUOUS
 10
-38.224299999999999
 20
8.1466099999999955
 30
0.0
 11
-38.12530000000001
 21
8.0485000000000042
 31
0.0
  0
LINE
  5
59D5
  8
240
  6
CONTINUOUS
 10
-38.12530000000001
 20
8.0485000000000042
 30
0.0
 11
-38.027299999999997
 21
7.9498800000000074
 31
0.0
  0
LINE
  5
59D6
  8
240
  6
CONTINUOUS
 10
-38.027299999999997
 20
7.9498800000000074
 30
0.0
 11
-37.930199999999999
 21
7.8507600000000082
 31
0.0
  0
LINE
  5
59D7
  8
240
  6
CONTINUOUS
 10
-37.930199999999999
 20
7.8507600000000082
 30
0.0
 11
-37.834100000000007
 21
7.7511599999999978
 31
0.0
  0
LINE
  5
59D8
  8
240
  6
CONTINUOUS
 10
-37.834100000000007
 20
7.7511599999999978
 30
0.0
 11
-37.738900000000001
 21
7.6510700000000043
 31
0.0
  0
LINE
  5
59D9
  8
240
  6
CONTINUOUS
 10
-37.738900000000001
 20
7.6510700000000043
 30
0.0
 11
-37.6447
 21
7.5505100000000018
 31
0.0
  0
LINE
  5
59DA
  8
240
  6
CONTINUOUS
 10
-37.6447
 20
7.5505100000000018
 30
0.0
 11
-37.551499999999997
 21
7.4494799999999941
 31
0.0
  0
LINE
  5
59DB
  8
240
  6
CONTINUOUS
 10
-37.551499999999997
 20
7.4494799999999941
 30
0.0
 11
-37.459299999999999
 21
7.3479999999999981
 31
0.0
  0
LINE
  5
59DC
  8
240
  6
CONTINUOUS
 10
-37.459299999999999
 20
7.3479999999999981
 30
0.0
 11
-37.368099999999998
 21
7.2460700000000031
 31
0.0
  0
LINE
  5
59DD
  8
240
  6
CONTINUOUS
 10
-37.368099999999998
 20
7.2460700000000031
 30
0.0
 11
-37.277999999999992
 21
7.1436999999999946
 31
0.0
  0
LINE
  5
59DE
  8
240
  6
CONTINUOUS
 10
-37.277999999999992
 20
7.1436999999999946
 30
0.0
 11
-37.188800000000001
 21
7.0408900000000036
 31
0.0
  0
LINE
  5
59DF
  8
240
  6
CONTINUOUS
 10
-37.188800000000001
 20
7.0408900000000036
 30
0.0
 11
-37.100700000000003
 21
6.9376699999999971
 31
0.0
  0
LINE
  5
59E0
  8
240
  6
CONTINUOUS
 10
-37.100700000000003
 20
6.9376699999999971
 30
0.0
 11
-37.0137
 21
6.8340299999999976
 31
0.0
  0
LINE
  5
59E1
  8
240
  6
CONTINUOUS
 10
-37.0137
 20
6.8340299999999976
 30
0.0
 11
-36.927700000000002
 21
6.7299799999999967
 31
0.0
  0
LINE
  5
59E2
  8
240
  6
CONTINUOUS
 10
-36.927700000000002
 20
6.7299799999999967
 30
0.0
 11
-36.842799999999997
 21
6.6255299999999968
 31
0.0
  0
LINE
  5
59E3
  8
240
  6
CONTINUOUS
 10
-36.842799999999997
 20
6.6255299999999968
 30
0.0
 11
-36.758899999999997
 21
6.520700000000005
 31
0.0
  0
LINE
  5
59E4
  8
240
  6
CONTINUOUS
 10
-36.758899999999997
 20
6.520700000000005
 30
0.0
 11
-36.676199999999987
 21
6.4154800000000023
 31
0.0
  0
LINE
  5
59E5
  8
240
  6
CONTINUOUS
 10
-36.676199999999987
 20
6.4154800000000023
 30
0.0
 11
-36.594499999999996
 21
6.3098899999999949
 31
0.0
  0
LINE
  5
59E6
  8
240
  6
CONTINUOUS
 10
-36.594499999999996
 20
6.3098899999999949
 30
0.0
 11
-36.51400000000001
 21
6.2039299999999988
 31
0.0
  0
LINE
  5
59E7
  8
240
  6
CONTINUOUS
 10
-36.51400000000001
 20
6.2039299999999988
 30
0.0
 11
-36.434600000000017
 21
6.0976100000000031
 31
0.0
  0
LINE
  5
59E8
  8
240
  6
CONTINUOUS
 10
-36.434600000000017
 20
6.0976100000000031
 30
0.0
 11
-36.356300000000012
 21
5.9909499999999971
 31
0.0
  0
LINE
  5
59E9
  8
240
  6
CONTINUOUS
 10
-36.356300000000012
 20
5.9909499999999971
 30
0.0
 11
-36.279200000000003
 21
5.8839499999999978
 31
0.0
  0
LINE
  5
59EA
  8
240
  6
CONTINUOUS
 10
-36.279200000000003
 20
5.8839499999999978
 30
0.0
 11
-36.20320000000001
 21
5.7766100000000051
 31
0.0
  0
LINE
  5
59EB
  8
240
  6
CONTINUOUS
 10
-36.20320000000001
 20
5.7766100000000051
 30
0.0
 11
-36.128399999999999
 21
5.6689499999999953
 31
0.0
  0
LINE
  5
59EC
  8
240
  6
CONTINUOUS
 10
-36.128399999999999
 20
5.6689499999999953
 30
0.0
 11
-36.0548
 21
5.5609799999999998
 31
0.0
  0
LINE
  5
59ED
  8
240
  6
CONTINUOUS
 10
-36.0548
 20
5.5609799999999998
 30
0.0
 11
-35.982300000000009
 21
5.4527000000000072
 31
0.0
  0
LINE
  5
59EE
  8
240
  6
CONTINUOUS
 10
-35.982300000000009
 20
5.4527000000000072
 30
0.0
 11
-35.911099999999998
 21
5.3441200000000029
 31
0.0
  0
LINE
  5
59EF
  8
240
  6
CONTINUOUS
 10
-35.911099999999998
 20
5.3441200000000029
 30
0.0
 11
-35.841000000000008
 21
5.2352500000000068
 31
0.0
  0
LINE
  5
59F0
  8
240
  6
CONTINUOUS
 10
-35.841000000000008
 20
5.2352500000000068
 30
0.0
 11
-35.772199999999998
 21
5.126090000000004
 31
0.0
  0
LINE
  5
59F1
  8
240
  6
CONTINUOUS
 10
-35.772199999999998
 20
5.126090000000004
 30
0.0
 11
-35.704599999999999
 21
5.0166600000000008
 31
0.0
  0
LINE
  5
59F2
  8
240
  6
CONTINUOUS
 10
-35.704599999999999
 20
5.0166600000000008
 30
0.0
 11
-35.638199999999998
 21
4.9069700000000012
 31
0.0
  0
LINE
  5
59F3
  8
240
  6
CONTINUOUS
 10
-35.638199999999998
 20
4.9069700000000012
 30
0.0
 11
-35.573099999999997
 21
4.7970200000000034
 31
0.0
  0
LINE
  5
59F4
  8
240
  6
CONTINUOUS
 10
-35.573099999999997
 20
4.7970200000000034
 30
0.0
 11
-35.5092
 21
4.6868199999999973
 31
0.0
  0
LINE
  5
59F5
  8
240
  6
CONTINUOUS
 10
-35.5092
 20
4.6868199999999973
 30
0.0
 11
-35.446599999999989
 21
4.5763800000000003
 31
0.0
  0
LINE
  5
59F6
  8
240
  6
CONTINUOUS
 10
-35.446599999999989
 20
4.5763800000000003
 30
0.0
 11
-35.385300000000001
 21
4.4657100000000014
 31
0.0
  0
LINE
  5
59F7
  8
240
  6
CONTINUOUS
 10
-35.385300000000001
 20
4.4657100000000014
 30
0.0
 11
-35.325299999999999
 21
4.3548099999999996
 31
0.0
  0
LINE
  5
59F8
  8
240
  6
CONTINUOUS
 10
-35.325299999999999
 20
4.3548099999999996
 30
0.0
 11
-35.266500000000008
 21
4.243700000000004
 31
0.0
  0
LINE
  5
59F9
  8
240
  6
CONTINUOUS
 10
-35.266500000000008
 20
4.243700000000004
 30
0.0
 11
-35.209100000000007
 21
4.1323799999999968
 31
0.0
  0
LINE
  5
59FA
  8
240
  6
CONTINUOUS
 10
-35.209100000000007
 20
4.1323799999999968
 30
0.0
 11
-35.152999999999992
 21
4.0208599999999981
 31
0.0
  0
LINE
  5
59FB
  8
240
  6
CONTINUOUS
 10
-35.152999999999992
 20
4.0208599999999981
 30
0.0
 11
-35.098199999999991
 21
3.9091499999999959
 31
0.0
  0
LINE
  5
59FC
  8
240
  6
CONTINUOUS
 10
-35.098199999999991
 20
3.9091499999999959
 30
0.0
 11
-35.044800000000009
 21
3.797250000000004
 31
0.0
  0
LINE
  5
59FD
  8
240
  6
CONTINUOUS
 10
-35.044800000000009
 20
3.797250000000004
 30
0.0
 11
-34.992699999999999
 21
3.6851800000000021
 31
0.0
  0
LINE
  5
59FE
  8
240
  6
CONTINUOUS
 10
-34.992699999999999
 20
3.6851800000000021
 30
0.0
 11
-34.942000000000007
 21
3.572950000000005
 31
0.0
  0
LINE
  5
59FF
  8
240
  6
CONTINUOUS
 10
-34.942000000000007
 20
3.572950000000005
 30
0.0
 11
-34.892600000000002
 21
3.4605600000000001
 31
0.0
  0
LINE
  5
5A00
  8
240
  6
CONTINUOUS
 10
-34.892600000000002
 20
3.4605600000000001
 30
0.0
 11
-34.844700000000003
 21
3.348020000000004
 31
0.0
  0
LINE
  5
5A01
  8
240
  6
CONTINUOUS
 10
-34.844700000000003
 20
3.348020000000004
 30
0.0
 11
-34.798099999999998
 21
3.235340000000007
 31
0.0
  0
LINE
  5
5A02
  8
240
  6
CONTINUOUS
 10
-34.798099999999998
 20
3.235340000000007
 30
0.0
 11
-34.752899999999997
 21
3.1225199999999931
 31
0.0
  0
LINE
  5
5A03
  8
240
  6
CONTINUOUS
 10
-34.752899999999997
 20
3.1225199999999931
 30
0.0
 11
-34.709100000000007
 21
3.0095799999999988
 31
0.0
  0
LINE
  5
5A04
  8
240
  6
CONTINUOUS
 10
-34.709100000000007
 20
3.0095799999999988
 30
0.0
 11
-34.666800000000002
 21
2.896519999999994
 31
0.0
  0
LINE
  5
5A05
  8
240
  6
CONTINUOUS
 10
-34.666800000000002
 20
2.896519999999994
 30
0.0
 11
-34.625900000000001
 21
2.7833600000000009
 31
0.0
  0
LINE
  5
5A06
  8
240
  6
CONTINUOUS
 10
-34.625900000000001
 20
2.7833600000000009
 30
0.0
 11
-34.586399999999998
 21
2.6701000000000041
 31
0.0
  0
LINE
  5
5A07
  8
240
  6
CONTINUOUS
 10
-34.586399999999998
 20
2.6701000000000041
 30
0.0
 11
-34.548400000000001
 21
2.556740000000004
 31
0.0
  0
LINE
  5
5A08
  8
240
  6
CONTINUOUS
 10
-34.548400000000001
 20
2.556740000000004
 30
0.0
 11
-34.511899999999997
 21
2.4432999999999931
 31
0.0
  0
LINE
  5
5A09
  8
240
  6
CONTINUOUS
 10
-34.511899999999997
 20
2.4432999999999931
 30
0.0
 11
-34.476799999999997
 21
2.3297900000000018
 31
0.0
  0
LINE
  5
5A0A
  8
240
  6
CONTINUOUS
 10
-34.476799999999997
 20
2.3297900000000018
 30
0.0
 11
-34.44319999999999
 21
2.2162100000000029
 31
0.0
  0
LINE
  5
5A0B
  8
240
  6
CONTINUOUS
 10
-34.44319999999999
 20
2.2162100000000029
 30
0.0
 11
-34.411100000000012
 21
2.1025699999999992
 31
0.0
  0
LINE
  5
5A0C
  8
240
  6
CONTINUOUS
 10
-34.411100000000012
 20
2.1025699999999992
 30
0.0
 11
-34.380499999999998
 21
1.988879999999994
 31
0.0
  0
LINE
  5
5A0D
  8
240
  6
CONTINUOUS
 10
-34.380499999999998
 20
1.988879999999994
 30
0.0
 11
-34.351500000000001
 21
1.8751500000000041
 31
0.0
  0
LINE
  5
5A0E
  8
240
  6
CONTINUOUS
 10
-34.351500000000001
 20
1.8751500000000041
 30
0.0
 11
-34.323900000000009
 21
1.7613900000000049
 31
0.0
  0
LINE
  5
5A0F
  8
240
  6
CONTINUOUS
 10
-34.323900000000009
 20
1.7613900000000049
 30
0.0
 11
-34.297899999999998
 21
1.647599999999996
 31
0.0
  0
LINE
  5
5A10
  8
240
  6
CONTINUOUS
 10
-34.297899999999998
 20
1.647599999999996
 30
0.0
 11
-34.273499999999999
 21
1.5337999999999989
 31
0.0
  0
LINE
  5
5A11
  8
240
  6
CONTINUOUS
 10
-34.273499999999999
 20
1.5337999999999989
 30
0.0
 11
-34.250599999999991
 21
1.4199799999999949
 31
0.0
  0
LINE
  5
5A12
  8
240
  6
CONTINUOUS
 10
-34.250599999999991
 20
1.4199799999999949
 30
0.0
 11
-34.229199999999992
 21
1.3061699999999941
 31
0.0
  0
LINE
  5
5A13
  8
240
  6
CONTINUOUS
 10
-34.229199999999992
 20
1.3061699999999941
 30
0.0
 11
-34.209499999999991
 21
1.1923699999999959
 31
0.0
  0
LINE
  5
5A14
  8
240
  6
CONTINUOUS
 10
-34.209499999999991
 20
1.1923699999999959
 30
0.0
 11
-34.191299999999998
 21
1.0785800000000021
 31
0.0
  0
LINE
  5
5A15
  8
240
  6
CONTINUOUS
 10
-34.191299999999998
 20
1.0785800000000021
 30
0.0
 11
-34.174800000000012
 21
0.9648150000000013
 31
0.0
  0
LINE
  5
5A16
  8
240
  6
CONTINUOUS
 10
-34.174800000000012
 20
0.9648150000000013
 30
0.0
 11
-34.15979999999999
 21
0.8510849999999974
 31
0.0
  0
LINE
  5
5A17
  8
240
  6
CONTINUOUS
 10
-34.15979999999999
 20
0.8510849999999974
 30
0.0
 11
-34.146500000000003
 21
0.7373960000000038
 31
0.0
  0
LINE
  5
5A18
  8
240
  6
CONTINUOUS
 10
-34.146500000000003
 20
0.7373960000000038
 30
0.0
 11
-34.134799999999998
 21
0.6237569999999975
 31
0.0
  0
LINE
  5
5A19
  8
240
  6
CONTINUOUS
 10
-34.134799999999998
 20
0.6237569999999975
 30
0.0
 11
-34.12469999999999
 21
0.5101760000000012
 31
0.0
  0
LINE
  5
5A1A
  8
240
  6
CONTINUOUS
 10
-34.12469999999999
 20
0.5101760000000012
 30
0.0
 11
-34.11630000000001
 21
0.3966609999999943
 31
0.0
  0
LINE
  5
5A1B
  8
240
  6
CONTINUOUS
 10
-34.11630000000001
 20
0.3966609999999943
 30
0.0
 11
-34.109499999999997
 21
0.2832199999999998
 31
0.0
  0
LINE
  5
5A1C
  8
240
  6
CONTINUOUS
 10
-34.109499999999997
 20
0.2832199999999998
 30
0.0
 11
-34.104500000000002
 21
0.1698630000000063
 31
0.0
  0
LINE
  5
5A1D
  8
240
  6
CONTINUOUS
 10
-34.104500000000002
 20
0.1698630000000063
 30
0.0
 11
-34.101100000000002
 21
0.0565964000000034
 31
0.0
  0
LINE
  5
5A1E
  8
240
  6
CONTINUOUS
 10
-34.101100000000002
 20
0.0565964000000034
 30
0.0
 11
-34.09940000000001
 21
-0.0565706000000009
 31
0.0
  0
LINE
  5
5A1F
  8
240
  6
CONTINUOUS
 10
-34.09940000000001
 20
-0.0565706000000009
 30
0.0
 11
-34.099299999999999
 21
-0.1696330000000048
 31
0.0
  0
LINE
  5
5A20
  8
240
  6
CONTINUOUS
 10
-34.099299999999999
 20
-0.1696330000000048
 30
0.0
 11
-34.100999999999999
 21
-0.2825869999999926
 31
0.0
  0
LINE
  5
5A21
  8
240
  6
CONTINUOUS
 10
-34.100999999999999
 20
-0.2825869999999926
 30
0.0
 11
-34.104399999999998
 21
-0.3954310000000024
 31
0.0
  0
LINE
  5
5A22
  8
240
  6
CONTINUOUS
 10
-34.104399999999998
 20
-0.3954310000000024
 30
0.0
 11
-34.109400000000001
 21
-0.5081610000000014
 31
0.0
  0
LINE
  5
5A23
  8
240
  6
CONTINUOUS
 10
-34.109400000000001
 20
-0.5081610000000014
 30
0.0
 11
-34.116
 21
-0.6207759999999924
 31
0.0
  0
LINE
  5
5A24
  8
240
  6
CONTINUOUS
 10
-34.116
 20
-0.6207759999999924
 30
0.0
 11
-34.124400000000009
 21
-0.7332719999999997
 31
0.0
  0
LINE
  5
5A25
  8
240
  6
CONTINUOUS
 10
-34.124400000000009
 20
-0.7332719999999997
 30
0.0
 11
-34.134300000000003
 21
-0.8456469999999997
 31
0.0
  0
LINE
  5
5A26
  8
240
  6
CONTINUOUS
 10
-34.134300000000003
 20
-0.8456469999999997
 30
0.0
 11
-34.145899999999997
 21
-0.9578980000000003
 31
0.0
  0
LINE
  5
5A27
  8
240
  6
CONTINUOUS
 10
-34.145899999999997
 20
-0.9578980000000003
 30
0.0
 11
-34.159100000000002
 21
-1.0700199999999991
 31
0.0
  0
LINE
  5
5A28
  8
240
  6
CONTINUOUS
 10
-34.159100000000002
 20
-1.0700199999999991
 30
0.0
 11
-34.174000000000007
 21
-1.1820199999999941
 31
0.0
  0
LINE
  5
5A29
  8
240
  6
CONTINUOUS
 10
-34.174000000000007
 20
-1.1820199999999941
 30
0.0
 11
-34.190399999999997
 21
-1.293880000000001
 31
0.0
  0
LINE
  5
5A2A
  8
240
  6
CONTINUOUS
 10
-34.190399999999997
 20
-1.293880000000001
 30
0.0
 11
-34.208399999999997
 21
-1.4056099999999949
 31
0.0
  0
LINE
  5
5A2B
  8
240
  6
CONTINUOUS
 10
-34.208399999999997
 20
-1.4056099999999949
 30
0.0
 11
-34.228099999999998
 21
-1.5172000000000021
 31
0.0
  0
LINE
  5
5A2C
  8
240
  6
CONTINUOUS
 10
-34.228099999999998
 20
-1.5172000000000021
 30
0.0
 11
-34.249300000000012
 21
-1.6286400000000041
 31
0.0
  0
LINE
  5
5A2D
  8
240
  6
CONTINUOUS
 10
-34.249300000000012
 20
-1.6286400000000041
 30
0.0
 11
-34.271999999999991
 21
-1.739949999999993
 31
0.0
  0
LINE
  5
5A2E
  8
240
  6
CONTINUOUS
 10
-34.271999999999991
 20
-1.739949999999993
 30
0.0
 11
-34.296400000000013
 21
-1.8511099999999909
 31
0.0
  0
LINE
  5
5A2F
  8
240
  6
CONTINUOUS
 10
-34.296400000000013
 20
-1.8511099999999909
 30
0.0
 11
-34.322299999999998
 21
-1.9621199999999981
 31
0.0
  0
LINE
  5
5A30
  8
240
  6
CONTINUOUS
 10
-34.322299999999998
 20
-1.9621199999999981
 30
0.0
 11
-34.349699999999999
 21
-2.0729800000000012
 31
0.0
  0
LINE
  5
5A31
  8
240
  6
CONTINUOUS
 10
-34.349699999999999
 20
-2.0729800000000012
 30
0.0
 11
-34.378700000000009
 21
-2.183689999999999
 31
0.0
  0
LINE
  5
5A32
  8
240
  6
CONTINUOUS
 10
-34.378700000000009
 20
-2.183689999999999
 30
0.0
 11
-34.409199999999998
 21
-2.2942400000000021
 31
0.0
  0
LINE
  5
5A33
  8
240
  6
CONTINUOUS
 10
-34.409199999999998
 20
-2.2942400000000021
 30
0.0
 11
-34.441200000000009
 21
-2.4046299999999969
 31
0.0
  0
LINE
  5
5A34
  8
240
  6
CONTINUOUS
 10
-34.441200000000009
 20
-2.4046299999999969
 30
0.0
 11
-34.474699999999999
 21
-2.5148599999999992
 31
0.0
  0
LINE
  5
5A35
  8
240
  6
CONTINUOUS
 10
-34.474699999999999
 20
-2.5148599999999992
 30
0.0
 11
-34.509799999999998
 21
-2.624920000000003
 31
0.0
  0
LINE
  5
5A36
  8
240
  6
CONTINUOUS
 10
-34.509799999999998
 20
-2.624920000000003
 30
0.0
 11
-34.546300000000002
 21
-2.7348199999999991
 31
0.0
  0
LINE
  5
5A37
  8
240
  6
CONTINUOUS
 10
-34.546300000000002
 20
-2.7348199999999991
 30
0.0
 11
-34.584299999999999
 21
-2.844539999999995
 31
0.0
  0
LINE
  5
5A38
  8
240
  6
CONTINUOUS
 10
-34.584299999999999
 20
-2.844539999999995
 30
0.0
 11
-34.623800000000003
 21
-2.9540899999999941
 31
0.0
  0
LINE
  5
5A39
  8
240
  6
CONTINUOUS
 10
-34.623800000000003
 20
-2.9540899999999941
 30
0.0
 11
-34.664700000000011
 21
-3.0634699999999948
 31
0.0
  0
LINE
  5
5A3A
  8
240
  6
CONTINUOUS
 10
-34.664700000000011
 20
-3.0634699999999948
 30
0.0
 11
-34.707099999999997
 21
-3.1726699999999961
 31
0.0
  0
LINE
  5
5A3B
  8
240
  6
CONTINUOUS
 10
-34.707099999999997
 20
-3.1726699999999961
 30
0.0
 11
-34.751000000000012
 21
-3.2816799999999939
 31
0.0
  0
LINE
  5
5A3C
  8
240
  6
CONTINUOUS
 10
-34.751000000000012
 20
-3.2816799999999939
 30
0.0
 11
-34.796300000000002
 21
-3.3905199999999951
 31
0.0
  0
LINE
  5
5A3D
  8
240
  6
CONTINUOUS
 10
-34.796300000000002
 20
-3.3905199999999951
 30
0.0
 11
-34.843000000000018
 21
-3.4991600000000029
 31
0.0
  0
LINE
  5
5A3E
  8
240
  6
CONTINUOUS
 10
-34.843000000000018
 20
-3.4991600000000029
 30
0.0
 11
-34.891199999999998
 21
-3.6076199999999972
 31
0.0
  0
LINE
  5
5A3F
  8
240
  6
CONTINUOUS
 10
-34.891199999999998
 20
-3.6076199999999972
 30
0.0
 11
-34.940699999999993
 21
-3.7158799999999981
 31
0.0
  0
LINE
  5
5A40
  8
240
  6
CONTINUOUS
 10
-34.940699999999993
 20
-3.7158799999999981
 30
0.0
 11
-34.991700000000009
 21
-3.823949999999996
 31
0.0
  0
LINE
  5
5A41
  8
240
  6
CONTINUOUS
 10
-34.991700000000009
 20
-3.823949999999996
 30
0.0
 11
-35.0441
 21
-3.9318299999999908
 31
0.0
  0
LINE
  5
5A42
  8
240
  6
CONTINUOUS
 10
-35.0441
 20
-3.9318299999999908
 30
0.0
 11
-35.097800000000007
 21
-4.039500000000003
 31
0.0
  0
LINE
  5
5A43
  8
240
  6
CONTINUOUS
 10
-35.097800000000007
 20
-4.039500000000003
 30
0.0
 11
-35.152999999999992
 21
-4.146969999999996
 31
0.0
  0
LINE
  5
5A44
  8
240
  6
CONTINUOUS
 10
-35.152999999999992
 20
-4.146969999999996
 30
0.0
 11
-35.209499999999991
 21
-4.2542299999999917
 31
0.0
  0
LINE
  5
5A45
  8
240
  6
CONTINUOUS
 10
-35.209499999999991
 20
-4.2542299999999917
 30
0.0
 11
-35.267400000000009
 21
-4.3612799999999927
 31
0.0
  0
LINE
  5
5A46
  8
240
  6
CONTINUOUS
 10
-35.267400000000009
 20
-4.3612799999999927
 30
0.0
 11
-35.326599999999999
 21
-4.4681300000000022
 31
0.0
  0
LINE
  5
5A47
  8
240
  6
CONTINUOUS
 10
-35.326599999999999
 20
-4.4681300000000022
 30
0.0
 11
-35.387099999999997
 21
-4.5747599999999968
 31
0.0
  0
LINE
  5
5A48
  8
240
  6
CONTINUOUS
 10
-35.387099999999997
 20
-4.5747599999999968
 30
0.0
 11
-35.449100000000001
 21
-4.6811699999999936
 31
0.0
  0
LINE
  5
5A49
  8
240
  6
CONTINUOUS
 10
-35.449100000000001
 20
-4.6811699999999936
 30
0.0
 11
-35.51230000000001
 21
-4.7873599999999916
 31
0.0
  0
LINE
  5
5A4A
  8
240
  6
CONTINUOUS
 10
-35.51230000000001
 20
-4.7873599999999916
 30
0.0
 11
-35.576799999999992
 21
-4.8933299999999909
 31
0.0
  0
LINE
  5
5A4B
  8
240
  6
CONTINUOUS
 10
-35.576799999999992
 20
-4.8933299999999909
 30
0.0
 11
-35.642699999999991
 21
-4.9990799999999922
 31
0.0
  0
LINE
  5
5A4C
  8
240
  6
CONTINUOUS
 10
-35.642699999999991
 20
-4.9990799999999922
 30
0.0
 11
-35.709899999999998
 21
-5.1045999999999898
 31
0.0
  0
LINE
  5
5A4D
  8
240
  6
CONTINUOUS
 10
-35.709899999999998
 20
-5.1045999999999898
 30
0.0
 11
-35.778300000000002
 21
-5.2098900000000006
 31
0.0
  0
LINE
  5
5A4E
  8
240
  6
CONTINUOUS
 10
-35.778300000000002
 20
-5.2098900000000006
 30
0.0
 11
-35.848100000000002
 21
-5.3149499999999961
 31
0.0
  0
LINE
  5
5A4F
  8
240
  6
CONTINUOUS
 10
-35.848100000000002
 20
-5.3149499999999961
 30
0.0
 11
-35.9191
 21
-5.4197699999999989
 31
0.0
  0
LINE
  5
5A50
  8
240
  6
CONTINUOUS
 10
-35.9191
 20
-5.4197699999999989
 30
0.0
 11
-35.991399999999999
 21
-5.5243499999999983
 31
0.0
  0
LINE
  5
5A51
  8
240
  6
CONTINUOUS
 10
-35.991399999999999
 20
-5.5243499999999983
 30
0.0
 11
-36.064899999999987
 21
-5.6286899999999909
 31
0.0
  0
LINE
  5
5A52
  8
240
  6
CONTINUOUS
 10
-36.064899999999987
 20
-5.6286899999999909
 30
0.0
 11
-36.139700000000012
 21
-5.7327899999999943
 31
0.0
  0
LINE
  5
5A53
  8
240
  6
CONTINUOUS
 10
-36.139700000000012
 20
-5.7327899999999943
 30
0.0
 11
-36.215699999999998
 21
-5.8366400000000018
 31
0.0
  0
LINE
  5
5A54
  8
240
  6
CONTINUOUS
 10
-36.215699999999998
 20
-5.8366400000000018
 30
0.0
 11
-36.293000000000013
 21
-5.940240000000002
 31
0.0
  0
LINE
  5
5A55
  8
240
  6
CONTINUOUS
 10
-36.293000000000013
 20
-5.940240000000002
 30
0.0
 11
-36.371499999999997
 21
-6.0435899999999938
 31
0.0
  0
LINE
  5
5A56
  8
240
  6
CONTINUOUS
 10
-36.371499999999997
 20
-6.0435899999999938
 30
0.0
 11
-36.4512
 21
-6.1466799999999964
 31
0.0
  0
LINE
  5
5A57
  8
240
  6
CONTINUOUS
 10
-36.4512
 20
-6.1466799999999964
 30
0.0
 11
-36.5321
 21
-6.249519999999996
 31
0.0
  0
LINE
  5
5A58
  8
240
  6
CONTINUOUS
 10
-36.5321
 20
-6.249519999999996
 30
0.0
 11
-36.614199999999997
 21
-6.352089999999996
 31
0.0
  0
LINE
  5
5A59
  8
240
  6
CONTINUOUS
 10
-36.614199999999997
 20
-6.352089999999996
 30
0.0
 11
-36.697499999999991
 21
-6.4544099999999949
 31
0.0
  0
LINE
  5
5A5A
  8
240
  6
CONTINUOUS
 10
-36.697499999999991
 20
-6.4544099999999949
 30
0.0
 11
-36.781900000000007
 21
-6.5564600000000013
 31
0.0
  0
LINE
  5
5A5B
  8
240
  6
CONTINUOUS
 10
-36.781900000000007
 20
-6.5564600000000013
 30
0.0
 11
-36.86760000000001
 21
-6.6582399999999993
 31
0.0
  0
LINE
  5
5A5C
  8
240
  6
CONTINUOUS
 10
-36.86760000000001
 20
-6.6582399999999993
 30
0.0
 11
-36.9544
 21
-6.7597499999999959
 31
0.0
  0
LINE
  5
5A5D
  8
240
  6
CONTINUOUS
 10
-36.9544
 20
-6.7597499999999959
 30
0.0
 11
-37.042299999999997
 21
-6.860979999999997
 31
0.0
  0
LINE
  5
5A5E
  8
240
  6
CONTINUOUS
 10
-37.042299999999997
 20
-6.860979999999997
 30
0.0
 11
-37.131399999999999
 21
-6.9619399999999976
 31
0.0
  0
LINE
  5
5A5F
  8
240
  6
CONTINUOUS
 10
-37.131399999999999
 20
-6.9619399999999976
 30
0.0
 11
-37.221699999999998
 21
-7.0626199999999946
 31
0.0
  0
LINE
  5
5A60
  8
240
  6
CONTINUOUS
 10
-37.221699999999998
 20
-7.0626199999999946
 30
0.0
 11
-37.313000000000002
 21
-7.1630199999999951
 31
0.0
  0
LINE
  5
5A61
  8
240
  6
CONTINUOUS
 10
-37.313000000000002
 20
-7.1630199999999951
 30
0.0
 11
-37.405500000000018
 21
-7.2631299999999959
 31
0.0
  0
LINE
  5
5A62
  8
240
  6
CONTINUOUS
 10
-37.405500000000018
 20
-7.2631299999999959
 30
0.0
 11
-37.499099999999999
 21
-7.362949999999997
 31
0.0
  0
LINE
  5
5A63
  8
240
  6
CONTINUOUS
 10
-37.499099999999999
 20
-7.362949999999997
 30
0.0
 11
-37.593800000000002
 21
-7.4624899999999954
 31
0.0
  0
LINE
  5
5A64
  8
240
  6
CONTINUOUS
 10
-37.593800000000002
 20
-7.4624899999999954
 30
0.0
 11
-37.689599999999999
 21
-7.5617299999999972
 31
0.0
  0
LINE
  5
5A65
  8
240
  6
CONTINUOUS
 10
-37.689599999999999
 20
-7.5617299999999972
 30
0.0
 11
-37.78649999999999
 21
-7.6606799999999993
 31
0.0
  0
LINE
  5
5A66
  8
240
  6
CONTINUOUS
 10
-37.78649999999999
 20
-7.6606799999999993
 30
0.0
 11
-37.884399999999999
 21
-7.7593299999999976
 31
0.0
  0
LINE
  5
5A67
  8
240
  6
CONTINUOUS
 10
-37.884399999999999
 20
-7.7593299999999976
 30
0.0
 11
-37.983400000000003
 21
-7.8576699999999979
 31
0.0
  0
LINE
  5
5A68
  8
240
  6
CONTINUOUS
 10
-37.983400000000003
 20
-7.8576699999999979
 30
0.0
 11
-38.083500000000001
 21
-7.9557199999999986
 31
0.0
  0
LINE
  5
5A69
  8
240
  6
CONTINUOUS
 10
-38.083500000000001
 20
-7.9557199999999986
 30
0.0
 11
-38.184600000000003
 21
-8.0534499999999962
 31
0.0
  0
LINE
  5
5A6A
  8
240
  6
CONTINUOUS
 10
-38.184600000000003
 20
-8.0534499999999962
 30
0.0
 11
-38.286799999999999
 21
-8.1508800000000008
 31
0.0
  0
LINE
  5
5A6B
  8
240
  6
CONTINUOUS
 10
-38.286799999999999
 20
-8.1508800000000008
 30
0.0
 11
-38.389899999999997
 21
-8.2479999999999976
 31
0.0
  0
LINE
  5
5A6C
  8
240
  6
CONTINUOUS
 10
-38.389899999999997
 20
-8.2479999999999976
 30
0.0
 11
-38.494200000000014
 21
-8.3447999999999993
 31
0.0
  0
LINE
  5
5A6D
  8
240
  6
CONTINUOUS
 10
-38.494200000000014
 20
-8.3447999999999993
 30
0.0
 11
-38.599400000000003
 21
-8.441279999999999
 31
0.0
  0
LINE
  5
5A6E
  8
240
  6
CONTINUOUS
 10
-38.599400000000003
 20
-8.441279999999999
 30
0.0
 11
-38.705600000000011
 21
-8.5374499999999927
 31
0.0
  0
LINE
  5
5A6F
  8
240
  6
CONTINUOUS
 10
-38.705600000000011
 20
-8.5374499999999927
 30
0.0
 11
-38.81280000000001
 21
-8.6332899999999952
 31
0.0
  0
LINE
  5
5A70
  8
240
  6
CONTINUOUS
 10
-38.81280000000001
 20
-8.6332899999999952
 30
0.0
 11
-38.921100000000003
 21
-8.7288099999999957
 31
0.0
  0
LINE
  5
5A71
  8
240
  6
CONTINUOUS
 10
-38.921100000000003
 20
-8.7288099999999957
 30
0.0
 11
-39.030299999999997
 21
-8.8239899999999931
 31
0.0
  0
LINE
  5
5A72
  8
240
  6
CONTINUOUS
 10
-39.030299999999997
 20
-8.8239899999999931
 30
0.0
 11
-39.1404
 21
-8.9188499999999991
 31
0.0
  0
LINE
  5
5A73
  8
240
  6
CONTINUOUS
 10
-39.1404
 20
-8.9188499999999991
 30
0.0
 11
-39.251600000000003
 21
-9.0133699999999948
 31
0.0
  0
LINE
  5
5A74
  8
240
  6
CONTINUOUS
 10
-39.251600000000003
 20
-9.0133699999999948
 30
0.0
 11
-39.363599999999991
 21
-9.1075599999999994
 31
0.0
  0
LINE
  5
5A75
  8
240
  6
CONTINUOUS
 10
-39.363599999999991
 20
-9.1075599999999994
 30
0.0
 11
-39.476700000000001
 21
-9.2014099999999956
 31
0.0
  0
LINE
  5
5A76
  8
240
  6
CONTINUOUS
 10
-39.476700000000001
 20
-9.2014099999999956
 30
0.0
 11
-39.590600000000002
 21
-9.2949100000000016
 31
0.0
  0
LINE
  5
5A77
  8
240
  6
CONTINUOUS
 10
-39.590600000000002
 20
-9.2949100000000016
 30
0.0
 11
-39.705500000000001
 21
-9.388069999999999
 31
0.0
  0
LINE
  5
5A78
  8
240
  6
CONTINUOUS
 10
-39.705500000000001
 20
-9.388069999999999
 30
0.0
 11
-39.821300000000008
 21
-9.4808899999999952
 31
0.0
  0
LINE
  5
5A79
  8
240
  6
CONTINUOUS
 10
-39.821300000000008
 20
-9.4808899999999952
 30
0.0
 11
-39.938000000000002
 21
-9.5733499999999978
 31
0.0
  0
LINE
  5
5A7A
  8
240
  6
CONTINUOUS
 10
-39.938000000000002
 20
-9.5733499999999978
 30
0.0
 11
-40.055700000000002
 21
-9.6654599999999942
 31
0.0
  0
LINE
  5
5A7B
  8
240
  6
CONTINUOUS
 10
-40.055700000000002
 20
-9.6654599999999942
 30
0.0
 11
-40.174199999999999
 21
-9.7572199999999967
 31
0.0
  0
LINE
  5
5A7C
  8
240
  6
CONTINUOUS
 10
-40.174199999999999
 20
-9.7572199999999967
 30
0.0
 11
-40.293599999999991
 21
-9.8486199999999968
 31
0.0
  0
LINE
  5
5A7D
  8
240
  6
CONTINUOUS
 10
-40.293599999999991
 20
-9.8486199999999968
 30
0.0
 11
-40.413800000000009
 21
-9.9396500000000003
 31
0.0
  0
LINE
  5
5A7E
  8
240
  6
CONTINUOUS
 10
-40.413800000000009
 20
-9.9396500000000003
 30
0.0
 11
-40.534999999999989
 21
-10.03029999999999
 31
0.0
  0
LINE
  5
5A7F
  8
240
  6
CONTINUOUS
 10
-40.534999999999989
 20
-10.03029999999999
 30
0.0
 11
-40.656999999999982
 21
-10.120599999999991
 31
0.0
  0
LINE
  5
5A80
  8
240
  6
CONTINUOUS
 10
-40.656999999999982
 20
-10.120599999999991
 30
0.0
 11
-40.779799999999987
 21
-10.210599999999999
 31
0.0
  0
LINE
  5
5A81
  8
240
  6
CONTINUOUS
 10
-40.779799999999987
 20
-10.210599999999999
 30
0.0
 11
-40.903499999999987
 21
-10.3001
 31
0.0
  0
LINE
  5
5A82
  8
240
  6
CONTINUOUS
 10
-40.903499999999987
 20
-10.3001
 30
0.0
 11
-41.027999999999992
 21
-10.3893
 31
0.0
  0
LINE
  5
5A83
  8
240
  6
CONTINUOUS
 10
-41.027999999999992
 20
-10.3893
 30
0.0
 11
-41.153300000000002
 21
-10.4781
 31
0.0
  0
LINE
  5
5A84
  8
240
  6
CONTINUOUS
 10
-41.153300000000002
 20
-10.4781
 30
0.0
 11
-41.279499999999999
 21
-10.56659999999999
 31
0.0
  0
LINE
  5
5A85
  8
240
  6
CONTINUOUS
 10
-41.279499999999999
 20
-10.56659999999999
 30
0.0
 11
-41.406399999999991
 21
-10.6546
 31
0.0
  0
LINE
  5
5A86
  8
240
  6
CONTINUOUS
 10
-41.406399999999991
 20
-10.6546
 30
0.0
 11
-41.534199999999991
 21
-10.7423
 31
0.0
  0
LINE
  5
5A87
  8
240
  6
CONTINUOUS
 10
-41.534199999999991
 20
-10.7423
 30
0.0
 11
-41.662699999999987
 21
-10.82959999999999
 31
0.0
  0
LINE
  5
5A88
  8
240
  6
CONTINUOUS
 10
-41.662699999999987
 20
-10.82959999999999
 30
0.0
 11
-41.792000000000002
 21
-10.916499999999999
 31
0.0
  0
LINE
  5
5A89
  8
240
  6
CONTINUOUS
 10
-41.792000000000002
 20
-10.916499999999999
 30
0.0
 11
-41.9221
 21
-11.00289999999999
 31
0.0
  0
LINE
  5
5A8A
  8
240
  6
CONTINUOUS
 10
-41.9221
 20
-11.00289999999999
 30
0.0
 11
-42.052999999999997
 21
-11.089
 31
0.0
  0
LINE
  5
5A8B
  8
240
  6
CONTINUOUS
 10
-42.052999999999997
 20
-11.089
 30
0.0
 11
-42.184600000000003
 21
-11.174699999999991
 31
0.0
  0
LINE
  5
5A8C
  8
240
  6
CONTINUOUS
 10
-42.184600000000003
 20
-11.174699999999991
 30
0.0
 11
-42.31689999999999
 21
-11.26
 31
0.0
  0
LINE
  5
5A8D
  8
240
  6
CONTINUOUS
 10
-42.31689999999999
 20
-11.26
 30
0.0
 11
-42.450000000000003
 21
-11.344900000000001
 31
0.0
  0
TEXT
  5
5A8E
  8
250
  6
CONTINUOUS
 10
89.999999999999986
 20
-3.9333333333334028
 30
0.0
 40
2.7999999999999989
  1
\U+220540
 50
90.0
  0
LINE
  5
5A8F
  8
250
  6
CONTINUOUS
 10
91.37166666666667
 20
-17.770000000017468
 30
0.0
 11
91.0
 21
-20.000000000017469
 31
0.0
  0
LINE
  5
5A90
  8
250
  6
CONTINUOUS
 10
90.62833333333333
 20
-17.770000000017468
 30
0.0
 11
91.0
 21
-20.000000000017469
 31
0.0
  0
LINE
  5
5A91
  8
250
  6
CONTINUOUS
 10
91.0
 20
-20.000000000017469
 30
0.0
 11
91.0
 21
-17.770000000017468
 31
0.0
  0
LINE
  5
5A92
  8
250
  6
CONTINUOUS
 10
90.62833333333333
 20
17.770000000017301
 30
0.0
 11
91.0
 21
20.000000000017302
 31
0.0
  0
LINE
  5
5A93
  8
250
  6
CONTINUOUS
 10
91.37166666666667
 20
17.770000000017301
 30
0.0
 11
91.0
 21
20.000000000017302
 31
0.0
  0
LINE
  5
5A94
  8
250
  6
CONTINUOUS
 10
91.0
 20
20.000000000017302
 30
0.0
 11
91.0
 21
17.770000000017301
 31
0.0
  0
TEXT
  5
5A95
  8
250
  6
CONTINUOUS
 10
34.833333333334068
 20
36.0
 30
0.0
 40
2.7999999999999989
  1
75
  0
LINE
  5
5A96
  8
250
  6
CONTINUOUS
 10
2.23
 20
34.62833333333333
 30
0.0
 11
0.0000000000000009
 21
35.0
 31
0.0
  0
LINE
  5
5A97
  8
250
  6
CONTINUOUS
 10
2.23
 20
35.37166666666667
 30
0.0
 11
0.0000000000000009
 21
35.0
 31
0.0
  0
LINE
  5
5A98
  8
250
  6
CONTINUOUS
 10
0.0000000000000009
 20
35.0
 30
0.0
 11
2.23
 21
35.0
 31
0.0
  0
LINE
  5
5A99
  8
250
  6
CONTINUOUS
 10
72.770000000001474
 20
35.37166666666667
 30
0.0
 11
75.000000000001478
 21
35.0
 31
0.0
  0
LINE
  5
5A9A
  8
250
  6
CONTINUOUS
 10
72.770000000001474
 20
34.62833333333333
 30
0.0
 11
75.000000000001478
 21
35.0
 31
0.0
  0
LINE
  5
5A9B
  8
250
  6
CONTINUOUS
 10
75.000000000001478
 20
35.0
 30
0.0
 11
72.770000000001474
 21
35.0
 31
0.0
  0
ARC
  5
5A9C
  8
250
  6
CONTINUOUS
 10
65.066091352573835
 20
-2.7510168951368961
 30
0.0
 40
0.5000000000000002
 50
300.0
 51
120.0
  0
ARC
  5
5A9D
  8
250
  6
CONTINUOUS
 10
65.066091352573835
 20
-2.7510168951368961
 30
0.0
 40
0.5000000000000002
 50
120.0
 51
300.0
  0
VIEWPORT
  5
22
 67
     1
  8
0
 10
261.51769911504419
 20
148.5
 30
0.0
 40
523.0353982300885
 41
297.0
 68
     1
 69
     1
1001
ACAD
1000
MVIEW
1002
{
1070
    16
1010
0.0
1020
0.0
1030
0.0
1010
0.0
1020
0.0
1030
1.0
1040
0.0
1040
297.0
1040
261.51769911504419
1040
148.5
1040
50.0
1040
0.0
1040
0.0
1070
     0
1070
   100
1070
     1
1070
     1
1070
     0
1070
     0
1070
     0
1070
     0
1040
0.0
1040
0.0
1040
0.0
1040
1.0
1040
1.0
1040
10.0
1040
10.0
1070
     0
1002
{
1002
}
1002
}
1001
GENIUS_GENODEF_13
1002
{
1000
HIER
1070
     0
1002
}
1002
{
1000
MANEDIT
1070
     0
1002
}
1002
{
1000
NOSEL
1070
     0
1002
}
1002
{
1000
BEHIND
1070
     0
1002
}
1002
{
1000
OTHER
1070
     0
1002
}
1002
{
1000
REACTOR
1002
}
1001
GENIUS_GENOBJ-N-SDF_13
1002
{
1000
OWNER
1000
GEN
1002
}
1001
GENIUS_GENSCREG_15
1000
PF
1040
1.0
1000
DF
1040
1.0
1000
MIN
1011
0.0
1021
0.0
1031
0.0
1021
0.0
1031
0.0
1000
MAX
1011
523.0353982300885
1021
0.0
1031
0.0
1021
297.0
1031
0.0
1000
FLAGS
1070
     4
  0
ENDSEC
  0
EOF
