  0
SECTION
  2
HEADER
  9
$ACADVER
  1
AC1009
  9
$INSBASE
 10
0.0
 20
0.0
 30
0.0
  9
$EXTMIN
 10
-66.642024170850931
 20
-21.810434780668452
 30
0.0
  9
$EXTMAX
 10
62.520770369999781
 20
46.999999997139518
 30
0.0
  9
$LIMMIN
 10
0.0
 20
0.0
  9
$LIMMAX
 10
297.0
 20
210.0
  9
$ORTHOMODE
 70
     1
  9
$REGENMODE
 70
     1
  9
$FILLMODE
 70
     1
  9
$QTEXTMODE
 70
     0
  9
$MIRRTEXT
 70
     1
  9
$DRAGMODE
 70
     2
  9
$LTSCALE
 40
10.0
  9
$OSMODE
 70
    39
  9
$ATTMODE
 70
     1
  9
$TEXTSIZE
 40
3.0
  9
$TRACEWID
 40
1.0
  9
$TEXTSTYLE
  7
YOKO
  9
$CLAYER
  8
240
  9
$CELTYPE
  6
BYLAYER
  9
$CECOLOR
 62
   256
  9
$DIMSCALE
 40
1.0
  9
$DIMASZ
 40
2.2299999999999991
  9
$DIMEXO
 40
0.5
  9
$DIMDLI
 40
7.0
  9
$DIMRND
 40
0.0
  9
$DIMDLE
 40
0.0
  9
$DIMEXE
 40
1.0
  9
$DIMTP
 40
0.0
  9
$DIMTM
 40
0.01
  9
$DIMTXT
 40
2.799999999999998
  9
$DIMCEN
 40
0.0
  9
$DIMTSZ
 40
0.0
  9
$DIMTOL
 70
     0
  9
$DIMLIM
 70
     0
  9
$DIMTIH
 70
     0
  9
$DIMTOH
 70
     0
  9
$DIMSE1
 70
     0
  9
$DIMSE2
 70
     0
  9
$DIMTAD
 70
     3
  9
$DIMZIN
 70
     9
  9
$DIMBLK
  1
OPEN
  9
$DIMASO
 70
     1
  9
$DIMSHO
 70
     1
  9
$DIMPOST
  1

  9
$DIMAPOST
  1

  9
$DIMALT
 70
     0
  9
$DIMALTD
 70
     2
  9
$DIMALTF
 40
25.399999999999999
  9
$DIMLFAC
 40
1.0
  9
$DIMTOFL
 70
     1
  9
$DIMTVP
 40
0.0
  9
$DIMTIX
 70
     1
  9
$DIMSOXD
 70
     0
  9
$DIMSAH
 70
     0
  9
$DIMBLK1
  1

  9
$DIMBLK2
  1

  9
$DIMSTYLE
  2
BIGT
  9
$DIMCLRD
 70
   256
  9
$DIMCLRE
 70
   256
  9
$DIMCLRT
 70
    40
  9
$DIMTFAC
 40
1.0
  9
$DIMGAP
 40
1.0
  9
$LUNITS
 70
     2
  9
$LUPREC
 70
     6
  9
$SKETCHINC
 40
1.0
  9
$FILLETRAD
 40
5.0
  9
$AUNITS
 70
     0
  9
$AUPREC
 70
     6
  9
$MENU
  1
.
  9
$ELEVATION
 40
0.0
  9
$PELEVATION
 40
0.0
  9
$THICKNESS
 40
0.0
  9
$LIMCHECK
 70
     0
  9
$BLIPMODE
 70
     0
  9
$CHAMFERA
 40
0.2
  9
$CHAMFERB
 40
0.2
  9
$SKPOLY
 70
     0
  9
$TDCREATE
 40
2457745.7455439242
  9
$TDUPDATE
 40
2459608.5224794438
  9
$TDINDWG
 40
0.0150323843
  9
$TDUSRTIMER
 40
0.0150323495
  9
$USRTIMER
 70
     1
  9
$ANGBASE
 50
0.0
  9
$ANGDIR
 70
     0
  9
$PDMODE
 70
     1
  9
$PDSIZE
 40
0.0
  9
$PLINEWID
 40
0.0
  9
$COORDS
 70
     1
  9
$SPLFRAME
 70
     0
  9
$SPLINETYPE
 70
     6
  9
$SPLINESEGS
 70
     4
  9
$ATTDIA
 70
     1
  9
$ATTREQ
 70
     1
  9
$HANDLING
 70
     1
  9
$HANDSEED
  5
4C0E
  9
$SURFTAB1
 70
     6
  9
$SURFTAB2
 70
     6
  9
$SURFTYPE
 70
     6
  9
$SURFU
 70
     6
  9
$SURFV
 70
     6
  9
$UCSNAME
  2

  9
$UCSORG
 10
0.0
 20
0.0
 30
0.0
  9
$UCSXDIR
 10
1.0
 20
0.0
 30
0.0
  9
$UCSYDIR
 10
0.0
 20
1.0
 30
0.0
  9
$PUCSNAME
  2

  9
$PUCSORG
 10
0.0
 20
0.0
 30
0.0
  9
$PUCSXDIR
 10
1.0
 20
0.0
 30
0.0
  9
$PUCSYDIR
 10
0.0
 20
1.0
 30
0.0
  9
$USERI1
 70
     1
  9
$USERI2
 70
     0
  9
$USERI3
 70
     0
  9
$USERI4
 70
     0
  9
$USERI5
 70
     0
  9
$USERR1
 40
0.0
  9
$USERR2
 40
0.0
  9
$USERR3
 40
0.0
  9
$USERR4
 40
0.0
  9
$USERR5
 40
0.0
  9
$WORLDVIEW
 70
     1
  9
$SHADEDGE
 70
     3
  9
$SHADEDIF
 70
    70
  9
$TILEMODE
 70
     1
  9
$MAXACTVP
 70
    16
  9
$PLIMCHECK
 70
     0
  9
$PEXTMIN
 10
1.0000000000000000E+020
 20
1.0000000000000000E+020
 30
1.0000000000000000E+020
  9
$PEXTMAX
 10
-1.0000000000000000E+020
 20
-1.0000000000000000E+020
 30
-1.0000000000000000E+020
  9
$PLIMMIN
 10
0.0
 20
0.0
  9
$PLIMMAX
 10
420.0
 20
297.0
  9
$UNITMODE
 70
     0
  9
$VISRETAIN
 70
     1
  9
$PLINEGEN
 70
     0
  9
$PSLTSCALE
 70
     1
  0
ENDSEC
  0
SECTION
  2
TABLES
  0
TABLE
  2
VPORT
 70
     1
  0
VPORT
  2
*ACTIVE
 70
     0
 10
0.0
 20
0.0
 11
1.0
 21
1.0
 12
-16.48222757908508
 22
3.3076431206756629
 13
0.0
 23
0.0
 14
7.0
 24
7.0
 15
7.0
 25
7.0
 16
0.0
 26
0.0
 36
1.0
 17
0.0
 27
0.0
 37
0.0
 40
147.65947510231931
 41
1.488859764089121
 42
50.0
 43
0.0
 44
0.0
 50
0.0
 51
0.0
 71
     0
 72
  2000
 73
     1
 74
     0
 75
     0
 76
     1
 77
     0
 78
     0
  0
ENDTAB
  0
TABLE
  2
LTYPE
 70
    21
  0
LTYPE
  2
CONTINUOUS
 70
     0
  3
Solid line
 72
    65
 73
     0
 40
0.0
  0
LTYPE
  2
CENTER2
 70
     0
  3
___ _ ___ _ ___ _ ___ _ ___ _ ___ _ ___ _ ___ _
 72
    65
 73
     4
 40
1.125
 49
0.75
 49
-0.125
 49
0.125
 49
-0.125
  0
LTYPE
  2
HIDDEN2
 70
     0
  3
_ _ _ _ _ _ _ _ _ _ _ _ _ _ _ _ _ _ _ _ _ _ _ _
 72
    65
 73
     2
 40
0.1875
 49
0.125
 49
-0.0625
  0
LTYPE
  2
PHANTOM2
 70
     0
  3
___ _ _ ___ _ _ ___ _ _ ___ _ _ ___ _ _ ___ _ _
 72
    65
 73
     6
 40
1.25
 49
0.625
 49
-0.125
 49
0.125
 49
-0.125
 49
0.125
 49
-0.125
  0
LTYPE
  2
AMCONSTR
 70
     0
  3
_______________________
 72
    65
 73
     2
 40
9999.0
 49
9999.0
 49
0.0
  0
LTYPE
  2
HIDDEN
 70
     0
  3
Hidden __ __ __ __ __ __ __ __ __ __ __ __ __ _
 72
    65
 73
     2
 40
0.375
 49
0.25
 49
-0.125
  0
LTYPE
  2
CENTER
 70
     0
  3
Center ____ _ ____ _ ____ _ ____ _ ____ _ ____
 72
    65
 73
     4
 40
2.0
 49
1.25
 49
-0.25
 49
0.25
 49
-0.25
  0
LTYPE
  2
AMZIGZAG2
 70
     0
  3
/\/-/\/-/\/-/\/-/\/-/\/
 72
    65
 73
     2
 40
0.4401
 49
0.0001
 49
-0.4400000000000001
  0
LTYPE
  2
ACANSTGB
 70
     0
  3
__ . . __ . .
 72
    65
 73
     6
 40
0.35433070866
 49
0.15748031496
 49
-0.03937007874
 49
0.03937007874
 49
-0.03937007874
 49
0.03937007874
 49
-0.03937007874
  0
LTYPE
  2
ACANSTGL
 70
     0
  3
_ _ _ _ _
 72
    65
 73
     2
 40
0.11811023622
 49
0.07874015748
 49
-0.03937007874
  0
ENDTAB
  0
TABLE
  2
LAYER
 70
    10
  0
LAYER
  2
0
 70
     0
 62
     7
  6
CONTINUOUS
  0
LAYER
  2
240
 70
     0
 62
     4
  6
CONTINUOUS
  0
LAYER
  2
DEFPOINTS
 70
     0
 62
     7
  6
CONTINUOUS
  0
LAYER
  2
245
 70
     0
 62
     2
  6
CENTER2
  0
LAYER
  2
241
 70
     0
 62
   211
  6
CONTINUOUS
  0
LAYER
  2
242
 70
     0
 62
     3
  6
CONTINUOUS
  0
LAYER
  2
243
 70
     0
 62
   211
  6
HIDDEN2
  0
LAYER
  2
247
 70
     0
 62
    60
  6
CONTINUOUS
  0
LAYER
  2
250
 70
     0
 62
     3
  6
CONTINUOUS
  0
ENDTAB
  0
TABLE
  2
STYLE
 70
    10
  0
STYLE
  2
STANDARD
 70
     0
 40
0.0
 41
1.0
 50
0.0
 71
     0
 42
3.0
  3
romans.shx
  4
extfont.shx
  0
STYLE
  2
YOKO
 70
     0
 40
0.0
 41
1.0
 50
0.0
 71
     0
 42
3.0
  3
romans.shx
  4
extfont.shx
  0
STYLE
  2

 70
     1
 40
0.0
 41
1.0
 50
0.0
 71
     0
 42
3.0
  3
genltshp.shx
  4

  0
STYLE
  2
ACANSGDT
 70
     0
 40
0.0
 41
1.0
 50
0.0
 71
     0
 42
3.0
  3
amgdt.shx
  4

  0
ENDTAB
  0
TABLE
  2
VIEW
 70
     0
  0
ENDTAB
  0
TABLE
  2
UCS
 70
     0
  0
ENDTAB
  0
TABLE
  2
APPID
 70
    37
  0
APPID
  2
ACAD
 70
     0
  0
APPID
  2
ACADANNOTATIVE
 70
     0
  0
APPID
  2
GLOBAL
 70
     0
  0
APPID
  2
DETAIL
 70
     0
  0
APPID
  2
GRPNAME
 70
     0
  0
APPID
  2
GPARA
 70
     0
  0
APPID
  2
MCAD_NO_VIS
 70
     0
  0
APPID
  2
ACAD_TEMP_GRAPHIC
 70
     0
  0
APPID
  2
ACATTRIBSERVICES
 70
     0
  0
APPID
  2
GENIUS_GENSCREG_15
 70
     0
  0
APPID
  2
GENIUS_GENODEF_13
 70
     0
  0
APPID
  2
GENIUS_GENOBJ-N-SDF_13
 70
     0
  0
APPID
  2
GENIUS_GENREC_14
 70
     0
  0
APPID
  2
GENIUS_GENOBJ-N-REC_13
 70
     0
  0
APPID
  2
GENIUS_GENDIMSH_14
 70
     0
  0
APPID
  2
GENIUS_GENOBJ-N-DIM_13
 70
     0
  0
APPID
  2
GENIUS_GENDIM_13
 70
     0
  0
APPID
  2
GENIUS_GENDTOL_13
 70
     0
  0
APPID
  2
GENIUS_GENOLIS_13
 70
     0
  0
APPID
  2
GENIUS_GENOENT_13
 70
     0
  0
APPID
  2
GENIUS_GENOBJ-F-FEM_13
 70
     0
  0
APPID
  2
GENIUS_GENOREF_13
 70
     0
  0
APPID
  2
GENIUS_GEFFEM_13
 70
     0
  0
APPID
  2
GENIUS_GEFFEMP_13
 70
     0
  0
APPID
  2
AD_DRAW
 70
     0
  0
APPID
  2
DESIGNERASSEMBLIES
 70
     0
  0
APPID
  2
ACADM_DIM_EDIT
 70
     0
  0
APPID
  2
AMDT_DM_ADJ
 70
     0
  0
APPID
  2
ITEMNAME
 70
     0
  0
APPID
  2
GENIUS_GENOBJ-N-FIL_13
 70
     0
  0
APPID
  2
GENIUS_GENFIL_13
 70
     0
  0
APPID
  2
GENIUS_GENOBJ-N-CHA_13
 70
     0
  0
APPID
  2
ACAD_NAV_VCDISPLAY
 70
     0
  0
APPID
  2
ACAD_DSTYLE_DIMJAG
 70
     0
  0
APPID
  2
ACAD_DSTYLE_DIMBREAK
 70
     0
  0
APPID
  2
ACAD_MLEADERVER
 70
     0
  0
APPID
  2
ACAECLAYERSTANDARD
 70
     0
  0
ENDTAB
  0
TABLE
  2
DIMSTYLE
 70
    31
  0
DIMSTYLE
  2
STANDARD
 70
     0
  3

  4

  5

  6

  7

 40
1.0
 41
0.18
 42
0.0625
 43
0.38
 44
0.18
 45
0.0
 46
0.0
 47
0.0
 48
0.0
140
0.18
141
0.09
142
0.0
143
25.399999999999999
144
1.0
145
0.0
146
1.0
147
0.09
 71
     0
 72
     0
 73
     1
 74
     1
 75
     0
 76
     0
 77
     0
 78
     0
170
     0
171
     2
172
     0
173
     0
174
     0
175
     0
176
     0
177
     0
178
     0
  0
DIMSTYLE
  2
BIGT
 70
     0
  3

  4

  5

  6

  7

 40
1.0
 41
2.2299999999999991
 42
0.5
 43
7.0
 44
1.0
 45
0.0
 46
0.0
 47
0.0
 48
0.01
140
2.799999999999998
141
0.0
142
0.0
143
25.399999999999999
144
1.0
145
0.0
146
1.0
147
1.0
 71
     0
 72
     0
 73
     0
 74
     0
 75
     0
 76
     0
 77
     3
 78
     9
170
     0
171
     2
172
     1
173
     0
174
     1
175
     0
176
   256
177
   256
178
    40
  0
DIMSTYLE
  2
AM_ANSI
 70
     0
  3

  4
mm
  5

  6

  7

 40
1.0
 41
0.12
 42
0.05
 43
0.5
 44
0.1
 45
0.0
 46
0.0
 47
0.1
 48
0.1
140
0.12
141
0.0
142
0.0
143
25.399999999999999
144
1.0
145
0.0
146
0.71
147
0.06
 71
     0
 72
     0
 73
     1
 74
     1
 75
     0
 76
     0
 77
     0
 78
     7
170
     0
171
     2
172
     0
173
     0
174
     0
175
     0
176
   256
177
   256
178
     2
  0
DIMSTYLE
  2
AM_ANSI$3
 70
     0
  3

  4
mm
  5

  6

  7

 40
1.0
 41
0.12
 42
0.05
 43
0.5
 44
0.1
 45
0.0
 46
0.0
 47
0.1
 48
0.1
140
0.12
141
0.0
142
0.0
143
25.399999999999999
144
1.0
145
0.0
146
0.71
147
0.06
 71
     0
 72
     0
 73
     1
 74
     1
 75
     0
 76
     0
 77
     0
 78
     7
170
     0
171
     2
172
     0
173
     0
174
     0
175
     0
176
   256
177
   256
178
     2
  0
DIMSTYLE
  2
AM_ANSI$4
 70
     0
  3

  4
mm
  5

  6

  7

 40
1.0
 41
0.12
 42
0.05
 43
0.5
 44
0.1
 45
0.0
 46
0.0
 47
0.1
 48
0.1
140
0.12
141
0.0
142
0.0
143
25.399999999999999
144
1.0
145
0.0
146
0.71
147
0.06
 71
     0
 72
     0
 73
     1
 74
     1
 75
     0
 76
     0
 77
     0
 78
     7
170
     0
171
     2
172
     0
173
     0
174
     0
175
     0
176
   256
177
   256
178
     2
  0
DIMSTYLE
  2
AM_ANSI$7
 70
     0
  3

  4
mm
  5

  6

  7

 40
1.0
 41
0.12
 42
0.05
 43
0.5
 44
0.1
 45
0.0
 46
0.0
 47
0.1
 48
0.1
140
0.12
141
0.0
142
0.0
143
25.399999999999999
144
1.0
145
0.0
146
0.71
147
0.06
 71
     0
 72
     0
 73
     1
 74
     1
 75
     0
 76
     0
 77
     0
 78
     7
170
     0
171
     2
172
     0
173
     0
174
     0
175
     0
176
   256
177
   256
178
     2
  0
DIMSTYLE
  2
AM_ANSI$SF
 70
     0
  3

  4
mm
  5

  6

  7

 40
1.0
 41
0.12
 42
0.05
 43
0.5
 44
0.1
 45
0.0
 46
0.0
 47
0.1
 48
0.1
140
0.12
141
0.0
142
0.0
143
25.399999999999999
144
1.0
145
0.0
146
0.71
147
0.06
 71
     0
 72
     0
 73
     1
 74
     1
 75
     1
 76
     1
 77
     0
 78
     7
170
     0
171
     2
172
     0
173
     0
174
     0
175
     0
176
   256
177
   256
178
     2
  0
DIMSTYLE
  2
AM_ANSI$SH
 70
     0
  3

  4
mm
  5

  6
GENAXEH
  7

 40
1.0
 41
0.12
 42
0.05
 43
0.5
 44
0.1
 45
0.0
 46
0.0
 47
0.1
 48
0.1
140
0.12
141
0.0
142
0.0
143
25.399999999999999
144
1.0
145
0.0
146
0.71
147
0.06
 71
     0
 72
     0
 73
     1
 74
     1
 75
     1
 76
     1
 77
     0
 78
     7
170
     0
171
     2
172
     0
173
     1
174
     0
175
     0
176
   256
177
   256
178
     2
  0
ENDTAB
  0
ENDSEC
  0
SECTION
  2
BLOCKS
  0
BLOCK
  8
0
  2
$MODEL_SPACE
 70
     0
 10
0.0
 20
0.0
 30
0.0
  3
$MODEL_SPACE
  1

  0
ENDBLK
  5
453B
  8
0
  0
BLOCK
 67
     1
  8
0
  2
$PAPER_SPACE
 70
     0
 10
0.0
 20
0.0
 30
0.0
  3
$PAPER_SPACE
  1

  0
ENDBLK
  5
4537
 67
     1
  8
0
  0
BLOCK
  8
0
  2
_OPEN
 70
     0
 10
0.0
 20
0.0
 30
0.0
  3
_OPEN
  1

  0
LINE
  5
43D2
  8
0
  6
BYBLOCK
 62
     0
 10
-1.0
 20
0.1666666666666666
 30
0.0
 11
0.0
 21
0.0
 31
0.0
  0
LINE
  5
43D3
  8
0
  6
BYBLOCK
 62
     0
 10
-1.0
 20
-0.1666666666666666
 30
0.0
 11
0.0
 21
0.0
 31
0.0
  0
LINE
  5
43D4
  8
0
  6
BYBLOCK
 62
     0
 10
0.0
 20
0.0
 30
0.0
 11
-1.0
 21
0.0
 31
0.0
  0
ENDBLK
  5
43D5
  8
0
  0
BLOCK
  8
0
  2
GENAXEH
 70
     0
 10
0.0
 20
0.0
 30
0.0
  3
GENAXEH
  1

  0
LINE
  5
440D
  8
0
 10
-1.0
 20
0.0
 30
0.0
 11
1.0
 21
0.0
 31
0.0
  0
ENDBLK
  5
440E
  8
0
  0
BLOCK
  8
0
  2
_ACMFILLEDHALF
 70
     0
 10
0.0
 20
0.0
 30
0.0
  3
_ACMFILLEDHALF
  1

  0
TRACE
  5
45FA
  8
240
 62
     0
 10
-0.8
 20
0.0
 30
0.0
 11
-1.0
 21
0.166666666
 31
0.0
 12
0.0
 22
0.0
 32
0.0
 13
0.0
 23
0.0
 33
0.0
  0
LINE
  5
45FB
  8
240
 62
     0
 10
-1.0
 20
0.0
 30
0.0
 11
-0.8
 21
0.0
 31
0.0
  0
ENDBLK
  5
45F9
  8
0
  0
ENDSEC
  0
SECTION
  2
ENTITIES
  0
LINE
  5
4229
  8
240
  6
CONTINUOUS
 10
-24.0
 20
13.462452753759919
 30
0.0
 11
0.0
 21
14.06250549360146
 31
0.0
  0
LINE
  5
422A
  8
240
  6
CONTINUOUS
 10
0.0
 20
-14.062505499322411
 30
0.0
 11
-24.0
 21
-13.46245267871182
 31
0.0
  0
LINE
  5
422B
  8
245
  6
CENTER2
 10
-25.0
 20
0.0
 30
0.0
 11
49.0
 21
0.0
 31
0.0
  0
LINE
  5
422C
  8
240
  6
CONTINUOUS
 10
-24.0
 20
-13.46245267871182
 30
0.0
 11
-24.0
 21
13.462452753759919
 31
0.0
  0
LINE
  5
422D
  8
241
  6
CONTINUOUS
 10
-19.800000000000001
 20
-2.5425000000000182
 30
0.0
 11
-19.800000000000001
 21
2.5425000000000182
 31
0.0
  0
LINE
  5
422E
  8
241
  6
CONTINUOUS
 10
-24.0
 20
-2.5425000000000182
 30
0.0
 11
-19.800000000000001
 21
-2.5425000000000182
 31
0.0
  0
LINE
  5
422F
  8
241
  6
CONTINUOUS
 10
-24.0
 20
2.5425000000000182
 30
0.0
 11
-19.800000000000001
 21
2.5425000000000182
 31
0.0
  0
LINE
  5
4230
  8
241
  6
CONTINUOUS
 10
0.0
 20
-14.062505499322411
 30
0.0
 11
0.0
 21
14.06250549360146
 31
0.0
  0
LINE
  5
4231
  8
240
  6
CONTINUOUS
 10
0.0
 20
-20.0
 30
0.0
 11
0.0
 21
-14.062505499322411
 31
0.0
  0
LINE
  5
4232
  8
240
  6
CONTINUOUS
 10
20.0
 20
-20.0
 30
0.0
 11
20.0
 21
-14.49999999999997
 31
0.0
  0
LINE
  5
4233
  8
240
  6
CONTINUOUS
 10
0.0
 20
20.0
 30
0.0
 11
0.0
 21
14.06250549360152
 31
0.0
  0
LINE
  5
4234
  8
250
  6
CONTINUOUS
 10
-14.21116305741373
 20
-15.30479900198344
 30
0.0
 11
-12.92248792332026
 21
-13.739414860668489
 31
0.0
  0
LINE
  5
4235
  8
250
  6
CONTINUOUS
 10
-13.63381278811732
 20
-15.638132335131839
 30
0.0
 11
-12.92248792332026
 21
-13.739414860668489
 31
0.0
  0
LINE
  5
4236
  8
250
  6
CONTINUOUS
 10
-12.92248792332026
 20
-13.739414860668489
 30
0.0
 11
-13.922487922765519
 21
-15.47146566855764
 31
0.0
  0
LINE
  5
4237
  8
250
  6
CONTINUOUS
 10
-13.922487922765519
 20
-15.47146566855764
 30
0.0
 11
-17.582293443320282
 21
-21.810434780668452
 31
0.0
1001
ACAD
1000
DSTYLE
1002
{
1070
     6
1000
OPEN
1070
    41
1040
2.0
1070
    42
1040
2.0
1070
    44
1040
2.0
1070
   140
1040
4.0
1070
   343
1005
0
1002
}
  0
TEXT
  5
4238
  8
250
  6
CONTINUOUS
 10
-25.582293443320282
 20
-20.810434780668452
 30
0.0
 40
2.799999999999998
  1
C4
  7
YOKO
1001
ITEMNAME
1000
LNSP3
  0
LINE
  5
4239
  8
250
  6
CONTINUOUS
 10
-17.582293443320282
 20
-21.810434780668452
 30
0.0
 11
-27.982293443320319
 21
-21.810434780668452
 31
0.0
1001
ITEMNAME
1000
LNSP2
  0
LINE
  5
423A
  8
247
  6
CONTINUOUS
 10
3.9999999999999432
 20
-8.75
 30
0.0
 11
4.0
 21
-4.115384615669992
 31
0.0
  0
LINE
  5
423B
  8
247
  6
CONTINUOUS
 10
1.5
 20
-7.9548934999879739
 30
0.0
 11
3.5999999999160082
 21
-8.5570588100573541
 31
0.0
  0
LINE
  5
423C
  8
247
  6
CONTINUOUS
 10
2.496153846113998
 20
-7.325151403519043
 30
0.0
 11
2.496153846113998
 21
-8.2405360188670311
 31
0.0
  0
ARC
  5
423D
  8
247
  6
CONTINUOUS
 10
1.8847190672940981
 20
-7.087263401946811
 30
0.0
 40
0.3876715809326743
 50
72.9978896752922
 51
172.92416621851359
  0
ARC
  5
423E
  8
247
  6
CONTINUOUS
 10
1.805223131028014
 20
-7.3824775568041332
 30
0.0
 40
0.6933047965358772
 50
4.7429368522022122
 51
73.849226273266751
1001
GENIUS_GENOBJ-N-FIL_13
1002
{
1000
OWNER
1000
GEN
1002
}
1001
GENIUS_GENODEF_13
1002
{
1000
HIER
1070
     0
1002
}
1002
{
1000
MANEDIT
1070
     0
1002
}
1002
{
1000
NOSEL
1070
     0
1002
}
1002
{
1000
BEHIND
1070
     0
1002
}
1002
{
1000
OTHER
1070
     0
1002
}
1002
{
1000
REACTOR
1002
}
  0
LINE
  5
423F
  8
247
  6
CONTINUOUS
 10
3.5999999999160082
 20
-7.641674194709366
 30
0.0
 11
3.5999999999160082
 21
-8.5570588100573541
 31
0.0
  0
LINE
  5
4240
  8
247
  6
CONTINUOUS
 10
1.5
 20
-7.9548934999879739
 30
0.0
 11
1.5
 21
-7.0395088846399281
 31
0.0
  0
ARC
  5
4241
  8
247
  6
CONTINUOUS
 10
2.8874169627678721
 20
-7.3783064762668573
 30
0.0
 40
0.394857301075386
 50
65.990941652528889
 51
172.26344345906909
  0
ARC
  5
4242
  8
247
  6
CONTINUOUS
 10
2.8912003273325682
 20
-7.7124466104269231
 30
0.0
 40
0.7123241612361686
 50
5.7019851642564632
 51
77.277338436822006
1001
GENIUS_GENOBJ-N-FIL_13
1002
{
1000
OWNER
1000
GEN
1002
}
1001
GENIUS_GENODEF_13
1002
{
1000
HIER
1070
     0
1002
}
1002
{
1000
MANEDIT
1070
     0
1002
}
1002
{
1000
NOSEL
1070
     0
1002
}
1002
{
1000
BEHIND
1070
     0
1002
}
1002
{
1000
OTHER
1070
     0
1002
}
1002
{
1000
REACTOR
1002
}
  0
LINE
  5
4243
  8
247
  6
CONTINUOUS
 10
3.5999999999160082
 20
-6.6839818870633962
 30
0.0
 11
1.5
 21
-6.0818165769939583
 31
0.0
  0
LINE
  5
4244
  8
247
  6
CONTINUOUS
 10
1.5
 20
-4.5856627309079832
 30
0.0
 11
1.5
 21
-4.981678364303546
 31
0.0
  0
LINE
  5
4245
  8
247
  6
CONTINUOUS
 10
3.5999999999160082
 20
-5.6087396539439851
 30
0.0
 11
3.5999999999160082
 21
-5.177970423191935
 31
0.0
  0
ARC
  5
4246
  8
247
  6
CONTINUOUS
 10
2.9582995950833602
 20
-4.3818165770699684
 30
0.0
 40
1.576855057639547
 50
202.35948814152911
 51
254.99324854284649
  0
ARC
  5
4247
  8
247
  6
CONTINUOUS
 10
2.0658188585381341
 20
-4.8475113661332321
 30
0.0
 40
0.6234706797009447
 50
94.994589319075317
 51
155.1663289573039
1001
GENIUS_GENOBJ-N-FIL_13
1002
{
1000
OWNER
1000
GEN
1002
}
1001
GENIUS_GENODEF_13
1002
{
1000
HIER
1070
     0
1002
}
1002
{
1000
MANEDIT
1070
     0
1002
}
1002
{
1000
NOSEL
1070
     0
1002
}
1002
{
1000
BEHIND
1070
     0
1002
}
1002
{
1000
OTHER
1070
     0
1002
}
1002
{
1000
REACTOR
1002
}
  0
ARC
  5
4248
  8
247
  6
CONTINUOUS
 10
2.6621021219694381
 20
-5.4441839510327554
 30
0.0
 40
0.9749472149106983
 50
15.8460965557808
 51
82.325137004169278
  0
ARC
  5
4249
  8
247
  6
CONTINUOUS
 10
2.8714704019710662
 20
-5.0352116387722381
 30
0.0
 40
0.9271945638692009
 50
249.7136016704969
 51
321.78874565641053
1001
GENIUS_GENOBJ-N-FIL_13
1002
{
1000
OWNER
1000
GEN
1002
}
1001
GENIUS_GENODEF_13
1002
{
1000
HIER
1070
     0
1002
}
1002
{
1000
MANEDIT
1070
     0
1002
}
1002
{
1000
NOSEL
1070
     0
1002
}
1002
{
1000
BEHIND
1070
     0
1002
}
1002
{
1000
OTHER
1070
     0
1002
}
1002
{
1000
REACTOR
1002
}
  0
LINE
  5
424A
  8
247
  6
CONTINUOUS
 10
2.792307692255974
 20
-4.962585807815965
 30
0.0
 11
2.792307692255974
 21
-4.4779704232199711
 31
0.0
  0
ARC
  5
424B
  8
247
  6
CONTINUOUS
 10
2.75
 20
-8.75
 30
0.0
 40
1.25
 50
180.0
 51
0.0
  0
LINE
  5
424C
  8
247
  6
CONTINUOUS
 10
1.5
 20
-8.75
 30
0.0
 11
1.5
 21
-8.3038461539139803
 31
0.0
  0
ARC
  5
424D
  8
247
  6
CONTINUOUS
 10
2.75
 20
-4.115384615669992
 30
0.0
 40
1.25
 50
0.0
 51
180.0
  0
LINE
  5
424E
  8
240
  6
CONTINUOUS
 10
20.0
 20
20.0
 30
0.0
 11
0.0
 21
20.0
 31
0.0
  0
LINE
  5
424F
  8
240
  6
CONTINUOUS
 10
20.0
 20
-20.0
 30
0.0
 11
0.0
 21
-20.0
 31
0.0
  0
LINE
  5
4250
  8
241
  6
CONTINUOUS
 10
6.6999999999999851
 20
5.4434495400000174
 30
0.0
 11
6.6999999999999851
 21
19.23457711999998
 31
0.0
  0
LINE
  5
4251
  8
241
  6
CONTINUOUS
 10
9.3000000000000131
 20
5.4434495400000174
 30
0.0
 11
9.3000000000000131
 21
19.23457711999998
 31
0.0
  0
LINE
  5
4252
  8
241
  6
CONTINUOUS
 10
6.6999999999999851
 20
5.4434495400000174
 30
0.0
 11
9.3000000000000131
 21
5.4434495400000174
 31
0.0
  0
LINE
  5
4253
  8
241
  6
CONTINUOUS
 10
6.6999999999999851
 20
19.23457711999998
 30
0.0
 11
9.3000000000000131
 21
19.23457711999998
 31
0.0
  0
ARC
  5
4254
  8
241
  6
CONTINUOUS
 10
19.246864401683411
 20
12.33901333
 30
0.0
 40
14.316864401683389
 50
151.207481346615
 51
208.792518653385
  0
ARC
  5
4255
  8
241
  6
CONTINUOUS
 10
-3.2468644016833501
 20
12.33901333
 30
0.0
 40
14.31686440168337
 50
331.20748134661488
 51
28.792518653385031
  0
LINE
  5
4256
  8
241
  6
CONTINUOUS
 10
6.6999999999999851
 20
-5.4434495400000174
 30
0.0
 11
6.6999999999999851
 21
-19.23457711999998
 31
0.0
  0
LINE
  5
4257
  8
241
  6
CONTINUOUS
 10
9.3000000000000131
 20
-5.4434495400000174
 30
0.0
 11
9.3000000000000131
 21
-19.23457711999998
 31
0.0
  0
LINE
  5
4258
  8
241
  6
CONTINUOUS
 10
6.6999999999999851
 20
-5.4434495400000174
 30
0.0
 11
9.3000000000000131
 21
-5.4434495400000174
 31
0.0
  0
LINE
  5
4259
  8
241
  6
CONTINUOUS
 10
6.6999999999999851
 20
-19.23457711999998
 30
0.0
 11
9.3000000000000131
 21
-19.23457711999998
 31
0.0
  0
ARC
  5
425A
  8
241
  6
CONTINUOUS
 10
19.246864401683411
 20
-12.33901333
 30
0.0
 40
14.316864401683389
 50
151.207481346615
 51
208.792518653385
  0
ARC
  5
425B
  8
241
  6
CONTINUOUS
 10
-3.2468644016833501
 20
-12.33901333
 30
0.0
 40
14.31686440168337
 50
331.20748134661488
 51
28.792518653385031
  0
ARC
  5
425C
  8
241
  6
CONTINUOUS
 10
-20.845185903844769
 20
0.0
 30
0.0
 40
2.7489488579447801
 50
292.34687274647791
 51
67.653127253522129
  0
LINE
  5
4269
  8
240
  6
CONTINUOUS
 10
47.499999999999801
 20
-9.4999999999999716
 30
0.0
 11
47.499999999999801
 21
9.5
 31
0.0
1001
GRPNAME
1000
PASTMD0W
  0
LINE
  5
426A
  8
240
  6
CONTINUOUS
 10
47.499999999999801
 20
-9.4999999999999716
 30
0.0
 11
25.0
 21
-9.4999999999999716
 31
0.0
1001
GRPNAME
1000
PASTMD0W
  0
LINE
  5
426B
  8
240
  6
CONTINUOUS
 10
47.499999999999801
 20
9.5
 30
0.0
 11
25.000000000000011
 21
9.499999999999968
 31
0.0
1001
GRPNAME
1000
PASTMD0W
  0
ARC
  5
426C
  8
240
  6
CONTINUOUS
 10
25.0
 20
-14.49999999999997
 30
0.0
 40
5.0
 50
90.0
 51
180.0
1001
GENIUS_GENODEF_13
1002
{
1000
HIER
1070
     0
1002
}
1002
{
1000
MANEDIT
1070
     0
1002
}
1002
{
1000
NOSEL
1070
     0
1002
}
1002
{
1000
BEHIND
1070
     0
1002
}
1002
{
1000
OTHER
1070
     0
1002
}
1002
{
1000
REACTOR
1002
}
1001
GENIUS_GENOBJ-N-FIL_13
1002
{
1000
OWNER
1000
GEN
1002
}
  0
ARC
  5
426E
  8
240
  6
CONTINUOUS
 10
25.0
 20
14.49999999999997
 30
0.0
 40
5.0
 50
180.0
 51
270.00000000000011
1001
GENIUS_GENODEF_13
1002
{
1000
HIER
1070
     0
1002
}
1002
{
1000
MANEDIT
1070
     0
1002
}
1002
{
1000
NOSEL
1070
     0
1002
}
1002
{
1000
BEHIND
1070
     0
1002
}
1002
{
1000
OTHER
1070
     0
1002
}
1002
{
1000
REACTOR
1002
}
1001
GENIUS_GENOBJ-N-FIL_13
1002
{
1000
OWNER
1000
GEN
1002
}
  0
LINE
  5
4275
  8
240
  6
CONTINUOUS
 10
20.0
 20
14.49999999999997
 30
0.0
 11
20.0
 21
20.0
 31
0.0
  0
LINE
  5
4276
  8
241
  6
CONTINUOUS
 10
20.0
 20
14.49999999999997
 30
0.0
 11
20.0
 21
-14.49999999999997
 31
0.0
  0
LINE
  5
42BC
  8
243
  6
HIDDEN2
 10
47.499999999999808
 20
5.50000000000004
 30
0.0
 11
33.449999999999839
 21
5.5000000000000409
 31
0.0
  0
LINE
  5
42BD
  8
250
  6
CONTINUOUS
 10
50.254103699999803
 20
21.579815859999989
 30
0.0
 11
62.520770369999781
 21
21.579815859999989
 31
0.0
1001
ITEMNAME
1000
LNSP2
  0
CIRCLE
  5
42BE
  8
241
  6
CONTINUOUS
 10
42.499999999999829
 20
0.0000000000000142
 30
0.0
 40
2.1000000000000001
  0
POLYLINE
  5
42BF
  8
241
  6
CONTINUOUS
 66
     1
 10
0.0
 20
0.0
 30
0.0
 70
     1
  0
VERTEX
  5
42C0
  8
241
  6
CONTINUOUS
 10
41.499999999999829
 20
-0.577350269999986
 30
0.0
  0
VERTEX
  5
42C1
  8
241
  6
CONTINUOUS
 10
42.499999999999829
 20
-1.154700539999985
 30
0.0
  0
VERTEX
  5
42C2
  8
241
  6
CONTINUOUS
 10
43.499999999999822
 20
-0.577350269999986
 30
0.0
  0
VERTEX
  5
42C3
  8
241
  6
CONTINUOUS
 10
43.499999999999822
 20
0.5773502700000143
 30
0.0
  0
VERTEX
  5
42C4
  8
241
  6
CONTINUOUS
 10
42.499999999999829
 20
1.1547005400000141
 30
0.0
  0
VERTEX
  5
42C5
  8
241
  6
CONTINUOUS
 10
41.499999999999829
 20
0.5773502700000143
 30
0.0
  0
SEQEND
  5
42C6
  8
241
  6
CONTINUOUS
  0
CIRCLE
  5
42C7
  8
242
  6
CONTINUOUS
 10
42.499999999999829
 20
0.0000000000000142
 30
0.0
 40
1.75
  0
LINE
  5
42C8
  8
245
  6
CENTER2
 10
42.499999999999829
 20
3.100000000000013
 30
0.0
 11
42.499999999999829
 21
-3.0999999999999841
 31
0.0
  0
TEXT
  5
42C9
  8
250
  6
CONTINUOUS
 10
52.65410369999978
 20
22.579815859999989
 30
0.0
 40
2.799999999999998
  1
CK1
  7
YOKO
1001
ITEMNAME
1000
LNSP3
1001
ACAD
1000
MTEXTBEGIN
1070
    73
1070
     1
1070
    44
1040
1.0
1070
    74
1070
     0
1000
MTEXTEND
1000
MTEXTBEGIN
1070
    73
1070
     1
1070
    44
1040
1.0
1070
    74
1070
     0
1000
MTEXTEND
  0
LINE
  5
42CA
  8
250
  6
CONTINUOUS
 10
47.999999999999822
 20
-9.499999999999984
 30
0.0
 11
56.999999999999829
 21
-9.499999999999984
 31
0.0
  0
LINE
  5
42CB
  8
250
  6
CONTINUOUS
 10
47.999999999999822
 20
9.5000000000000142
 30
0.0
 11
56.999999999999829
 21
9.5000000000000142
 31
0.0
  0
LINE
  5
42CC
  8
250
  6
CONTINUOUS
 10
55.999999999999829
 20
-7.26999999999998
 30
0.0
 11
55.999999999999829
 21
7.2700000000000111
 31
0.0
  0
LINE
  5
42CD
  8
250
  6
CONTINUOUS
 10
44.279818760157653
 20
11.23205080747773
 30
0.0
 11
50.254103699999803
 21
21.579815859999989
 31
0.0
1001
ACAD
1000
DSTYLE
1002
{
1070
     6
1000
OPEN
1070
    41
1040
2.0
1070
    42
1040
2.0
1070
    44
1040
2.0
1070
    79
1070
     2
1070
   140
1040
4.0
1070
   179
1070
     3
1070
   343
1005
0
1070
   371
1070
    -1
1070
   372
1070
    -1
1002
}
  0
TEXT
  5
42CE
  8
250
  6
CONTINUOUS
 10
54.999999999999822
 20
-3.8666666666666489
 30
0.0
 40
2.799999999999998
  1
\U+220519
 50
90.0
1001
ACAD
1000
MTEXTBEGIN
1070
    73
1070
     1
1070
    44
1040
1.0
1070
    74
1070
     0
1000
MTEXTEND
  0
LINE
  5
42CF
  8
250
  6
CONTINUOUS
 10
55.628333333333153
 20
7.2700000000000111
 30
0.0
 11
55.999999999999829
 21
9.5000000000000142
 31
0.0
  0
LINE
  5
42D0
  8
250
  6
CONTINUOUS
 10
56.371666666666471
 20
7.2700000000000111
 30
0.0
 11
55.999999999999829
 21
9.5000000000000142
 31
0.0
  0
LINE
  5
42D1
  8
250
  6
CONTINUOUS
 10
55.999999999999829
 20
9.5000000000000142
 30
0.0
 11
55.999999999999829
 21
7.2700000000000111
 31
0.0
  0
LINE
  5
42D2
  8
250
  6
CONTINUOUS
 10
56.371666666666471
 20
-7.26999999999998
 30
0.0
 11
55.999999999999829
 21
-9.499999999999984
 31
0.0
  0
LINE
  5
42D3
  8
250
  6
CONTINUOUS
 10
55.628333333333153
 20
-7.26999999999998
 30
0.0
 11
55.999999999999829
 21
-9.499999999999984
 31
0.0
  0
LINE
  5
42D4
  8
250
  6
CONTINUOUS
 10
55.999999999999829
 20
-9.499999999999984
 30
0.0
 11
55.999999999999829
 21
-7.26999999999998
 31
0.0
  0
LINE
  5
42D5
  8
250
  6
CONTINUOUS
 10
44.568493894737252
 20
11.06538414078476
 30
0.0
 11
43.279818759999799
 21
9.4999999999999964
 31
0.0
  0
LINE
  5
42D6
  8
250
  6
CONTINUOUS
 10
43.991143625578012
 20
11.3987174741707
 30
0.0
 11
43.279818759999799
 21
9.4999999999999964
 31
0.0
  0
LINE
  5
42D7
  8
250
  6
CONTINUOUS
 10
43.279818759999799
 20
9.4999999999999964
 30
0.0
 11
44.279818760157653
 21
11.23205080747773
 31
0.0
  0
LINE
  5
42D8
  8
243
  6
HIDDEN2
 10
47.499999999999808
 20
-5.5000000000000124
 30
0.0
 11
33.449999999999839
 21
-5.5000000000000142
 31
0.0
  0
TEXT
  5
42EB
  8
241
  6
CONTINUOUS
 10
-24.0
 20
41.999999997139518
 30
0.0
 40
5.0
  1
C4-CKB1-48
  7
YOKO
 11
-24.0
 21
41.999999997139518
 31
0.0
 73
     1
  0
LINE
  5
42EC
  8
250
  6
CONTINUOUS
 10
0.0
 20
20.48999999713952
 30
0.0
 11
0.0
 21
28.999999997139529
 31
0.0
  0
LINE
  5
42ED
  8
250
  6
CONTINUOUS
 10
47.5
 20
9.9999999971395237
 30
0.0
 11
47.5
 21
28.999999997139529
 31
0.0
  0
LINE
  5
42EE
  8
250
  6
CONTINUOUS
 10
2.2299999999999991
 20
27.999999997139529
 30
0.0
 11
45.270000000000003
 21
27.999999997139529
 31
0.0
  0
LINE
  5
42EF
  8
250
  6
CONTINUOUS
 10
2.2299999999999991
 20
27.628333330472859
 30
0.0
 11
0.0
 21
27.999999997139529
 31
0.0
  0
LINE
  5
42F0
  8
250
  6
CONTINUOUS
 10
2.2299999999999991
 20
28.371666663806192
 30
0.0
 11
0.0
 21
27.999999997139529
 31
0.0
  0
LINE
  5
42F1
  8
250
  6
CONTINUOUS
 10
0.0
 20
27.999999997139529
 30
0.0
 11
2.2299999999999991
 21
27.999999997139529
 31
0.0
  0
LINE
  5
42F2
  8
250
  6
CONTINUOUS
 10
45.270000000000003
 20
28.371666663806192
 30
0.0
 11
47.5
 21
27.999999997139529
 31
0.0
  0
LINE
  5
42F3
  8
250
  6
CONTINUOUS
 10
45.270000000000003
 20
27.628333330472859
 30
0.0
 11
47.5
 21
27.999999997139529
 31
0.0
  0
LINE
  5
42F4
  8
250
  6
CONTINUOUS
 10
47.5
 20
27.999999997139529
 30
0.0
 11
45.270000000000003
 21
27.999999997139529
 31
0.0
  0
TEXT
  5
42F5
  8
250
  6
CONTINUOUS
 10
18.75
 20
28.999999997139529
 30
0.0
 40
3.0
  1
47.5
1001
ACAD
1000
MTEXTBEGIN
1070
    73
1070
     1
1070
    44
1040
1.0
1070
    74
1070
     0
1000
MTEXTEND
  0
LINE
  5
4901
  8
245
  6
CENTER2
 10
-48.999999999999872
 20
17.64202416799063
 30
0.0
 11
-48.999999999999879
 21
-17.642024173711441
 31
0.0
  0
LINE
  5
4902
  8
245
  6
CENTER2
 10
-66.642024170850931
 20
-0.0000000028604052
 30
0.0
 11
-31.357975829148842
 21
-0.0000000028604052
 31
0.0
  0
CIRCLE
  5
4903
  8
241
  6
CONTINUOUS
 10
-48.999999999999943
 20
-0.0000000028604052
 30
0.0
 40
6.2999999999999821
  0
CIRCLE
  5
4904
  8
242
  6
CONTINUOUS
 10
-48.999999999999943
 20
-0.0000000028604052
 30
0.0
 40
7.0
  0
ARC
  5
4905
  8
241
  6
CONTINUOUS
 10
-63.999999999999943
 20
-0.0000000028604052
 30
0.0
 40
4.0
 50
303.68130686566451
 51
57.096903795047503
  0
ARC
  5
4906
  8
241
  6
CONTINUOUS
 10
-32.189999999999863
 20
-0.0000000028604052
 30
0.0
 40
4.0
 50
129.75569266280161
 51
231.35348123898629
  0
CIRCLE
  5
4907
  8
241
  6
CONTINUOUS
 10
-48.999999999999943
 20
-0.0000000028604052
 30
0.0
 40
9.0
  0
POLYLINE
  5
4908
  8
240
 66
     1
 10
0.0
 20
0.0
 30
0.0
 70
     8
  0
VERTEX
  5
4909
  8
240
 10
-42.450000000000003
 20
11.344899997139519
 30
0.0
 70
    32
  0
VERTEX
  5
490A
  8
240
 10
-42.323700000000002
 20
11.27139999713952
 30
0.0
 70
    32
  0
VERTEX
  5
490B
  8
240
 10
-42.19789999999999
 20
11.196999997139519
 30
0.0
 70
    32
  0
VERTEX
  5
490C
  8
240
 10
-42.072600000000001
 20
11.12189999713952
 30
0.0
 70
    32
  0
VERTEX
  5
490D
  8
240
 10
-41.947999999999993
 20
11.04589999713952
 30
0.0
 70
    32
  0
VERTEX
  5
490E
  8
240
 10
-41.823900000000002
 20
10.969199997139521
 30
0.0
 70
    32
  0
VERTEX
  5
490F
  8
240
 10
-41.700400000000002
 20
10.891599997139521
 30
0.0
 70
    32
  0
VERTEX
  5
4910
  8
240
 10
-41.57759999999999
 20
10.81329999713952
 30
0.0
 70
    32
  0
VERTEX
  5
4911
  8
240
 10
-41.455299999999987
 20
10.734299997139519
 30
0.0
 70
    32
  0
VERTEX
  5
4912
  8
240
 10
-41.3337
 20
10.654499997139521
 30
0.0
 70
    32
  0
VERTEX
  5
4913
  8
240
 10
-41.212699999999991
 20
10.57389999713952
 30
0.0
 70
    32
  0
VERTEX
  5
4914
  8
240
 10
-41.092399999999991
 20
10.49259999713952
 30
0.0
 70
    32
  0
VERTEX
  5
4915
  8
240
 10
-40.972700000000003
 20
10.410599997139521
 30
0.0
 70
    32
  0
VERTEX
  5
4916
  8
240
 10
-40.8536
 20
10.32779999713952
 30
0.0
 70
    32
  0
VERTEX
  5
4917
  8
240
 10
-40.735300000000002
 20
10.244299997139519
 30
0.0
 70
    32
  0
VERTEX
  5
4918
  8
240
 10
-40.617600000000003
 20
10.16019999713952
 30
0.0
 70
    32
  0
VERTEX
  5
4919
  8
240
 10
-40.500700000000002
 20
10.075299997139521
 30
0.0
 70
    32
  0
VERTEX
  5
491A
  8
240
 10
-40.384399999999999
 20
9.9897299971395235
 30
0.0
 70
    32
  0
VERTEX
  5
491B
  8
240
 10
-40.268900000000002
 20
9.9034899971395234
 30
0.0
 70
    32
  0
VERTEX
  5
491C
  8
240
 10
-40.1541
 20
9.8165799971395238
 30
0.0
 70
    32
  0
VERTEX
  5
491D
  8
240
 10
-40.040100000000002
 20
9.7289999971395211
 30
0.0
 70
    32
  0
VERTEX
  5
491E
  8
240
 10
-39.9268
 20
9.6407699971395235
 30
0.0
 70
    32
  0
VERTEX
  5
491F
  8
240
 10
-39.8142
 20
9.5518799971395243
 30
0.0
 70
    32
  0
VERTEX
  5
4920
  8
240
 10
-39.702399999999997
 20
9.462359997139524
 30
0.0
 70
    32
  0
VERTEX
  5
4921
  8
240
 10
-39.5914
 20
9.3722099971395245
 30
0.0
 70
    32
  0
VERTEX
  5
4922
  8
240
 10
-39.481200000000001
 20
9.2814399971395236
 30
0.0
 70
    32
  0
VERTEX
  5
4923
  8
240
 10
-39.3718
 20
9.1900499971395231
 30
0.0
 70
    32
  0
VERTEX
  5
4924
  8
240
 10
-39.263199999999998
 20
9.0980599971395222
 30
0.0
 70
    32
  0
VERTEX
  5
4925
  8
240
 10
-39.155500000000011
 20
9.0054599971395248
 30
0.0
 70
    32
  0
VERTEX
  5
4926
  8
240
 10
-39.048499999999997
 20
8.9122799971395246
 30
0.0
 70
    32
  0
VERTEX
  5
4927
  8
240
 10
-38.942399999999999
 20
8.8185199971395232
 30
0.0
 70
    32
  0
VERTEX
  5
4928
  8
240
 10
-38.837200000000003
 20
8.7241799971395242
 30
0.0
 70
    32
  0
VERTEX
  5
4929
  8
240
 10
-38.732799999999997
 20
8.6292799971395233
 30
0.0
 70
    32
  0
VERTEX
  5
492A
  8
240
 10
-38.629300000000001
 20
8.5338299971395237
 30
0.0
 70
    32
  0
VERTEX
  5
492B
  8
240
 10
-38.526699999999998
 20
8.437819997139524
 30
0.0
 70
    32
  0
VERTEX
  5
492C
  8
240
 10
-38.424999999999997
 20
8.3412799971395248
 30
0.0
 70
    32
  0
VERTEX
  5
492D
  8
240
 10
-38.324199999999998
 20
8.2442099971395244
 30
0.0
 70
    32
  0
VERTEX
  5
492E
  8
240
 10
-38.224299999999999
 20
8.1466099971395245
 30
0.0
 70
    32
  0
VERTEX
  5
492F
  8
240
 10
-38.125300000000003
 20
8.0484999971395244
 30
0.0
 70
    32
  0
VERTEX
  5
4930
  8
240
 10
-38.027299999999997
 20
7.9498799971395231
 30
0.0
 70
    32
  0
VERTEX
  5
4931
  8
240
 10
-37.930199999999999
 20
7.850759997139523
 30
0.0
 70
    32
  0
VERTEX
  5
4932
  8
240
 10
-37.834099999999999
 20
7.7511599971395242
 30
0.0
 70
    32
  0
VERTEX
  5
4933
  8
240
 10
-37.738900000000001
 20
7.6510699971395226
 30
0.0
 70
    32
  0
VERTEX
  5
4934
  8
240
 10
-37.6447
 20
7.5505099971395238
 30
0.0
 70
    32
  0
VERTEX
  5
4935
  8
240
 10
-37.551499999999997
 20
7.449479997139524
 30
0.0
 70
    32
  0
VERTEX
  5
4936
  8
240
 10
-37.459299999999999
 20
7.3479999971395227
 30
0.0
 70
    32
  0
VERTEX
  5
4937
  8
240
 10
-37.368099999999998
 20
7.2460699971395233
 30
0.0
 70
    32
  0
VERTEX
  5
4938
  8
240
 10
-37.277999999999999
 20
7.1436999971395228
 30
0.0
 70
    32
  0
VERTEX
  5
4939
  8
240
 10
-37.188800000000001
 20
7.040889997139522
 30
0.0
 70
    32
  0
VERTEX
  5
493A
  8
240
 10
-37.100700000000003
 20
6.9376699971395226
 30
0.0
 70
    32
  0
VERTEX
  5
493B
  8
240
 10
-37.0137
 20
6.8340299971395231
 30
0.0
 70
    32
  0
VERTEX
  5
493C
  8
240
 10
-36.927700000000002
 20
6.7299799971395231
 30
0.0
 70
    32
  0
VERTEX
  5
493D
  8
240
 10
-36.842799999999997
 20
6.6255299971395241
 30
0.0
 70
    32
  0
VERTEX
  5
493E
  8
240
 10
-36.758899999999997
 20
6.5206999971395234
 30
0.0
 70
    32
  0
VERTEX
  5
493F
  8
240
 10
-36.676200000000001
 20
6.4154799971395242
 30
0.0
 70
    32
  0
VERTEX
  5
4940
  8
240
 10
-36.594499999999996
 20
6.309889997139523
 30
0.0
 70
    32
  0
VERTEX
  5
4941
  8
240
 10
-36.51400000000001
 20
6.2039299971395243
 30
0.0
 70
    32
  0
VERTEX
  5
4942
  8
240
 10
-36.43460000000001
 20
6.0976099971395232
 30
0.0
 70
    32
  0
VERTEX
  5
4943
  8
240
 10
-36.356299999999997
 20
5.9909499971395226
 30
0.0
 70
    32
  0
VERTEX
  5
4944
  8
240
 10
-36.279200000000003
 20
5.8839499971395233
 30
0.0
 70
    32
  0
VERTEX
  5
4945
  8
240
 10
-36.203200000000002
 20
5.7766099971395226
 30
0.0
 70
    32
  0
VERTEX
  5
4946
  8
240
 10
-36.128399999999999
 20
5.6689499971395234
 30
0.0
 70
    32
  0
VERTEX
  5
4947
  8
240
 10
-36.0548
 20
5.5609799971395244
 30
0.0
 70
    32
  0
VERTEX
  5
4948
  8
240
 10
-35.982300000000002
 20
5.4526999971395229
 30
0.0
 70
    32
  0
VERTEX
  5
4949
  8
240
 10
-35.911099999999998
 20
5.344119997139523
 30
0.0
 70
    32
  0
VERTEX
  5
494A
  8
240
 10
-35.841000000000001
 20
5.2352499971395234
 30
0.0
 70
    32
  0
VERTEX
  5
494B
  8
240
 10
-35.772199999999998
 20
5.1260899971395242
 30
0.0
 70
    32
  0
VERTEX
  5
494C
  8
240
 10
-35.704599999999999
 20
5.0166599971395227
 30
0.0
 70
    32
  0
VERTEX
  5
494D
  8
240
 10
-35.638199999999998
 20
4.9069699971395231
 30
0.0
 70
    32
  0
VERTEX
  5
494E
  8
240
 10
-35.573099999999997
 20
4.7970199971395227
 30
0.0
 70
    32
  0
VERTEX
  5
494F
  8
240
 10
-35.5092
 20
4.6868199971395228
 30
0.0
 70
    32
  0
VERTEX
  5
4950
  8
240
 10
-35.446599999999997
 20
4.576379997139524
 30
0.0
 70
    32
  0
VERTEX
  5
4951
  8
240
 10
-35.385300000000001
 20
4.4657099971395233
 30
0.0
 70
    32
  0
VERTEX
  5
4952
  8
240
 10
-35.325299999999999
 20
4.3548099971395233
 30
0.0
 70
    32
  0
VERTEX
  5
4953
  8
240
 10
-35.266500000000001
 20
4.2436999971395233
 30
0.0
 70
    32
  0
VERTEX
  5
4954
  8
240
 10
-35.209099999999999
 20
4.1323799971395241
 30
0.0
 70
    32
  0
VERTEX
  5
4955
  8
240
 10
-35.152999999999999
 20
4.0208599971395227
 30
0.0
 70
    32
  0
VERTEX
  5
4956
  8
240
 10
-35.098199999999999
 20
3.9091499971395232
 30
0.0
 70
    32
  0
VERTEX
  5
4957
  8
240
 10
-35.044800000000002
 20
3.7972499971395228
 30
0.0
 70
    32
  0
VERTEX
  5
4958
  8
240
 10
-34.992699999999999
 20
3.685179997139524
 30
0.0
 70
    32
  0
VERTEX
  5
4959
  8
240
 10
-34.942
 20
3.5729499971395229
 30
0.0
 70
    32
  0
VERTEX
  5
495A
  8
240
 10
-34.892600000000002
 20
3.4605599971395229
 30
0.0
 70
    32
  0
VERTEX
  5
495B
  8
240
 10
-34.844700000000003
 20
3.3480199971395228
 30
0.0
 70
    32
  0
VERTEX
  5
495C
  8
240
 10
-34.798099999999998
 20
3.235339997139524
 30
0.0
 70
    32
  0
VERTEX
  5
495D
  8
240
 10
-34.752899999999997
 20
3.122519997139523
 30
0.0
 70
    32
  0
VERTEX
  5
495E
  8
240
 10
-34.709099999999999
 20
3.009579997139523
 30
0.0
 70
    32
  0
VERTEX
  5
495F
  8
240
 10
-34.666800000000002
 20
2.896519997139523
 30
0.0
 70
    32
  0
VERTEX
  5
4960
  8
240
 10
-34.625900000000001
 20
2.7833599971395229
 30
0.0
 70
    32
  0
VERTEX
  5
4961
  8
240
 10
-34.586399999999998
 20
2.670099997139523
 30
0.0
 70
    32
  0
VERTEX
  5
4962
  8
240
 10
-34.548400000000001
 20
2.5567399971395228
 30
0.0
 70
    32
  0
VERTEX
  5
4963
  8
240
 10
-34.511899999999997
 20
2.4432999971395231
 30
0.0
 70
    32
  0
VERTEX
  5
4964
  8
240
 10
-34.476799999999997
 20
2.3297899971395228
 30
0.0
 70
    32
  0
VERTEX
  5
4965
  8
240
 10
-34.443199999999997
 20
2.216209997139523
 30
0.0
 70
    32
  0
VERTEX
  5
4966
  8
240
 10
-34.411099999999998
 20
2.1025699971395229
 30
0.0
 70
    32
  0
VERTEX
  5
4967
  8
240
 10
-34.380499999999998
 20
1.988879997139523
 30
0.0
 70
    32
  0
VERTEX
  5
4968
  8
240
 10
-34.351500000000001
 20
1.8751499971395229
 30
0.0
 70
    32
  0
VERTEX
  5
4969
  8
240
 10
-34.323900000000002
 20
1.761389997139523
 30
0.0
 70
    32
  0
VERTEX
  5
496A
  8
240
 10
-34.297899999999998
 20
1.647599997139523
 30
0.0
 70
    32
  0
VERTEX
  5
496B
  8
240
 10
-34.273499999999999
 20
1.5337999971395231
 30
0.0
 70
    32
  0
VERTEX
  5
496C
  8
240
 10
-34.250599999999999
 20
1.4199799971395231
 30
0.0
 70
    32
  0
VERTEX
  5
496D
  8
240
 10
-34.229199999999999
 20
1.3061699971395231
 30
0.0
 70
    32
  0
VERTEX
  5
496E
  8
240
 10
-34.209499999999998
 20
1.192369997139523
 30
0.0
 70
    32
  0
VERTEX
  5
496F
  8
240
 10
-34.191299999999998
 20
1.0785799971395229
 30
0.0
 70
    32
  0
VERTEX
  5
4970
  8
240
 10
-34.174799999999998
 20
0.9648149971395236
 30
0.0
 70
    32
  0
VERTEX
  5
4971
  8
240
 10
-34.159799999999997
 20
0.8510849971395238
 30
0.0
 70
    32
  0
VERTEX
  5
4972
  8
240
 10
-34.146500000000003
 20
0.7373959971395238
 30
0.0
 70
    32
  0
VERTEX
  5
4973
  8
240
 10
-34.134799999999998
 20
0.6237569971395237
 30
0.0
 70
    32
  0
VERTEX
  5
4974
  8
240
 10
-34.124699999999997
 20
0.5101759971395238
 30
0.0
 70
    32
  0
VERTEX
  5
4975
  8
240
 10
-34.11630000000001
 20
0.3966609971395237
 30
0.0
 70
    32
  0
VERTEX
  5
4976
  8
240
 10
-34.109499999999997
 20
0.2832199971395237
 30
0.0
 70
    32
  0
VERTEX
  5
4977
  8
240
 10
-34.104500000000002
 20
0.1698629971395237
 30
0.0
 70
    32
  0
VERTEX
  5
4978
  8
240
 10
-34.101100000000002
 20
0.0565963971395237
 30
0.0
 70
    32
  0
VERTEX
  5
4979
  8
240
 10
-34.09940000000001
 20
-0.0565706028604763
 30
0.0
 70
    32
  0
VERTEX
  5
497A
  8
240
 10
-34.099299999999999
 20
-0.1696330028604763
 30
0.0
 70
    32
  0
VERTEX
  5
497B
  8
240
 10
-34.100999999999999
 20
-0.2825870028604763
 30
0.0
 70
    32
  0
VERTEX
  5
497C
  8
240
 10
-34.104399999999998
 20
-0.3954310028604762
 30
0.0
 70
    32
  0
VERTEX
  5
497D
  8
240
 10
-34.109400000000001
 20
-0.5081610028604763
 30
0.0
 70
    32
  0
VERTEX
  5
497E
  8
240
 10
-34.116
 20
-0.6207760028604764
 30
0.0
 70
    32
  0
VERTEX
  5
497F
  8
240
 10
-34.124400000000001
 20
-0.7332720028604765
 30
0.0
 70
    32
  0
VERTEX
  5
4980
  8
240
 10
-34.134300000000003
 20
-0.8456470028604762
 30
0.0
 70
    32
  0
VERTEX
  5
4981
  8
240
 10
-34.145899999999997
 20
-0.9578980028604762
 30
0.0
 70
    32
  0
VERTEX
  5
4982
  8
240
 10
-34.159100000000002
 20
-1.070020002860476
 30
0.0
 70
    32
  0
VERTEX
  5
4983
  8
240
 10
-34.173999999999999
 20
-1.1820200028604759
 30
0.0
 70
    32
  0
VERTEX
  5
4984
  8
240
 10
-34.190399999999997
 20
-1.293880002860476
 30
0.0
 70
    32
  0
VERTEX
  5
4985
  8
240
 10
-34.208399999999997
 20
-1.4056100028604761
 30
0.0
 70
    32
  0
VERTEX
  5
4986
  8
240
 10
-34.228099999999998
 20
-1.517200002860476
 30
0.0
 70
    32
  0
VERTEX
  5
4987
  8
240
 10
-34.249299999999998
 20
-1.6286400028604759
 30
0.0
 70
    32
  0
VERTEX
  5
4988
  8
240
 10
-34.271999999999998
 20
-1.739950002860476
 30
0.0
 70
    32
  0
VERTEX
  5
4989
  8
240
 10
-34.296399999999998
 20
-1.8511100028604759
 30
0.0
 70
    32
  0
VERTEX
  5
498A
  8
240
 10
-34.322299999999998
 20
-1.9621200028604759
 30
0.0
 70
    32
  0
VERTEX
  5
498B
  8
240
 10
-34.349699999999999
 20
-2.0729800028604761
 30
0.0
 70
    32
  0
VERTEX
  5
498C
  8
240
 10
-34.378700000000002
 20
-2.1836900028604762
 30
0.0
 70
    32
  0
VERTEX
  5
498D
  8
240
 10
-34.409199999999998
 20
-2.2942400028604761
 30
0.0
 70
    32
  0
VERTEX
  5
498E
  8
240
 10
-34.441200000000002
 20
-2.4046300028604759
 30
0.0
 70
    32
  0
VERTEX
  5
498F
  8
240
 10
-34.474699999999999
 20
-2.5148600028604751
 30
0.0
 70
    32
  0
VERTEX
  5
4990
  8
240
 10
-34.509799999999998
 20
-2.6249200028604762
 30
0.0
 70
    32
  0
VERTEX
  5
4991
  8
240
 10
-34.546300000000002
 20
-2.7348200028604759
 30
0.0
 70
    32
  0
VERTEX
  5
4992
  8
240
 10
-34.584299999999999
 20
-2.8445400028604761
 30
0.0
 70
    32
  0
VERTEX
  5
4993
  8
240
 10
-34.623800000000003
 20
-2.9540900028604762
 30
0.0
 70
    32
  0
VERTEX
  5
4994
  8
240
 10
-34.664700000000011
 20
-3.063470002860476
 30
0.0
 70
    32
  0
VERTEX
  5
4995
  8
240
 10
-34.707099999999997
 20
-3.172670002860476
 30
0.0
 70
    32
  0
VERTEX
  5
4996
  8
240
 10
-34.750999999999998
 20
-3.281680002860476
 30
0.0
 70
    32
  0
VERTEX
  5
4997
  8
240
 10
-34.796300000000002
 20
-3.3905200028604749
 30
0.0
 70
    32
  0
VERTEX
  5
4998
  8
240
 10
-34.843000000000011
 20
-3.4991600028604761
 30
0.0
 70
    32
  0
VERTEX
  5
4999
  8
240
 10
-34.891199999999998
 20
-3.6076200028604761
 30
0.0
 70
    32
  0
VERTEX
  5
499A
  8
240
 10
-34.9407
 20
-3.7158800028604762
 30
0.0
 70
    32
  0
VERTEX
  5
499B
  8
240
 10
-34.991700000000002
 20
-3.8239500028604758
 30
0.0
 70
    32
  0
VERTEX
  5
499C
  8
240
 10
-35.0441
 20
-3.931830002860476
 30
0.0
 70
    32
  0
VERTEX
  5
499D
  8
240
 10
-35.097799999999999
 20
-4.0395000028604757
 30
0.0
 70
    32
  0
VERTEX
  5
499E
  8
240
 10
-35.152999999999999
 20
-4.146970002860475
 30
0.0
 70
    32
  0
VERTEX
  5
499F
  8
240
 10
-35.209499999999998
 20
-4.254230002860476
 30
0.0
 70
    32
  0
VERTEX
  5
49A0
  8
240
 10
-35.267400000000002
 20
-4.361280002860477
 30
0.0
 70
    32
  0
VERTEX
  5
49A1
  8
240
 10
-35.326599999999999
 20
-4.4681300028604758
 30
0.0
 70
    32
  0
VERTEX
  5
49A2
  8
240
 10
-35.387099999999997
 20
-4.5747600028604749
 30
0.0
 70
    32
  0
VERTEX
  5
49A3
  8
240
 10
-35.449100000000001
 20
-4.6811700028604761
 30
0.0
 70
    32
  0
VERTEX
  5
49A4
  8
240
 10
-35.512300000000003
 20
-4.787360002860475
 30
0.0
 70
    32
  0
VERTEX
  5
49A5
  8
240
 10
-35.576799999999999
 20
-4.893330002860476
 30
0.0
 70
    32
  0
VERTEX
  5
49A6
  8
240
 10
-35.642699999999998
 20
-4.9990800028604756
 30
0.0
 70
    32
  0
VERTEX
  5
49A7
  8
240
 10
-35.709899999999998
 20
-5.104600002860475
 30
0.0
 70
    32
  0
VERTEX
  5
49A8
  8
240
 10
-35.778300000000002
 20
-5.209890002860476
 30
0.0
 70
    32
  0
VERTEX
  5
49A9
  8
240
 10
-35.848100000000002
 20
-5.314950002860475
 30
0.0
 70
    32
  0
VERTEX
  5
49AA
  8
240
 10
-35.9191
 20
-5.4197700028604761
 30
0.0
 70
    32
  0
VERTEX
  5
49AB
  8
240
 10
-35.991399999999999
 20
-5.5243500028604764
 30
0.0
 70
    32
  0
VERTEX
  5
49AC
  8
240
 10
-36.064900000000002
 20
-5.628690002860476
 30
0.0
 70
    32
  0
VERTEX
  5
49AD
  8
240
 10
-36.139699999999998
 20
-5.7327900028604759
 30
0.0
 70
    32
  0
VERTEX
  5
49AE
  8
240
 10
-36.215699999999998
 20
-5.8366400028604764
 30
0.0
 70
    32
  0
VERTEX
  5
49AF
  8
240
 10
-36.292999999999999
 20
-5.9402400028604756
 30
0.0
 70
    32
  0
VERTEX
  5
49B0
  8
240
 10
-36.371499999999997
 20
-6.0435900028604763
 30
0.0
 70
    32
  0
VERTEX
  5
49B1
  8
240
 10
-36.4512
 20
-6.1466800028604762
 30
0.0
 70
    32
  0
VERTEX
  5
49B2
  8
240
 10
-36.5321
 20
-6.2495200028604749
 30
0.0
 70
    32
  0
VERTEX
  5
49B3
  8
240
 10
-36.614199999999997
 20
-6.3520900028604759
 30
0.0
 70
    32
  0
VERTEX
  5
49B4
  8
240
 10
-36.697499999999998
 20
-6.4544100028604756
 30
0.0
 70
    32
  0
VERTEX
  5
49B5
  8
240
 10
-36.7819
 20
-6.5564600028604758
 30
0.0
 70
    32
  0
VERTEX
  5
49B6
  8
240
 10
-36.867600000000003
 20
-6.6582400028604747
 30
0.0
 70
    32
  0
VERTEX
  5
49B7
  8
240
 10
-36.9544
 20
-6.7597500028604758
 30
0.0
 70
    32
  0
VERTEX
  5
49B8
  8
240
 10
-37.042299999999997
 20
-6.8609800028604759
 30
0.0
 70
    32
  0
VERTEX
  5
49B9
  8
240
 10
-37.131399999999999
 20
-6.9619400028604748
 30
0.0
 70
    32
  0
VERTEX
  5
49BA
  8
240
 10
-37.221699999999998
 20
-7.0626200028604762
 30
0.0
 70
    32
  0
VERTEX
  5
49BB
  8
240
 10
-37.313000000000002
 20
-7.1630200028604749
 30
0.0
 70
    32
  0
VERTEX
  5
49BC
  8
240
 10
-37.405500000000011
 20
-7.2631300028604757
 30
0.0
 70
    32
  0
VERTEX
  5
49BD
  8
240
 10
-37.499099999999999
 20
-7.3629500028604751
 30
0.0
 70
    32
  0
VERTEX
  5
49BE
  8
240
 10
-37.593800000000002
 20
-7.4624900028604761
 30
0.0
 70
    32
  0
VERTEX
  5
49BF
  8
240
 10
-37.689599999999999
 20
-7.561730002860477
 30
0.0
 70
    32
  0
VERTEX
  5
49C0
  8
240
 10
-37.786499999999997
 20
-7.6606800028604756
 30
0.0
 70
    32
  0
VERTEX
  5
49C1
  8
240
 10
-37.884399999999999
 20
-7.7593300028604757
 30
0.0
 70
    32
  0
VERTEX
  5
49C2
  8
240
 10
-37.983400000000003
 20
-7.857670002860476
 30
0.0
 70
    32
  0
VERTEX
  5
49C3
  8
240
 10
-38.083500000000001
 20
-7.9557200028604749
 30
0.0
 70
    32
  0
VERTEX
  5
49C4
  8
240
 10
-38.184600000000003
 20
-8.0534500028604761
 30
0.0
 70
    32
  0
VERTEX
  5
49C5
  8
240
 10
-38.286799999999999
 20
-8.1508800028604771
 30
0.0
 70
    32
  0
VERTEX
  5
49C6
  8
240
 10
-38.389899999999997
 20
-8.2480000028604756
 30
0.0
 70
    32
  0
VERTEX
  5
49C7
  8
240
 10
-38.494199999999999
 20
-8.3448000028604756
 30
0.0
 70
    32
  0
VERTEX
  5
49C8
  8
240
 10
-38.599400000000003
 20
-8.4412800028604771
 30
0.0
 70
    32
  0
VERTEX
  5
49C9
  8
240
 10
-38.705599999999997
 20
-8.5374500028604761
 30
0.0
 70
    32
  0
VERTEX
  5
49CA
  8
240
 10
-38.812800000000003
 20
-8.6332900028604751
 30
0.0
 70
    32
  0
VERTEX
  5
49CB
  8
240
 10
-38.921100000000003
 20
-8.7288100028604774
 30
0.0
 70
    32
  0
VERTEX
  5
49CC
  8
240
 10
-39.030299999999997
 20
-8.8239900028604765
 30
0.0
 70
    32
  0
VERTEX
  5
49CD
  8
240
 10
-39.1404
 20
-8.9188500028604771
 30
0.0
 70
    32
  0
VERTEX
  5
49CE
  8
240
 10
-39.251600000000003
 20
-9.0133700028604764
 30
0.0
 70
    32
  0
VERTEX
  5
49CF
  8
240
 10
-39.363599999999998
 20
-9.1075600028604775
 30
0.0
 70
    32
  0
VERTEX
  5
49D0
  8
240
 10
-39.476700000000001
 20
-9.2014100028604773
 30
0.0
 70
    32
  0
VERTEX
  5
49D1
  8
240
 10
-39.590600000000002
 20
-9.2949100028604761
 30
0.0
 70
    32
  0
VERTEX
  5
49D2
  8
240
 10
-39.705500000000001
 20
-9.3880700028604753
 30
0.0
 70
    32
  0
VERTEX
  5
49D3
  8
240
 10
-39.821300000000001
 20
-9.480890002860475
 30
0.0
 70
    32
  0
VERTEX
  5
49D4
  8
240
 10
-39.938000000000002
 20
-9.5733500028604759
 30
0.0
 70
    32
  0
VERTEX
  5
49D5
  8
240
 10
-40.055700000000002
 20
-9.6654600028604776
 30
0.0
 70
    32
  0
VERTEX
  5
49D6
  8
240
 10
-40.174199999999999
 20
-9.7572200028604765
 30
0.0
 70
    32
  0
VERTEX
  5
49D7
  8
240
 10
-40.293599999999991
 20
-9.8486200028604767
 30
0.0
 70
    32
  0
VERTEX
  5
49D8
  8
240
 10
-40.413800000000002
 20
-9.9396500028604766
 30
0.0
 70
    32
  0
VERTEX
  5
49D9
  8
240
 10
-40.534999999999989
 20
-10.03030000286047
 30
0.0
 70
    32
  0
VERTEX
  5
49DA
  8
240
 10
-40.656999999999989
 20
-10.120600002860471
 30
0.0
 70
    32
  0
VERTEX
  5
49DB
  8
240
 10
-40.779800000000002
 20
-10.21060000286047
 30
0.0
 70
    32
  0
VERTEX
  5
49DC
  8
240
 10
-40.903499999999987
 20
-10.30010000286047
 30
0.0
 70
    32
  0
VERTEX
  5
49DD
  8
240
 10
-41.027999999999999
 20
-10.38930000286047
 30
0.0
 70
    32
  0
VERTEX
  5
49DE
  8
240
 10
-41.153300000000002
 20
-10.47810000286047
 30
0.0
 70
    32
  0
VERTEX
  5
49DF
  8
240
 10
-41.279499999999999
 20
-10.56660000286047
 30
0.0
 70
    32
  0
VERTEX
  5
49E0
  8
240
 10
-41.406399999999998
 20
-10.654600002860469
 30
0.0
 70
    32
  0
VERTEX
  5
49E1
  8
240
 10
-41.534199999999991
 20
-10.742300002860469
 30
0.0
 70
    32
  0
VERTEX
  5
49E2
  8
240
 10
-41.662699999999987
 20
-10.82960000286047
 30
0.0
 70
    32
  0
VERTEX
  5
49E3
  8
240
 10
-41.792000000000002
 20
-10.91650000286047
 30
0.0
 70
    32
  0
VERTEX
  5
49E4
  8
240
 10
-41.9221
 20
-11.00290000286047
 30
0.0
 70
    32
  0
VERTEX
  5
49E5
  8
240
 10
-42.052999999999997
 20
-11.08900000286047
 30
0.0
 70
    32
  0
VERTEX
  5
49E6
  8
240
 10
-42.184600000000003
 20
-11.174700002860471
 30
0.0
 70
    32
  0
VERTEX
  5
49E7
  8
240
 10
-42.31689999999999
 20
-11.260000002860471
 30
0.0
 70
    32
  0
VERTEX
  5
49E8
  8
240
 10
-42.450000000000003
 20
-11.344900002860481
 30
0.0
 70
    32
  0
SEQEND
  5
49E9
  8
240
  0
POLYLINE
  5
49EA
  8
240
 66
     1
 10
0.0
 20
0.0
 30
0.0
 70
     8
  0
VERTEX
  5
49EB
  8
240
 10
-62.100000000000001
 20
-0.0000000045549563
 30
0.0
 70
    32
  0
VERTEX
  5
49EC
  8
240
 10
-62.099499999999999
 20
0.1461889971395237
 30
0.0
 70
    32
  0
VERTEX
  5
49ED
  8
240
 10
-62.097999999999999
 20
0.2923059971395237
 30
0.0
 70
    32
  0
VERTEX
  5
49EE
  8
240
 10
-62.095500000000001
 20
0.4383369971395237
 30
0.0
 70
    32
  0
VERTEX
  5
49EF
  8
240
 10
-62.092100000000002
 20
0.5842689971395237
 30
0.0
 70
    32
  0
VERTEX
  5
49F0
  8
240
 10
-62.087600000000002
 20
0.7300889971395237
 30
0.0
 70
    32
  0
VERTEX
  5
49F1
  8
240
 10
-62.0822
 20
0.8757839971395236
 30
0.0
 70
    32
  0
VERTEX
  5
49F2
  8
240
 10
-62.075800000000001
 20
1.0213399971395229
 30
0.0
 70
    32
  0
VERTEX
  5
49F3
  8
240
 10
-62.0685
 20
1.166749997139523
 30
0.0
 70
    32
  0
VERTEX
  5
49F4
  8
240
 10
-62.060200000000002
 20
1.311989997139523
 30
0.0
 70
    32
  0
VERTEX
  5
49F5
  8
240
 10
-62.050899999999999
 20
1.457049997139523
 30
0.0
 70
    32
  0
VERTEX
  5
49F6
  8
240
 10
-62.040700000000001
 20
1.601919997139523
 30
0.0
 70
    32
  0
VERTEX
  5
49F7
  8
240
 10
-62.029499999999999
 20
1.7465899971395229
 30
0.0
 70
    32
  0
VERTEX
  5
49F8
  8
240
 10
-62.017299999999999
 20
1.8910399971395231
 30
0.0
 70
    32
  0
VERTEX
  5
49F9
  8
240
 10
-62.004199999999997
 20
2.0352699971395229
 30
0.0
 70
    32
  0
VERTEX
  5
49FA
  8
240
 10
-61.990099999999998
 20
2.1792499971395229
 30
0.0
 70
    32
  0
VERTEX
  5
49FB
  8
240
 10
-61.975099999999998
 20
2.322969997139523
 30
0.0
 70
    32
  0
VERTEX
  5
49FC
  8
240
 10
-61.959099999999999
 20
2.4664199971395231
 30
0.0
 70
    32
  0
VERTEX
  5
49FD
  8
240
 10
-61.9422
 20
2.6095899971395231
 30
0.0
 70
    32
  0
VERTEX
  5
49FE
  8
240
 10
-61.924300000000002
 20
2.752469997139523
 30
0.0
 70
    32
  0
VERTEX
  5
49FF
  8
240
 10
-61.905500000000004
 20
2.8950399971395231
 30
0.0
 70
    32
  0
VERTEX
  5
4A00
  8
240
 10
-61.885800000000003
 20
3.0372799971395228
 30
0.0
 70
    32
  0
VERTEX
  5
4A01
  8
240
 10
-61.865099999999998
 20
3.179189997139523
 30
0.0
 70
    32
  0
VERTEX
  5
4A02
  8
240
 10
-61.843400000000003
 20
3.3207499971395231
 30
0.0
 70
    32
  0
VERTEX
  5
4A03
  8
240
 10
-61.820900000000002
 20
3.4619499971395231
 30
0.0
 70
    32
  0
VERTEX
  5
4A04
  8
240
 10
-61.7973
 20
3.6027799971395229
 30
0.0
 70
    32
  0
VERTEX
  5
4A05
  8
240
 10
-61.7729
 20
3.7432199971395228
 30
0.0
 70
    32
  0
VERTEX
  5
4A06
  8
240
 10
-61.747500000000002
 20
3.8832599971395232
 30
0.0
 70
    32
  0
VERTEX
  5
4A07
  8
240
 10
-61.721200000000003
 20
4.0228799971395244
 30
0.0
 70
    32
  0
VERTEX
  5
4A08
  8
240
 10
-61.694000000000003
 20
4.1620799971395241
 30
0.0
 70
    32
  0
VERTEX
  5
4A09
  8
240
 10
-61.66579999999999
 20
4.3008399971395228
 30
0.0
 70
    32
  0
VERTEX
  5
4A0A
  8
240
 10
-61.636800000000001
 20
4.4391499971395234
 30
0.0
 70
    32
  0
VERTEX
  5
4A0B
  8
240
 10
-61.6068
 20
4.5769799971395244
 30
0.0
 70
    32
  0
VERTEX
  5
4A0C
  8
240
 10
-61.575800000000001
 20
4.7143399971395228
 30
0.0
 70
    32
  0
VERTEX
  5
4A0D
  8
240
 10
-61.54399999999999
 20
4.8512099971395228
 30
0.0
 70
    32
  0
VERTEX
  5
4A0E
  8
240
 10
-61.511299999999999
 20
4.987579997139524
 30
0.0
 70
    32
  0
VERTEX
  5
4A0F
  8
240
 10
-61.477600000000002
 20
5.1234199971395231
 30
0.0
 70
    32
  0
VERTEX
  5
4A10
  8
240
 10
-61.442999999999998
 20
5.2587299971395227
 30
0.0
 70
    32
  0
VERTEX
  5
4A11
  8
240
 10
-61.407499999999999
 20
5.3934999971395241
 30
0.0
 70
    32
  0
VERTEX
  5
4A12
  8
240
 10
-61.371200000000002
 20
5.5277099971395227
 30
0.0
 70
    32
  0
VERTEX
  5
4A13
  8
240
 10
-61.3339
 20
5.6613499971395234
 30
0.0
 70
    32
  0
VERTEX
  5
4A14
  8
240
 10
-61.295699999999997
 20
5.7943999971395241
 30
0.0
 70
    32
  0
VERTEX
  5
4A15
  8
240
 10
-61.256599999999992
 20
5.9268599971395233
 30
0.0
 70
    32
  0
VERTEX
  5
4A16
  8
240
 10
-61.2166
 20
6.0587099971395233
 30
0.0
 70
    32
  0
VERTEX
  5
4A17
  8
240
 10
-61.175699999999999
 20
6.1899299971395241
 30
0.0
 70
    32
  0
VERTEX
  5
4A18
  8
240
 10
-61.13389999999999
 20
6.3205199971395229
 30
0.0
 70
    32
  0
VERTEX
  5
4A19
  8
240
 10
-61.091200000000001
 20
6.4504599971395233
 30
0.0
 70
    32
  0
VERTEX
  5
4A1A
  8
240
 10
-61.047600000000003
 20
6.5797299971395242
 30
0.0
 70
    32
  0
VERTEX
  5
4A1B
  8
240
 10
-61.003199999999993
 20
6.7083299971395229
 30
0.0
 70
    32
  0
VERTEX
  5
4A1C
  8
240
 10
-60.957799999999999
 20
6.836239997139522
 30
0.0
 70
    32
  0
VERTEX
  5
4A1D
  8
240
 10
-60.9116
 20
6.9634499971395227
 30
0.0
 70
    32
  0
VERTEX
  5
4A1E
  8
240
 10
-60.8645
 20
7.0899399971395232
 30
0.0
 70
    32
  0
VERTEX
  5
4A1F
  8
240
 10
-60.816499999999991
 20
7.2156999971395228
 30
0.0
 70
    32
  0
VERTEX
  5
4A20
  8
240
 10
-60.767600000000002
 20
7.3407299971395243
 30
0.0
 70
    32
  0
VERTEX
  5
4A21
  8
240
 10
-60.7179
 20
7.464989997139523
 30
0.0
 70
    32
  0
VERTEX
  5
4A22
  8
240
 10
-60.667200000000001
 20
7.5884899971395221
 30
0.0
 70
    32
  0
VERTEX
  5
4A23
  8
240
 10
-60.6158
 20
7.711209997139524
 30
0.0
 70
    32
  0
VERTEX
  5
4A24
  8
240
 10
-60.563400000000001
 20
7.833139997139523
 30
0.0
 70
    32
  0
VERTEX
  5
4A25
  8
240
 10
-60.510100000000001
 20
7.9542599971395243
 30
0.0
 70
    32
  0
VERTEX
  5
4A26
  8
240
 10
-60.456000000000003
 20
8.074549997139524
 30
0.0
 70
    32
  0
VERTEX
  5
4A27
  8
240
 10
-60.4011
 20
8.1940199971395238
 30
0.0
 70
    32
  0
VERTEX
  5
4A28
  8
240
 10
-60.345199999999998
 20
8.3126399971395237
 30
0.0
 70
    32
  0
VERTEX
  5
4A29
  8
240
 10
-60.288600000000002
 20
8.4303999971395243
 30
0.0
 70
    32
  0
VERTEX
  5
4A2A
  8
240
 10
-60.231000000000002
 20
8.5472799971395244
 30
0.0
 70
    32
  0
VERTEX
  5
4A2B
  8
240
 10
-60.172600000000003
 20
8.663279997139524
 30
0.0
 70
    32
  0
VERTEX
  5
4A2C
  8
240
 10
-60.113300000000002
 20
8.7783899971395236
 30
0.0
 70
    32
  0
VERTEX
  5
4A2D
  8
240
 10
-60.053199999999997
 20
8.8925799971395243
 30
0.0
 70
    32
  0
VERTEX
  5
4A2E
  8
240
 10
-59.9923
 20
9.0058399971395229
 30
0.0
 70
    32
  0
VERTEX
  5
4A2F
  8
240
 10
-59.930500000000002
 20
9.1181699971395211
 30
0.0
 70
    32
  0
VERTEX
  5
4A30
  8
240
 10
-59.867800000000003
 20
9.2295399971395238
 30
0.0
 70
    32
  0
VERTEX
  5
4A31
  8
240
 10
-59.804299999999998
 20
9.3399499971395237
 30
0.0
 70
    32
  0
VERTEX
  5
4A32
  8
240
 10
-59.740000000000002
 20
9.4493899971395212
 30
0.0
 70
    32
  0
VERTEX
  5
4A33
  8
240
 10
-59.674799999999998
 20
9.5578299971395246
 30
0.0
 70
    32
  0
VERTEX
  5
4A34
  8
240
 10
-59.608699999999992
 20
9.6652699971395233
 30
0.0
 70
    32
  0
VERTEX
  5
4A35
  8
240
 10
-59.541899999999998
 20
9.7716899971395232
 30
0.0
 70
    32
  0
VERTEX
  5
4A36
  8
240
 10
-59.47420000000001
 20
9.8770799971395231
 30
0.0
 70
    32
  0
VERTEX
  5
4A37
  8
240
 10
-59.40570000000001
 20
9.9814299971395233
 30
0.0
 70
    32
  0
VERTEX
  5
4A38
  8
240
 10
-59.336300000000001
 20
10.08469999713952
 30
0.0
 70
    32
  0
VERTEX
  5
4A39
  8
240
 10
-59.266100000000002
 20
10.18689999713952
 30
0.0
 70
    32
  0
VERTEX
  5
4A3A
  8
240
 10
-59.195099999999989
 20
10.28809999713952
 30
0.0
 70
    32
  0
VERTEX
  5
4A3B
  8
240
 10
-59.1233
 20
10.38809999713952
 30
0.0
 70
    32
  0
VERTEX
  5
4A3C
  8
240
 10
-59.050600000000003
 20
10.48709999713952
 30
0.0
 70
    32
  0
VERTEX
  5
4A3D
  8
240
 10
-58.9771
 20
10.584899997139519
 30
0.0
 70
    32
  0
VERTEX
  5
4A3E
  8
240
 10
-58.902799999999999
 20
10.68159999713952
 30
0.0
 70
    32
  0
VERTEX
  5
4A3F
  8
240
 10
-58.8277
 20
10.777099997139519
 30
0.0
 70
    32
  0
VERTEX
  5
4A40
  8
240
 10
-58.751800000000003
 20
10.871499997139519
 30
0.0
 70
    32
  0
VERTEX
  5
4A41
  8
240
 10
-58.6751
 20
10.964699997139521
 30
0.0
 70
    32
  0
VERTEX
  5
4A42
  8
240
 10
-58.597499999999997
 20
11.056699997139519
 30
0.0
 70
    32
  0
VERTEX
  5
4A43
  8
240
 10
-58.519199999999991
 20
11.147499997139519
 30
0.0
 70
    32
  0
VERTEX
  5
4A44
  8
240
 10
-58.439999999999998
 20
11.23709999713952
 30
0.0
 70
    32
  0
VERTEX
  5
4A45
  8
240
 10
-58.359999999999999
 20
11.32539999713952
 30
0.0
 70
    32
  0
VERTEX
  5
4A46
  8
240
 10
-58.279299999999999
 20
11.41259999713952
 30
0.0
 70
    32
  0
VERTEX
  5
4A47
  8
240
 10
-58.197699999999998
 20
11.49839999713952
 30
0.0
 70
    32
  0
VERTEX
  5
4A48
  8
240
 10
-58.115299999999998
 20
11.58299999713952
 30
0.0
 70
    32
  0
VERTEX
  5
4A49
  8
240
 10
-58.032099999999993
 20
11.66639999713952
 30
0.0
 70
    32
  0
VERTEX
  5
4A4A
  8
240
 10
-57.9482
 20
11.74839999713952
 30
0.0
 70
    32
  0
VERTEX
  5
4A4B
  8
240
 10
-57.863399999999999
 20
11.829099997139521
 30
0.0
 70
    32
  0
VERTEX
  5
4A4C
  8
240
 10
-57.777900000000002
 20
11.90859999713952
 30
0.0
 70
    32
  0
VERTEX
  5
4A4D
  8
240
 10
-57.691600000000001
 20
11.986599997139519
 30
0.0
 70
    32
  0
VERTEX
  5
4A4E
  8
240
 10
-57.604500000000002
 20
12.06339999713952
 30
0.0
 70
    32
  0
VERTEX
  5
4A4F
  8
240
 10
-57.516599999999997
 20
12.13879999713952
 30
0.0
 70
    32
  0
VERTEX
  5
4A50
  8
240
 10
-57.427900000000001
 20
12.21279999713952
 30
0.0
 70
    32
  0
VERTEX
  5
4A51
  8
240
 10
-57.3384
 20
12.285399997139519
 30
0.0
 70
    32
  0
VERTEX
  5
4A52
  8
240
 10
-57.248199999999997
 20
12.35659999713952
 30
0.0
 70
    32
  0
VERTEX
  5
4A53
  8
240
 10
-57.15720000000001
 20
12.426399997139519
 30
0.0
 70
    32
  0
VERTEX
  5
4A54
  8
240
 10
-57.065399999999997
 20
12.49479999713952
 30
0.0
 70
    32
  0
VERTEX
  5
4A55
  8
240
 10
-56.972799999999999
 20
12.56179999713952
 30
0.0
 70
    32
  0
VERTEX
  5
4A56
  8
240
 10
-56.8795
 20
12.62729999713952
 30
0.0
 70
    32
  0
VERTEX
  5
4A57
  8
240
 10
-56.785400000000003
 20
12.69129999713952
 30
0.0
 70
    32
  0
VERTEX
  5
4A58
  8
240
 10
-56.6905
 20
12.75389999713952
 30
0.0
 70
    32
  0
VERTEX
  5
4A59
  8
240
 10
-56.594900000000003
 20
12.81499999713952
 30
0.0
 70
    32
  0
VERTEX
  5
4A5A
  8
240
 10
-56.4985
 20
12.874599997139519
 30
0.0
 70
    32
  0
VERTEX
  5
4A5B
  8
240
 10
-56.401299999999999
 20
12.932599997139519
 30
0.0
 70
    32
  0
VERTEX
  5
4A5C
  8
240
 10
-56.303400000000003
 20
12.98919999713952
 30
0.0
 70
    32
  0
VERTEX
  5
4A5D
  8
240
 10
-56.204799999999999
 20
13.04419999713952
 30
0.0
 70
    32
  0
VERTEX
  5
4A5E
  8
240
 10
-56.105400000000003
 20
13.09769999713952
 30
0.0
 70
    32
  0
VERTEX
  5
4A5F
  8
240
 10
-56.005200000000002
 20
13.149699997139519
 30
0.0
 70
    32
  0
VERTEX
  5
4A60
  8
240
 10
-55.904400000000003
 20
13.200299997139521
 30
0.0
 70
    32
  0
VERTEX
  5
4A61
  8
240
 10
-55.802799999999998
 20
13.24929999713952
 30
0.0
 70
    32
  0
VERTEX
  5
4A62
  8
240
 10
-55.700499999999998
 20
13.296899997139519
 30
0.0
 70
    32
  0
VERTEX
  5
4A63
  8
240
 10
-55.597499999999997
 20
13.34299999713952
 30
0.0
 70
    32
  0
VERTEX
  5
4A64
  8
240
 10
-55.4938
 20
13.387599997139519
 30
0.0
 70
    32
  0
VERTEX
  5
4A65
  8
240
 10
-55.389400000000002
 20
13.43069999713952
 30
0.0
 70
    32
  0
VERTEX
  5
4A66
  8
240
 10
-55.284300000000002
 20
13.472399997139521
 30
0.0
 70
    32
  0
VERTEX
  5
4A67
  8
240
 10
-55.1785
 20
13.512699997139521
 30
0.0
 70
    32
  0
VERTEX
  5
4A68
  8
240
 10
-55.072000000000003
 20
13.551499997139519
 30
0.0
 70
    32
  0
VERTEX
  5
4A69
  8
240
 10
-54.9649
 20
13.588799997139519
 30
0.0
 70
    32
  0
VERTEX
  5
4A6A
  8
240
 10
-54.857100000000003
 20
13.624799997139521
 30
0.0
 70
    32
  0
VERTEX
  5
4A6B
  8
240
 10
-54.748699999999999
 20
13.65929999713952
 30
0.0
 70
    32
  0
VERTEX
  5
4A6C
  8
240
 10
-54.639600000000002
 20
13.692399997139519
 30
0.0
 70
    32
  0
VERTEX
  5
4A6D
  8
240
 10
-54.529899999999991
 20
13.72399999713952
 30
0.0
 70
    32
  0
VERTEX
  5
4A6E
  8
240
 10
-54.419499999999999
 20
13.754299997139521
 30
0.0
 70
    32
  0
VERTEX
  5
4A6F
  8
240
 10
-54.308500000000002
 20
13.783099997139519
 30
0.0
 70
    32
  0
VERTEX
  5
4A70
  8
240
 10
-54.196899999999999
 20
13.810599997139519
 30
0.0
 70
    32
  0
VERTEX
  5
4A71
  8
240
 10
-54.084699999999998
 20
13.836699997139521
 30
0.0
 70
    32
  0
VERTEX
  5
4A72
  8
240
 10
-53.971899999999998
 20
13.86139999713952
 30
0.0
 70
    32
  0
VERTEX
  5
4A73
  8
240
 10
-53.858400000000003
 20
13.884699997139521
 30
0.0
 70
    32
  0
VERTEX
  5
4A74
  8
240
 10
-53.744399999999992
 20
13.906599997139519
 30
0.0
 70
    32
  0
VERTEX
  5
4A75
  8
240
 10
-53.629800000000003
 20
13.927199997139519
 30
0.0
 70
    32
  0
VERTEX
  5
4A76
  8
240
 10
-53.514600000000002
 20
13.94649999713952
 30
0.0
 70
    32
  0
VERTEX
  5
4A77
  8
240
 10
-53.398800000000001
 20
13.96429999713952
 30
0.0
 70
    32
  0
VERTEX
  5
4A78
  8
240
 10
-53.282499999999999
 20
13.98089999713952
 30
0.0
 70
    32
  0
VERTEX
  5
4A79
  8
240
 10
-53.165599999999991
 20
13.995999997139521
 30
0.0
 70
    32
  0
VERTEX
  5
4A7A
  8
240
 10
-53.048099999999991
 20
14.00989999713952
 30
0.0
 70
    32
  0
VERTEX
  5
4A7B
  8
240
 10
-52.930100000000003
 20
14.022399997139519
 30
0.0
 70
    32
  0
VERTEX
  5
4A7C
  8
240
 10
-52.811599999999991
 20
14.03359999713952
 30
0.0
 70
    32
  0
VERTEX
  5
4A7D
  8
240
 10
-52.692500000000003
 20
14.04349999713952
 30
0.0
 70
    32
  0
VERTEX
  5
4A7E
  8
240
 10
-52.572899999999997
 20
14.05209999713952
 30
0.0
 70
    32
  0
VERTEX
  5
4A7F
  8
240
 10
-52.452800000000011
 20
14.05939999713952
 30
0.0
 70
    32
  0
VERTEX
  5
4A80
  8
240
 10
-52.33209999999999
 20
14.06539999713952
 30
0.0
 70
    32
  0
VERTEX
  5
4A81
  8
240
 10
-52.210999999999991
 20
14.07009999713952
 30
0.0
 70
    32
  0
VERTEX
  5
4A82
  8
240
 10
-52.089300000000001
 20
14.073499997139519
 30
0.0
 70
    32
  0
VERTEX
  5
4A83
  8
240
 10
-51.967199999999998
 20
14.07559999713952
 30
0.0
 70
    32
  0
VERTEX
  5
4A84
  8
240
 10
-51.8446
 20
14.076499997139519
 30
0.0
 70
    32
  0
VERTEX
  5
4A85
  8
240
 10
-51.721499999999999
 20
14.075999997139521
 30
0.0
 70
    32
  0
VERTEX
  5
4A86
  8
240
 10
-51.597900000000003
 20
14.074399997139521
 30
0.0
 70
    32
  0
VERTEX
  5
4A87
  8
240
 10
-51.473799999999997
 20
14.07149999713952
 30
0.0
 70
    32
  0
VERTEX
  5
4A88
  8
240
 10
-51.349299999999999
 20
14.06729999713952
 30
0.0
 70
    32
  0
VERTEX
  5
4A89
  8
240
 10
-51.224400000000003
 20
14.06189999713952
 30
0.0
 70
    32
  0
VERTEX
  5
4A8A
  8
240
 10
-51.0989
 20
14.055299997139519
 30
0.0
 70
    32
  0
VERTEX
  5
4A8B
  8
240
 10
-50.973100000000002
 20
14.04739999713952
 30
0.0
 70
    32
  0
VERTEX
  5
4A8C
  8
240
 10
-50.846800000000002
 20
14.03829999713952
 30
0.0
 70
    32
  0
VERTEX
  5
4A8D
  8
240
 10
-50.720100000000002
 20
14.027999997139521
 30
0.0
 70
    32
  0
VERTEX
  5
4A8E
  8
240
 10
-50.593000000000004
 20
14.016499997139521
 30
0.0
 70
    32
  0
VERTEX
  5
4A8F
  8
240
 10
-50.465400000000002
 20
14.00369999713952
 30
0.0
 70
    32
  0
VERTEX
  5
4A90
  8
240
 10
-50.337499999999999
 20
13.989799997139521
 30
0.0
 70
    32
  0
VERTEX
  5
4A91
  8
240
 10
-50.209099999999999
 20
13.97469999713952
 30
0.0
 70
    32
  0
VERTEX
  5
4A92
  8
240
 10
-50.080399999999997
 20
13.958399997139519
 30
0.0
 70
    32
  0
VERTEX
  5
4A93
  8
240
 10
-49.9512
 20
13.940899997139519
 30
0.0
 70
    32
  0
VERTEX
  5
4A94
  8
240
 10
-49.821699999999993
 20
13.92229999713952
 30
0.0
 70
    32
  0
VERTEX
  5
4A95
  8
240
 10
-49.691800000000001
 20
13.90249999713952
 30
0.0
 70
    32
  0
VERTEX
  5
4A96
  8
240
 10
-49.561599999999999
 20
13.881499997139519
 30
0.0
 70
    32
  0
VERTEX
  5
4A97
  8
240
 10
-49.430999999999997
 20
13.859399997139519
 30
0.0
 70
    32
  0
VERTEX
  5
4A98
  8
240
 10
-49.29999999999999
 20
13.83609999713952
 30
0.0
 70
    32
  0
VERTEX
  5
4A99
  8
240
 10
-49.168700000000001
 20
13.81169999713952
 30
0.0
 70
    32
  0
VERTEX
  5
4A9A
  8
240
 10
-49.036999999999999
 20
13.78609999713952
 30
0.0
 70
    32
  0
VERTEX
  5
4A9B
  8
240
 10
-48.90509999999999
 20
13.75939999713952
 30
0.0
 70
    32
  0
VERTEX
  5
4A9C
  8
240
 10
-48.772799999999989
 20
13.73159999713952
 30
0.0
 70
    32
  0
VERTEX
  5
4A9D
  8
240
 10
-48.640099999999997
 20
13.70269999713952
 30
0.0
 70
    32
  0
VERTEX
  5
4A9E
  8
240
 10
-48.50719999999999
 20
13.672699997139519
 30
0.0
 70
    32
  0
VERTEX
  5
4A9F
  8
240
 10
-48.373899999999999
 20
13.641499997139521
 30
0.0
 70
    32
  0
VERTEX
  5
4AA0
  8
240
 10
-48.240400000000001
 20
13.609299997139519
 30
0.0
 70
    32
  0
VERTEX
  5
4AA1
  8
240
 10
-48.1066
 20
13.575999997139521
 30
0.0
 70
    32
  0
VERTEX
  5
4AA2
  8
240
 10
-47.9724
 20
13.541599997139519
 30
0.0
 70
    32
  0
VERTEX
  5
4AA3
  8
240
 10
-47.838000000000001
 20
13.50609999713952
 30
0.0
 70
    32
  0
VERTEX
  5
4AA4
  8
240
 10
-47.703299999999999
 20
13.46949999713952
 30
0.0
 70
    32
  0
VERTEX
  5
4AA5
  8
240
 10
-47.56839999999999
 20
13.431799997139519
 30
0.0
 70
    32
  0
VERTEX
  5
4AA6
  8
240
 10
-47.433199999999992
 20
13.393099997139521
 30
0.0
 70
    32
  0
VERTEX
  5
4AA7
  8
240
 10
-47.297699999999999
 20
13.353399997139521
 30
0.0
 70
    32
  0
VERTEX
  5
4AA8
  8
240
 10
-47.161999999999992
 20
13.31259999713952
 30
0.0
 70
    32
  0
VERTEX
  5
4AA9
  8
240
 10
-47.026099999999992
 20
13.27069999713952
 30
0.0
 70
    32
  0
VERTEX
  5
4AAA
  8
240
 10
-46.88989999999999
 20
13.22779999713952
 30
0.0
 70
    32
  0
VERTEX
  5
4AAB
  8
240
 10
-46.753500000000003
 20
13.18389999713952
 30
0.0
 70
    32
  0
VERTEX
  5
4AAC
  8
240
 10
-46.616900000000001
 20
13.138999997139519
 30
0.0
 70
    32
  0
VERTEX
  5
4AAD
  8
240
 10
-46.4801
 20
13.09299999713952
 30
0.0
 70
    32
  0
VERTEX
  5
4AAE
  8
240
 10
-46.3431
 20
13.04599999713952
 30
0.0
 70
    32
  0
VERTEX
  5
4AAF
  8
240
 10
-46.205800000000004
 20
12.998099997139519
 30
0.0
 70
    32
  0
VERTEX
  5
4AB0
  8
240
 10
-46.068399999999997
 20
12.94909999713952
 30
0.0
 70
    32
  0
VERTEX
  5
4AB1
  8
240
 10
-45.930799999999991
 20
12.899099997139521
 30
0.0
 70
    32
  0
VERTEX
  5
4AB2
  8
240
 10
-45.792999999999992
 20
12.84819999713952
 30
0.0
 70
    32
  0
VERTEX
  5
4AB3
  8
240
 10
-45.65509999999999
 20
12.796199997139521
 30
0.0
 70
    32
  0
VERTEX
  5
4AB4
  8
240
 10
-45.516899999999993
 20
12.74329999713952
 30
0.0
 70
    32
  0
VERTEX
  5
4AB5
  8
240
 10
-45.378700000000002
 20
12.689399997139519
 30
0.0
 70
    32
  0
VERTEX
  5
4AB6
  8
240
 10
-45.240200000000002
 20
12.634599997139521
 30
0.0
 70
    32
  0
VERTEX
  5
4AB7
  8
240
 10
-45.101599999999991
 20
12.578799997139519
 30
0.0
 70
    32
  0
VERTEX
  5
4AB8
  8
240
 10
-44.962899999999998
 20
12.52199999713952
 30
0.0
 70
    32
  0
VERTEX
  5
4AB9
  8
240
 10
-44.824100000000001
 20
12.46429999713952
 30
0.0
 70
    32
  0
VERTEX
  5
4ABA
  8
240
 10
-44.685099999999998
 20
12.40569999713952
 30
0.0
 70
    32
  0
VERTEX
  5
4ABB
  8
240
 10
-44.545999999999999
 20
12.34609999713952
 30
0.0
 70
    32
  0
VERTEX
  5
4ABC
  8
240
 10
-44.40679999999999
 20
12.285599997139521
 30
0.0
 70
    32
  0
VERTEX
  5
4ABD
  8
240
 10
-44.267499999999998
 20
12.22419999713952
 30
0.0
 70
    32
  0
VERTEX
  5
4ABE
  8
240
 10
-44.128100000000003
 20
12.161899997139519
 30
0.0
 70
    32
  0
VERTEX
  5
4ABF
  8
240
 10
-43.988599999999991
 20
12.09859999713952
 30
0.0
 70
    32
  0
VERTEX
  5
4AC0
  8
240
 10
-43.848999999999997
 20
12.03449999713952
 30
0.0
 70
    32
  0
VERTEX
  5
4AC1
  8
240
 10
-43.709299999999999
 20
11.96949999713952
 30
0.0
 70
    32
  0
VERTEX
  5
4AC2
  8
240
 10
-43.569599999999987
 20
11.903499997139519
 30
0.0
 70
    32
  0
VERTEX
  5
4AC3
  8
240
 10
-43.429799999999993
 20
11.836699997139521
 30
0.0
 70
    32
  0
VERTEX
  5
4AC4
  8
240
 10
-43.289999999999992
 20
11.76909999713952
 30
0.0
 70
    32
  0
VERTEX
  5
4AC5
  8
240
 10
-43.150100000000002
 20
11.70049999713952
 30
0.0
 70
    32
  0
VERTEX
  5
4AC6
  8
240
 10
-43.010100000000001
 20
11.63109999713952
 30
0.0
 70
    32
  0
VERTEX
  5
4AC7
  8
240
 10
-42.870100000000001
 20
11.560799997139521
 30
0.0
 70
    32
  0
VERTEX
  5
4AC8
  8
240
 10
-42.7301
 20
11.489699997139519
 30
0.0
 70
    32
  0
VERTEX
  5
4AC9
  8
240
 10
-42.590099999999993
 20
11.41769999713952
 30
0.0
 70
    32
  0
VERTEX
  5
4ACA
  8
240
 10
-42.450000000000003
 20
11.344899997139519
 30
0.0
 70
    32
  0
SEQEND
  5
4ACB
  8
240
  0
POLYLINE
  5
4ACC
  8
240
 66
     1
 10
0.0
 20
0.0
 30
0.0
 70
     8
  0
VERTEX
  5
4ACD
  8
240
 10
-42.450000000000003
 20
-11.344900002860481
 30
0.0
 70
    32
  0
VERTEX
  5
4ACE
  8
240
 10
-42.576900000000002
 20
-11.417600002860469
 30
0.0
 70
    32
  0
VERTEX
  5
4ACF
  8
240
 10
-42.7042
 20
-11.489300002860469
 30
0.0
 70
    32
  0
VERTEX
  5
4AD0
  8
240
 10
-42.831899999999997
 20
-11.560200002860469
 30
0.0
 70
    32
  0
VERTEX
  5
4AD1
  8
240
 10
-42.960000000000001
 20
-11.63020000286048
 30
0.0
 70
    32
  0
VERTEX
  5
4AD2
  8
240
 10
-43.088500000000003
 20
-11.69930000286047
 30
0.0
 70
    32
  0
VERTEX
  5
4AD3
  8
240
 10
-43.217300000000002
 20
-11.767400002860469
 30
0.0
 70
    32
  0
VERTEX
  5
4AD4
  8
240
 10
-43.346600000000002
 20
-11.834700002860471
 30
0.0
 70
    32
  0
VERTEX
  5
4AD5
  8
240
 10
-43.476199999999999
 20
-11.901000002860471
 30
0.0
 70
    32
  0
VERTEX
  5
4AD6
  8
240
 10
-43.606099999999998
 20
-11.966500002860471
 30
0.0
 70
    32
  0
VERTEX
  5
4AD7
  8
240
 10
-43.736400000000003
 20
-12.03100000286047
 30
0.0
 70
    32
  0
VERTEX
  5
4AD8
  8
240
 10
-43.866999999999997
 20
-12.094500002860469
 30
0.0
 70
    32
  0
VERTEX
  5
4AD9
  8
240
 10
-43.997900000000001
 20
-12.157200002860471
 30
0.0
 70
    32
  0
VERTEX
  5
4ADA
  8
240
 10
-44.128999999999991
 20
-12.218900002860471
 30
0.0
 70
    32
  0
VERTEX
  5
4ADB
  8
240
 10
-44.2605
 20
-12.27960000286048
 30
0.0
 70
    32
  0
VERTEX
  5
4ADC
  8
240
 10
-44.392200000000003
 20
-12.33940000286047
 30
0.0
 70
    32
  0
VERTEX
  5
4ADD
  8
240
 10
-44.5242
 20
-12.398300002860481
 30
0.0
 70
    32
  0
VERTEX
  5
4ADE
  8
240
 10
-44.656399999999991
 20
-12.456200002860481
 30
0.0
 70
    32
  0
VERTEX
  5
4ADF
  8
240
 10
-44.788899999999991
 20
-12.513100002860471
 30
0.0
 70
    32
  0
VERTEX
  5
4AE0
  8
240
 10
-44.921500000000002
 20
-12.56900000286047
 30
0.0
 70
    32
  0
VERTEX
  5
4AE1
  8
240
 10
-45.054400000000001
 20
-12.62400000286048
 30
0.0
 70
    32
  0
VERTEX
  5
4AE2
  8
240
 10
-45.187499999999993
 20
-12.678000002860481
 30
0.0
 70
    32
  0
VERTEX
  5
4AE3
  8
240
 10
-45.320700000000002
 20
-12.731100002860471
 30
0.0
 70
    32
  0
VERTEX
  5
4AE4
  8
240
 10
-45.45409999999999
 20
-12.78310000286047
 30
0.0
 70
    32
  0
VERTEX
  5
4AE5
  8
240
 10
-45.587699999999991
 20
-12.83420000286047
 30
0.0
 70
    32
  0
VERTEX
  5
4AE6
  8
240
 10
-45.721400000000003
 20
-12.884200002860471
 30
0.0
 70
    32
  0
VERTEX
  5
4AE7
  8
240
 10
-45.8553
 20
-12.93330000286047
 30
0.0
 70
    32
  0
VERTEX
  5
4AE8
  8
240
 10
-45.98919999999999
 20
-12.98130000286047
 30
0.0
 70
    32
  0
VERTEX
  5
4AE9
  8
240
 10
-46.1233
 20
-13.02830000286048
 30
0.0
 70
    32
  0
VERTEX
  5
4AEA
  8
240
 10
-46.2575
 20
-13.074400002860481
 30
0.0
 70
    32
  0
VERTEX
  5
4AEB
  8
240
 10
-46.3917
 20
-13.11940000286047
 30
0.0
 70
    32
  0
VERTEX
  5
4AEC
  8
240
 10
-46.526000000000003
 20
-13.163300002860471
 30
0.0
 70
    32
  0
VERTEX
  5
4AED
  8
240
 10
-46.660400000000003
 20
-13.20630000286048
 30
0.0
 70
    32
  0
VERTEX
  5
4AEE
  8
240
 10
-46.794800000000002
 20
-13.24820000286047
 30
0.0
 70
    32
  0
VERTEX
  5
4AEF
  8
240
 10
-46.929299999999991
 20
-13.289000002860471
 30
0.0
 70
    32
  0
VERTEX
  5
4AF0
  8
240
 10
-47.06369999999999
 20
-13.32890000286047
 30
0.0
 70
    32
  0
VERTEX
  5
4AF1
  8
240
 10
-47.1982
 20
-13.36760000286047
 30
0.0
 70
    32
  0
VERTEX
  5
4AF2
  8
240
 10
-47.332700000000003
 20
-13.40530000286048
 30
0.0
 70
    32
  0
VERTEX
  5
4AF3
  8
240
 10
-47.467100000000002
 20
-13.442000002860469
 30
0.0
 70
    32
  0
VERTEX
  5
4AF4
  8
240
 10
-47.601599999999991
 20
-13.47760000286047
 30
0.0
 70
    32
  0
VERTEX
  5
4AF5
  8
240
 10
-47.735900000000001
 20
-13.512100002860469
 30
0.0
 70
    32
  0
VERTEX
  5
4AF6
  8
240
 10
-47.8703
 20
-13.54560000286048
 30
0.0
 70
    32
  0
VERTEX
  5
4AF7
  8
240
 10
-48.0045
 20
-13.577900002860471
 30
0.0
 70
    32
  0
VERTEX
  5
4AF8
  8
240
 10
-48.1387
 20
-13.60920000286047
 30
0.0
 70
    32
  0
VERTEX
  5
4AF9
  8
240
 10
-48.272799999999997
 20
-13.63940000286048
 30
0.0
 70
    32
  0
VERTEX
  5
4AFA
  8
240
 10
-48.40679999999999
 20
-13.668500002860471
 30
0.0
 70
    32
  0
VERTEX
  5
4AFB
  8
240
 10
-48.540700000000001
 20
-13.69650000286047
 30
0.0
 70
    32
  0
VERTEX
  5
4AFC
  8
240
 10
-48.674399999999999
 20
-13.723400002860471
 30
0.0
 70
    32
  0
VERTEX
  5
4AFD
  8
240
 10
-48.808
 20
-13.749200002860469
 30
0.0
 70
    32
  0
VERTEX
  5
4AFE
  8
240
 10
-48.941400000000002
 20
-13.77390000286047
 30
0.0
 70
    32
  0
VERTEX
  5
4AFF
  8
240
 10
-49.074699999999993
 20
-13.79750000286047
 30
0.0
 70
    32
  0
VERTEX
  5
4B00
  8
240
 10
-49.207799999999999
 20
-13.81990000286047
 30
0.0
 70
    32
  0
VERTEX
  5
4B01
  8
240
 10
-49.340699999999998
 20
-13.84120000286048
 30
0.0
 70
    32
  0
VERTEX
  5
4B02
  8
240
 10
-49.473399999999998
 20
-13.861400002860471
 30
0.0
 70
    32
  0
VERTEX
  5
4B03
  8
240
 10
-49.605899999999991
 20
-13.880500002860471
 30
0.0
 70
    32
  0
VERTEX
  5
4B04
  8
240
 10
-49.738199999999992
 20
-13.89840000286048
 30
0.0
 70
    32
  0
VERTEX
  5
4B05
  8
240
 10
-49.870199999999997
 20
-13.915100002860481
 30
0.0
 70
    32
  0
VERTEX
  5
4B06
  8
240
 10
-50.002000000000002
 20
-13.930800002860471
 30
0.0
 70
    32
  0
VERTEX
  5
4B07
  8
240
 10
-50.133499999999991
 20
-13.945200002860471
 30
0.0
 70
    32
  0
VERTEX
  5
4B08
  8
240
 10
-50.264699999999991
 20
-13.958500002860481
 30
0.0
 70
    32
  0
VERTEX
  5
4B09
  8
240
 10
-50.395699999999998
 20
-13.97060000286047
 30
0.0
 70
    32
  0
VERTEX
  5
4B0A
  8
240
 10
-50.526299999999999
 20
-13.981600002860469
 30
0.0
 70
    32
  0
VERTEX
  5
4B0B
  8
240
 10
-50.656700000000001
 20
-13.99140000286047
 30
0.0
 70
    32
  0
VERTEX
  5
4B0C
  8
240
 10
-50.786700000000003
 20
-14.000000002860469
 30
0.0
 70
    32
  0
VERTEX
  5
4B0D
  8
240
 10
-50.9163
 20
-14.00740000286047
 30
0.0
 70
    32
  0
VERTEX
  5
4B0E
  8
240
 10
-51.0456
 20
-14.01360000286048
 30
0.0
 70
    32
  0
VERTEX
  5
4B0F
  8
240
 10
-51.174599999999998
 20
-14.018700002860481
 30
0.0
 70
    32
  0
VERTEX
  5
4B10
  8
240
 10
-51.303199999999997
 20
-14.022500002860481
 30
0.0
 70
    32
  0
VERTEX
  5
4B11
  8
240
 10
-51.4313
 20
-14.025100002860469
 30
0.0
 70
    32
  0
VERTEX
  5
4B12
  8
240
 10
-51.559100000000001
 20
-14.026600002860469
 30
0.0
 70
    32
  0
VERTEX
  5
4B13
  8
240
 10
-51.686500000000002
 20
-14.026800002860471
 30
0.0
 70
    32
  0
VERTEX
  5
4B14
  8
240
 10
-51.813400000000001
 20
-14.02580000286048
 30
0.0
 70
    32
  0
VERTEX
  5
4B15
  8
240
 10
-51.939900000000002
 20
-14.02350000286048
 30
0.0
 70
    32
  0
VERTEX
  5
4B16
  8
240
 10
-52.066000000000003
 20
-14.02010000286047
 30
0.0
 70
    32
  0
VERTEX
  5
4B17
  8
240
 10
-52.191600000000001
 20
-14.015400002860471
 30
0.0
 70
    32
  0
VERTEX
  5
4B18
  8
240
 10
-52.316699999999997
 20
-14.00950000286047
 30
0.0
 70
    32
  0
VERTEX
  5
4B19
  8
240
 10
-52.441299999999998
 20
-14.002300002860469
 30
0.0
 70
    32
  0
VERTEX
  5
4B1A
  8
240
 10
-52.5655
 20
-13.993900002860469
 30
0.0
 70
    32
  0
VERTEX
  5
4B1B
  8
240
 10
-52.689100000000003
 20
-13.98420000286047
 30
0.0
 70
    32
  0
VERTEX
  5
4B1C
  8
240
 10
-52.812199999999997
 20
-13.97330000286048
 30
0.0
 70
    32
  0
VERTEX
  5
4B1D
  8
240
 10
-52.934699999999999
 20
-13.96110000286048
 30
0.0
 70
    32
  0
VERTEX
  5
4B1E
  8
240
 10
-53.056800000000003
 20
-13.947600002860471
 30
0.0
 70
    32
  0
VERTEX
  5
4B1F
  8
240
 10
-53.178199999999997
 20
-13.932900002860469
 30
0.0
 70
    32
  0
VERTEX
  5
4B20
  8
240
 10
-53.299100000000003
 20
-13.916900002860469
 30
0.0
 70
    32
  0
VERTEX
  5
4B21
  8
240
 10
-53.41940000000001
 20
-13.89960000286047
 30
0.0
 70
    32
  0
VERTEX
  5
4B22
  8
240
 10
-53.539099999999991
 20
-13.881000002860469
 30
0.0
 70
    32
  0
VERTEX
  5
4B23
  8
240
 10
-53.65809999999999
 20
-13.861200002860469
 30
0.0
 70
    32
  0
VERTEX
  5
4B24
  8
240
 10
-53.776600000000002
 20
-13.840000002860471
 30
0.0
 70
    32
  0
VERTEX
  5
4B25
  8
240
 10
-53.894399999999997
 20
-13.81760000286047
 30
0.0
 70
    32
  0
VERTEX
  5
4B26
  8
240
 10
-54.011600000000001
 20
-13.79380000286047
 30
0.0
 70
    32
  0
VERTEX
  5
4B27
  8
240
 10
-54.128100000000003
 20
-13.768700002860481
 30
0.0
 70
    32
  0
VERTEX
  5
4B28
  8
240
 10
-54.243899999999989
 20
-13.742400002860469
 30
0.0
 70
    32
  0
VERTEX
  5
4B29
  8
240
 10
-54.359099999999991
 20
-13.71460000286047
 30
0.0
 70
    32
  0
VERTEX
  5
4B2A
  8
240
 10
-54.47359999999999
 20
-13.685600002860481
 30
0.0
 70
    32
  0
VERTEX
  5
4B2B
  8
240
 10
-54.587299999999999
 20
-13.65530000286047
 30
0.0
 70
    32
  0
VERTEX
  5
4B2C
  8
240
 10
-54.700299999999999
 20
-13.623600002860471
 30
0.0
 70
    32
  0
VERTEX
  5
4B2D
  8
240
 10
-54.812600000000003
 20
-13.59050000286047
 30
0.0
 70
    32
  0
VERTEX
  5
4B2E
  8
240
 10
-54.924199999999999
 20
-13.55620000286047
 30
0.0
 70
    32
  0
VERTEX
  5
4B2F
  8
240
 10
-55.034999999999989
 20
-13.52040000286047
 30
0.0
 70
    32
  0
VERTEX
  5
4B30
  8
240
 10
-55.145000000000003
 20
-13.483400002860471
 30
0.0
 70
    32
  0
VERTEX
  5
4B31
  8
240
 10
-55.254199999999997
 20
-13.44490000286048
 30
0.0
 70
    32
  0
VERTEX
  5
4B32
  8
240
 10
-55.3626
 20
-13.40510000286047
 30
0.0
 70
    32
  0
VERTEX
  5
4B33
  8
240
 10
-55.470300000000002
 20
-13.364000002860481
 30
0.0
 70
    32
  0
VERTEX
  5
4B34
  8
240
 10
-55.577100000000002
 20
-13.32140000286047
 30
0.0
 70
    32
  0
VERTEX
  5
4B35
  8
240
 10
-55.683
 20
-13.277500002860471
 30
0.0
 70
    32
  0
VERTEX
  5
4B36
  8
240
 10
-55.788200000000003
 20
-13.23220000286047
 30
0.0
 70
    32
  0
VERTEX
  5
4B37
  8
240
 10
-55.892400000000002
 20
-13.18550000286047
 30
0.0
 70
    32
  0
VERTEX
  5
4B38
  8
240
 10
-55.995800000000003
 20
-13.13750000286047
 30
0.0
 70
    32
  0
VERTEX
  5
4B39
  8
240
 10
-56.098300000000002
 20
-13.08800000286047
 30
0.0
 70
    32
  0
VERTEX
  5
4B3A
  8
240
 10
-56.200000000000003
 20
-13.03710000286047
 30
0.0
 70
    32
  0
VERTEX
  5
4B3B
  8
240
 10
-56.300699999999992
 20
-12.984800002860471
 30
0.0
 70
    32
  0
VERTEX
  5
4B3C
  8
240
 10
-56.400500000000001
 20
-12.93120000286047
 30
0.0
 70
    32
  0
VERTEX
  5
4B3D
  8
240
 10
-56.499299999999998
 20
-12.87600000286047
 30
0.0
 70
    32
  0
VERTEX
  5
4B3E
  8
240
 10
-56.597200000000001
 20
-12.819500002860471
 30
0.0
 70
    32
  0
VERTEX
  5
4B3F
  8
240
 10
-56.694200000000002
 20
-12.761600002860471
 30
0.0
 70
    32
  0
VERTEX
  5
4B40
  8
240
 10
-56.790300000000002
 20
-12.70230000286047
 30
0.0
 70
    32
  0
VERTEX
  5
4B41
  8
240
 10
-56.88539999999999
 20
-12.64160000286048
 30
0.0
 70
    32
  0
VERTEX
  5
4B42
  8
240
 10
-56.979599999999998
 20
-12.57950000286047
 30
0.0
 70
    32
  0
VERTEX
  5
4B43
  8
240
 10
-57.072899999999997
 20
-12.516000002860469
 30
0.0
 70
    32
  0
VERTEX
  5
4B44
  8
240
 10
-57.165199999999999
 20
-12.451200002860469
 30
0.0
 70
    32
  0
VERTEX
  5
4B45
  8
240
 10
-57.256599999999999
 20
-12.385100002860471
 30
0.0
 70
    32
  0
VERTEX
  5
4B46
  8
240
 10
-57.34709999999999
 20
-12.31760000286048
 30
0.0
 70
    32
  0
VERTEX
  5
4B47
  8
240
 10
-57.436700000000002
 20
-12.24870000286047
 30
0.0
 70
    32
  0
VERTEX
  5
4B48
  8
240
 10
-57.525300000000001
 20
-12.178500002860471
 30
0.0
 70
    32
  0
VERTEX
  5
4B49
  8
240
 10
-57.613100000000003
 20
-12.107100002860481
 30
0.0
 70
    32
  0
VERTEX
  5
4B4A
  8
240
 10
-57.699899999999992
 20
-12.034300002860469
 30
0.0
 70
    32
  0
VERTEX
  5
4B4B
  8
240
 10
-57.785800000000002
 20
-11.96020000286047
 30
0.0
 70
    32
  0
VERTEX
  5
4B4C
  8
240
 10
-57.870800000000003
 20
-11.884800002860469
 30
0.0
 70
    32
  0
VERTEX
  5
4B4D
  8
240
 10
-57.954900000000002
 20
-11.80820000286047
 30
0.0
 70
    32
  0
VERTEX
  5
4B4E
  8
240
 10
-58.0381
 20
-11.730200002860469
 30
0.0
 70
    32
  0
VERTEX
  5
4B4F
  8
240
 10
-58.120399999999989
 20
-11.651000002860471
 30
0.0
 70
    32
  0
VERTEX
  5
4B50
  8
240
 10
-58.201799999999999
 20
-11.570600002860481
 30
0.0
 70
    32
  0
VERTEX
  5
4B51
  8
240
 10
-58.282299999999999
 20
-11.48890000286047
 30
0.0
 70
    32
  0
VERTEX
  5
4B52
  8
240
 10
-58.361899999999999
 20
-11.40600000286047
 30
0.0
 70
    32
  0
VERTEX
  5
4B53
  8
240
 10
-58.440600000000003
 20
-11.321800002860471
 30
0.0
 70
    32
  0
VERTEX
  5
4B54
  8
240
 10
-58.5184
 20
-11.23650000286047
 30
0.0
 70
    32
  0
VERTEX
  5
4B55
  8
240
 10
-58.595300000000002
 20
-11.14990000286047
 30
0.0
 70
    32
  0
VERTEX
  5
4B56
  8
240
 10
-58.671300000000002
 20
-11.06210000286047
 30
0.0
 70
    32
  0
VERTEX
  5
4B57
  8
240
 10
-58.746400000000001
 20
-10.97310000286047
 30
0.0
 70
    32
  0
VERTEX
  5
4B58
  8
240
 10
-58.820700000000002
 20
-10.88300000286047
 30
0.0
 70
    32
  0
VERTEX
  5
4B59
  8
240
 10
-58.893999999999998
 20
-10.79170000286048
 30
0.0
 70
    32
  0
VERTEX
  5
4B5A
  8
240
 10
-58.966500000000011
 20
-10.69920000286047
 30
0.0
 70
    32
  0
VERTEX
  5
4B5B
  8
240
 10
-59.0381
 20
-10.60550000286047
 30
0.0
 70
    32
  0
VERTEX
  5
4B5C
  8
240
 10
-59.108899999999998
 20
-10.510700002860469
 30
0.0
 70
    32
  0
VERTEX
  5
4B5D
  8
240
 10
-59.178699999999999
 20
-10.414800002860471
 30
0.0
 70
    32
  0
VERTEX
  5
4B5E
  8
240
 10
-59.247700000000002
 20
-10.31770000286047
 30
0.0
 70
    32
  0
VERTEX
  5
4B5F
  8
240
 10
-59.315800000000003
 20
-10.219600002860471
 30
0.0
 70
    32
  0
VERTEX
  5
4B60
  8
240
 10
-59.383000000000003
 20
-10.120300002860469
 30
0.0
 70
    32
  0
VERTEX
  5
4B61
  8
240
 10
-59.44939999999999
 20
-10.019900002860471
 30
0.0
 70
    32
  0
VERTEX
  5
4B62
  8
240
 10
-59.51489999999999
 20
-9.9184000028604764
 30
0.0
 70
    32
  0
VERTEX
  5
4B63
  8
240
 10
-59.579500000000003
 20
-9.8158300028604764
 30
0.0
 70
    32
  0
VERTEX
  5
4B64
  8
240
 10
-59.643300000000004
 20
-9.7121800028604763
 30
0.0
 70
    32
  0
VERTEX
  5
4B65
  8
240
 10
-59.706200000000003
 20
-9.6074700028604756
 30
0.0
 70
    32
  0
VERTEX
  5
4B66
  8
240
 10
-59.768300000000004
 20
-9.5017000028604741
 30
0.0
 70
    32
  0
VERTEX
  5
4B67
  8
240
 10
-59.829500000000003
 20
-9.3948800028604769
 30
0.0
 70
    32
  0
VERTEX
  5
4B68
  8
240
 10
-59.889800000000001
 20
-9.2870200028604764
 30
0.0
 70
    32
  0
VERTEX
  5
4B69
  8
240
 10
-59.949300000000001
 20
-9.1781300028604758
 30
0.0
 70
    32
  0
VERTEX
  5
4B6A
  8
240
 10
-60.008000000000003
 20
-9.0682200028604765
 30
0.0
 70
    32
  0
VERTEX
  5
4B6B
  8
240
 10
-60.065800000000003
 20
-8.9572900028604732
 30
0.0
 70
    32
  0
VERTEX
  5
4B6C
  8
240
 10
-60.122700000000002
 20
-8.8453600028604775
 30
0.0
 70
    32
  0
VERTEX
  5
4B6D
  8
240
 10
-60.178800000000003
 20
-8.7324400028604732
 30
0.0
 70
    32
  0
VERTEX
  5
4B6E
  8
240
 10
-60.234099999999998
 20
-8.6185200028604765
 30
0.0
 70
    32
  0
VERTEX
  5
4B6F
  8
240
 10
-60.288499999999999
 20
-8.5036400028604753
 30
0.0
 70
    32
  0
VERTEX
  5
4B70
  8
240
 10
-60.342100000000002
 20
-8.3877800028604774
 30
0.0
 70
    32
  0
VERTEX
  5
4B71
  8
240
 10
-60.3949
 20
-8.2709600028604768
 30
0.0
 70
    32
  0
VERTEX
  5
4B72
  8
240
 10
-60.446800000000003
 20
-8.1531900028604731
 30
0.0
 70
    32
  0
VERTEX
  5
4B73
  8
240
 10
-60.497900000000001
 20
-8.0344800028604766
 30
0.0
 70
    32
  0
VERTEX
  5
4B74
  8
240
 10
-60.548200000000001
 20
-7.9148300028604757
 30
0.0
 70
    32
  0
VERTEX
  5
4B75
  8
240
 10
-60.5976
 20
-7.7942700028604763
 30
0.0
 70
    32
  0
VERTEX
  5
4B76
  8
240
 10
-60.6462
 20
-7.6727800028604758
 30
0.0
 70
    32
  0
VERTEX
  5
4B77
  8
240
 10
-60.694000000000003
 20
-7.5503900028604747
 30
0.0
 70
    32
  0
VERTEX
  5
4B78
  8
240
 10
-60.740900000000003
 20
-7.4271000028604757
 30
0.0
 70
    32
  0
VERTEX
  5
4B79
  8
240
 10
-60.787100000000002
 20
-7.3029300028604762
 30
0.0
 70
    32
  0
VERTEX
  5
4B7A
  8
240
 10
-60.832399999999993
 20
-7.1778700028604749
 30
0.0
 70
    32
  0
VERTEX
  5
4B7B
  8
240
 10
-60.876899999999999
 20
-7.0519400028604746
 30
0.0
 70
    32
  0
VERTEX
  5
4B7C
  8
240
 10
-60.9206
 20
-6.9251500028604758
 30
0.0
 70
    32
  0
VERTEX
  5
4B7D
  8
240
 10
-60.96350000000001
 20
-6.7975100028604771
 30
0.0
 70
    32
  0
VERTEX
  5
4B7E
  8
240
 10
-61.005600000000001
 20
-6.669020002860476
 30
0.0
 70
    32
  0
VERTEX
  5
4B7F
  8
240
 10
-61.046799999999998
 20
-6.5397000028604761
 30
0.0
 70
    32
  0
VERTEX
  5
4B80
  8
240
 10
-61.087299999999999
 20
-6.4095500028604757
 30
0.0
 70
    32
  0
VERTEX
  5
4B81
  8
240
 10
-61.127000000000002
 20
-6.2785900028604757
 30
0.0
 70
    32
  0
VERTEX
  5
4B82
  8
240
 10
-61.16579999999999
 20
-6.1468100028604749
 30
0.0
 70
    32
  0
VERTEX
  5
4B83
  8
240
 10
-61.203899999999997
 20
-6.0142400028604763
 30
0.0
 70
    32
  0
VERTEX
  5
4B84
  8
240
 10
-61.241100000000003
 20
-5.8808700028604761
 30
0.0
 70
    32
  0
VERTEX
  5
4B85
  8
240
 10
-61.2776
 20
-5.7467300028604758
 30
0.0
 70
    32
  0
VERTEX
  5
4B86
  8
240
 10
-61.313200000000002
 20
-5.6118100028604756
 30
0.0
 70
    32
  0
VERTEX
  5
4B87
  8
240
 10
-61.348100000000002
 20
-5.4761200028604762
 30
0.0
 70
    32
  0
VERTEX
  5
4B88
  8
240
 10
-61.382199999999997
 20
-5.3396800028604758
 30
0.0
 70
    32
  0
VERTEX
  5
4B89
  8
240
 10
-61.415500000000002
 20
-5.2025000028604751
 30
0.0
 70
    32
  0
VERTEX
  5
4B8A
  8
240
 10
-61.448
 20
-5.0645800028604757
 30
0.0
 70
    32
  0
VERTEX
  5
4B8B
  8
240
 10
-61.479700000000001
 20
-4.925920002860475
 30
0.0
 70
    32
  0
VERTEX
  5
4B8C
  8
240
 10
-61.5107
 20
-4.7865500028604764
 30
0.0
 70
    32
  0
VERTEX
  5
4B8D
  8
240
 10
-61.540799999999997
 20
-4.6464700028604762
 30
0.0
 70
    32
  0
VERTEX
  5
4B8E
  8
240
 10
-61.5702
 20
-4.5056900028604758
 30
0.0
 70
    32
  0
VERTEX
  5
4B8F
  8
240
 10
-61.598799999999997
 20
-4.3642100028604762
 30
0.0
 70
    32
  0
VERTEX
  5
4B90
  8
240
 10
-61.6267
 20
-4.2220500028604757
 30
0.0
 70
    32
  0
VERTEX
  5
4B91
  8
240
 10
-61.653700000000001
 20
-4.0792200028604748
 30
0.0
 70
    32
  0
VERTEX
  5
4B92
  8
240
 10
-61.68
 20
-3.9357200028604762
 30
0.0
 70
    32
  0
VERTEX
  5
4B93
  8
240
 10
-61.705599999999997
 20
-3.7915600028604759
 30
0.0
 70
    32
  0
VERTEX
  5
4B94
  8
240
 10
-61.7303
 20
-3.6467500028604758
 30
0.0
 70
    32
  0
VERTEX
  5
4B95
  8
240
 10
-61.754300000000001
 20
-3.5013000028604759
 30
0.0
 70
    32
  0
VERTEX
  5
4B96
  8
240
 10
-61.7776
 20
-3.355230002860476
 30
0.0
 70
    32
  0
VERTEX
  5
4B97
  8
240
 10
-61.79999999999999
 20
-3.208530002860476
 30
0.0
 70
    32
  0
VERTEX
  5
4B98
  8
240
 10
-61.8217
 20
-3.0612200028604759
 30
0.0
 70
    32
  0
VERTEX
  5
4B99
  8
240
 10
-61.842700000000001
 20
-2.9133000028604759
 30
0.0
 70
    32
  0
VERTEX
  5
4B9A
  8
240
 10
-61.862900000000003
 20
-2.7647900028604759
 30
0.0
 70
    32
  0
VERTEX
  5
4B9B
  8
240
 10
-61.882399999999997
 20
-2.6156900028604761
 30
0.0
 70
    32
  0
VERTEX
  5
4B9C
  8
240
 10
-61.9011
 20
-2.4660200028604762
 30
0.0
 70
    32
  0
VERTEX
  5
4B9D
  8
240
 10
-61.918999999999997
 20
-2.315780002860476
 30
0.0
 70
    32
  0
VERTEX
  5
4B9E
  8
240
 10
-61.936199999999999
 20
-2.1649800028604762
 30
0.0
 70
    32
  0
VERTEX
  5
4B9F
  8
240
 10
-61.9527
 20
-2.0136200028604758
 30
0.0
 70
    32
  0
VERTEX
  5
4BA0
  8
240
 10
-61.968400000000003
 20
-1.861730002860476
 30
0.0
 70
    32
  0
VERTEX
  5
4BA1
  8
240
 10
-61.983400000000003
 20
-1.7093000028604759
 30
0.0
 70
    32
  0
VERTEX
  5
4BA2
  8
240
 10
-61.997700000000002
 20
-1.556350002860476
 30
0.0
 70
    32
  0
VERTEX
  5
4BA3
  8
240
 10
-62.011200000000002
 20
-1.402890002860476
 30
0.0
 70
    32
  0
VERTEX
  5
4BA4
  8
240
 10
-62.024000000000001
 20
-1.2489200028604761
 30
0.0
 70
    32
  0
VERTEX
  5
4BA5
  8
240
 10
-62.036000000000001
 20
-1.094450002860476
 30
0.0
 70
    32
  0
VERTEX
  5
4BA6
  8
240
 10
-62.0473
 20
-0.9394930028604763
 30
0.0
 70
    32
  0
VERTEX
  5
4BA7
  8
240
 10
-62.057899999999997
 20
-0.7840570028604763
 30
0.0
 70
    32
  0
VERTEX
  5
4BA8
  8
240
 10
-62.067799999999998
 20
-0.6281510028604763
 30
0.0
 70
    32
  0
VERTEX
  5
4BA9
  8
240
 10
-62.076900000000002
 20
-0.4717830028604764
 30
0.0
 70
    32
  0
VERTEX
  5
4BAA
  8
240
 10
-62.085299999999989
 20
-0.3149630028604763
 30
0.0
 70
    32
  0
VERTEX
  5
4BAB
  8
240
 10
-62.093000000000004
 20
-0.1576990028604763
 30
0.0
 70
    32
  0
VERTEX
  5
4BAC
  8
240
 10
-62.100000000000001
 20
-0.0000000014809163
 30
0.0
 70
    32
  0
SEQEND
  5
4BAD
  8
240
  0
VIEWPORT
  5
22
 67
     1
  8
0
 10
261.51769911504419
 20
148.5
 30
0.0
 40
523.0353982300885
 41
297.0
 68
     1
 69
     1
1001
ACAD
1000
MVIEW
1002
{
1070
    16
1010
0.0
1020
0.0
1030
0.0
1010
0.0
1020
0.0
1030
1.0
1040
0.0
1040
297.0
1040
261.51769911504419
1040
148.5
1040
50.0
1040
0.0
1040
0.0
1070
     0
1070
   100
1070
     1
1070
     1
1070
     0
1070
     0
1070
     0
1070
     0
1040
0.0
1040
0.0
1040
0.0
1040
1.0
1040
1.0
1040
10.0
1040
10.0
1070
     0
1002
{
1002
}
1002
}
1001
GENIUS_GENODEF_13
1002
{
1000
HIER
1070
     0
1002
}
1002
{
1000
MANEDIT
1070
     0
1002
}
1002
{
1000
NOSEL
1070
     0
1002
}
1002
{
1000
BEHIND
1070
     0
1002
}
1002
{
1000
OTHER
1070
     0
1002
}
1002
{
1000
REACTOR
1002
}
1001
GENIUS_GENOBJ-N-SDF_13
1002
{
1000
OWNER
1000
GEN
1002
}
1001
GENIUS_GENSCREG_15
1000
PF
1040
1.0
1000
DF
1040
1.0
1000
MIN
1011
0.0
1021
0.0
1031
0.0
1021
0.0
1031
0.0
1000
MAX
1011
523.0353982300885
1021
0.0
1031
0.0
1021
297.0
1031
0.0
1000
FLAGS
1070
     4
  0
ENDSEC
  0
EOF
