  0
SECTION
  2
HEADER
  9
$ACADVER
  1
AC1009
  9
$INSBASE
 10
0.0
 20
0.0
 30
0.0
  9
$EXTMIN
 10
-66.642024170850931
 20
-21.810434780668452
 30
0.0
  9
$EXTMAX
 10
57.0
 20
54.0
 30
0.0
  9
$LIMMIN
 10
0.0
 20
0.0
  9
$LIMMAX
 10
297.0
 20
210.0
  9
$ORTHOMODE
 70
     0
  9
$REGENMODE
 70
     1
  9
$FILLMODE
 70
     1
  9
$QTEXTMODE
 70
     0
  9
$MIRRTEXT
 70
     1
  9
$DRAGMODE
 70
     2
  9
$LTSCALE
 40
10.0
  9
$OSMODE
 70
    39
  9
$ATTMODE
 70
     1
  9
$TEXTSIZE
 40
3.0
  9
$TRACEWID
 40
1.0
  9
$TEXTSTYLE
  7
YOKO
  9
$CLAYER
  8
245
  9
$CELTYPE
  6
BYLAYER
  9
$CECOLOR
 62
   256
  9
$DIMSCALE
 40
1.0
  9
$DIMASZ
 40
2.0
  9
$DIMEXO
 40
0.5
  9
$DIMDLI
 40
2.5
  9
$DIMRND
 40
0.0
  9
$DIMDLE
 40
0.0
  9
$DIMEXE
 40
1.0
  9
$DIMTP
 40
0.0
  9
$DIMTM
 40
0.0
  9
$DIMTXT
 40
2.799999999999998
  9
$DIMCEN
 40
0.0
  9
$DIMTSZ
 40
0.0
  9
$DIMTOL
 70
     0
  9
$DIMLIM
 70
     0
  9
$DIMTIH
 70
     0
  9
$DIMTOH
 70
     0
  9
$DIMSE1
 70
     0
  9
$DIMSE2
 70
     0
  9
$DIMTAD
 70
     3
  9
$DIMZIN
 70
     8
  9
$DIMBLK
  1

  9
$DIMASO
 70
     1
  9
$DIMSHO
 70
     1
  9
$DIMPOST
  1

  9
$DIMAPOST
  1

  9
$DIMALT
 70
     0
  9
$DIMALTD
 70
     2
  9
$DIMALTF
 40
25.399999999999999
  9
$DIMLFAC
 40
1.0
  9
$DIMTOFL
 70
     1
  9
$DIMTVP
 40
0.0
  9
$DIMTIX
 70
     1
  9
$DIMSOXD
 70
     0
  9
$DIMSAH
 70
     1
  9
$DIMBLK1
  1
OPEN
  9
$DIMBLK2
  1
OPEN
  9
$DIMSTYLE
  2
BIGT
  9
$DIMCLRD
 70
     3
  9
$DIMCLRE
 70
     3
  9
$DIMCLRT
 70
    40
  9
$DIMTFAC
 40
1.0
  9
$DIMGAP
 40
1.0
  9
$LUNITS
 70
     2
  9
$LUPREC
 70
     3
  9
$SKETCHINC
 40
1.0
  9
$FILLETRAD
 40
0.0
  9
$AUNITS
 70
     0
  9
$AUPREC
 70
     3
  9
$MENU
  1
.
  9
$ELEVATION
 40
0.0
  9
$PELEVATION
 40
0.0
  9
$THICKNESS
 40
0.0
  9
$LIMCHECK
 70
     0
  9
$BLIPMODE
 70
     0
  9
$CHAMFERA
 40
10.0
  9
$CHAMFERB
 40
10.0
  9
$SKPOLY
 70
     0
  9
$TDCREATE
 40
2458250.3577490631
  9
$TDUPDATE
 40
2459607.4225659948
  9
$TDINDWG
 40
0.0538618519
  9
$TDUSRTIMER
 40
0.0538616782
  9
$USRTIMER
 70
     1
  9
$ANGBASE
 50
0.0
  9
$ANGDIR
 70
     0
  9
$PDMODE
 70
     0
  9
$PDSIZE
 40
-5.0
  9
$PLINEWID
 40
0.0
  9
$COORDS
 70
     1
  9
$SPLFRAME
 70
     0
  9
$SPLINETYPE
 70
     6
  9
$SPLINESEGS
 70
     8
  9
$ATTDIA
 70
     1
  9
$ATTREQ
 70
     1
  9
$HANDLING
 70
     1
  9
$HANDSEED
  5
1694
  9
$SURFTAB1
 70
     6
  9
$SURFTAB2
 70
     6
  9
$SURFTYPE
 70
     6
  9
$SURFU
 70
     6
  9
$SURFV
 70
     6
  9
$UCSNAME
  2

  9
$UCSORG
 10
0.0
 20
0.0
 30
0.0
  9
$UCSXDIR
 10
1.0
 20
0.0
 30
0.0
  9
$UCSYDIR
 10
0.0
 20
1.0
 30
0.0
  9
$PUCSNAME
  2

  9
$PUCSORG
 10
0.0
 20
0.0
 30
0.0
  9
$PUCSXDIR
 10
1.0
 20
0.0
 30
0.0
  9
$PUCSYDIR
 10
0.0
 20
1.0
 30
0.0
  9
$USERI1
 70
     1
  9
$USERI2
 70
     0
  9
$USERI3
 70
     0
  9
$USERI4
 70
     0
  9
$USERI5
 70
     0
  9
$USERR1
 40
0.0
  9
$USERR2
 40
0.0
  9
$USERR3
 40
0.0
  9
$USERR4
 40
0.0
  9
$USERR5
 40
0.0
  9
$WORLDVIEW
 70
     1
  9
$SHADEDGE
 70
     3
  9
$SHADEDIF
 70
    70
  9
$TILEMODE
 70
     1
  9
$MAXACTVP
 70
    16
  9
$PLIMCHECK
 70
     0
  9
$PEXTMIN
 10
1.0000000000000000E+020
 20
1.0000000000000000E+020
 30
1.0000000000000000E+020
  9
$PEXTMAX
 10
-1.0000000000000000E+020
 20
-1.0000000000000000E+020
 30
-1.0000000000000000E+020
  9
$PLIMMIN
 10
0.0
 20
0.0
  9
$PLIMMAX
 10
420.0
 20
297.0
  9
$UNITMODE
 70
     0
  9
$VISRETAIN
 70
     0
  9
$PLINEGEN
 70
     0
  9
$PSLTSCALE
 70
     1
  0
ENDSEC
  0
SECTION
  2
TABLES
  0
TABLE
  2
VPORT
 70
     1
  0
VPORT
  2
*ACTIVE
 70
     0
 10
0.0
 20
0.0
 11
1.0
 21
1.0
 12
-8.5424989992728086
 22
-2.7898501055826581
 13
0.0
 23
0.0
 14
7.0
 24
7.0
 15
7.0
 25
7.0
 16
0.0
 26
0.0
 36
1.0
 17
0.0
 27
0.0
 37
0.0
 40
158.58858858426581
 41
1.488859764089121
 42
50.0
 43
0.0
 44
0.0
 50
0.0
 51
0.0
 71
     0
 72
 20000
 73
     1
 74
     0
 75
     0
 76
     0
 77
     0
 78
     0
  0
ENDTAB
  0
TABLE
  2
LTYPE
 70
    16
  0
LTYPE
  2
CONTINUOUS
 70
     0
  3
Solid line
 72
    65
 73
     0
 40
0.0
  0
LTYPE
  2
CENTER2
 70
     0
  3
___ _ ___ _ ___ _ ___ _ ___ _ ___ _ ___ _ ___ _
 72
    65
 73
     4
 40
1.125
 49
0.75
 49
-0.125
 49
0.125
 49
-0.125
  0
LTYPE
  2
HIDDEN2
 70
     0
  3
_ _ _ _ _ _ _ _ _ _ _ _ _ _ _ _ _ _ _ _ _ _ _ _
 72
    65
 73
     2
 40
0.1875
 49
0.125
 49
-0.0625
  0
LTYPE
  2
HIDDEN
 70
     0
  3
Hidden __ __ __ __ __ __ __ __ __ __ __ __ __ _
 72
    65
 73
     2
 40
9.5249999999999986
 49
6.3499999999999988
 49
-3.1749999999999989
  0
LTYPE
  2
PHANTOM2
 70
     0
  3
___ _ _ ___ _ _ ___ _ _ ___ _ _ ___ _ _ ___ _ _
 72
    65
 73
     6
 40
1.25
 49
0.625
 49
-0.125
 49
0.125
 49
-0.125
 49
0.125
 49
-0.125
  0
LTYPE
  2
CENTER
 70
     0
  3
____ _ ____ _ ____ _ ____ _ ____ _ ____ _ ____ 
 72
    65
 73
     4
 40
2.0
 49
1.25
 49
-0.25
 49
0.25
 49
-0.25
  0
LTYPE
  2
AMCONSTR
 70
     0
  3
_______________________
 72
    65
 73
     2
 40
9999.0
 49
9999.0
 49
0.0
  0
LTYPE
  2
AM_ISO02W050
 70
     0
  3
__ __ __ __ __ __ __ __ __ __ __ __ __ __ __
 72
    65
 73
     2
 40
7.5
 49
6.0
 49
-1.5
  0
LTYPE
  2
ACJISTGB
 70
     0
  3
__ . . __ . .
 72
    65
 73
     6
 40
9.0
 49
4.0
 49
-1.0
 49
1.0
 49
-1.0
 49
1.0
 49
-1.0
  0
LTYPE
  2
ACJISTGL
 70
     0
  3
_ _ _ _ _
 72
    65
 73
     2
 40
3.0
 49
2.0
 49
-1.0
  0
LTYPE
  2
ACISOWELD
 70
     0
  3
_ _ _ _ _
 72
    65
 73
     2
 40
2.0
 49
2.0
 49
-1.0
  0
LTYPE
  2
ACISOTGB
 70
     0
  3
__ . . __ . .
 72
    65
 73
     6
 40
9.0
 49
4.0
 49
-1.0
 49
1.0
 49
-1.0
 49
1.0
 49
-1.0
  0
LTYPE
  2
ACISOTGL
 70
     0
  3
_ _ _ _ _
 72
    65
 73
     2
 40
3.0
 49
2.0
 49
-1.0
  0
LTYPE
  2
AMZIGZAG2
 70
     0
  3
/\/-/\/-/\/-/\/-/\/-/\/
 72
    65
 73
     2
 40
0.4401
 49
0.0001
 49
-0.4400000000000001
  0
LTYPE
  2
ACANSTGB
 70
     0
  3
__ . . __ . .
 72
    65
 73
     6
 40
0.35433070866
 49
0.15748031496
 49
-0.03937007874
 49
0.03937007874
 49
-0.03937007874
 49
0.03937007874
 49
-0.03937007874
  0
LTYPE
  2
ACANSTGL
 70
     0
  3
_ _ _ _ _
 72
    65
 73
     2
 40
0.11811023622
 49
0.07874015748
 49
-0.03937007874
  0
ENDTAB
  0
TABLE
  2
LAYER
 70
     9
  0
LAYER
  2
0
 70
     0
 62
     7
  6
CONTINUOUS
  0
LAYER
  2
240
 70
     0
 62
     4
  6
CONTINUOUS
  0
LAYER
  2
241
 70
     0
 62
   211
  6
CONTINUOUS
  0
LAYER
  2
242
 70
     0
 62
     3
  6
CONTINUOUS
  0
LAYER
  2
243
 70
     0
 62
   211
  6
HIDDEN2
  0
LAYER
  2
245
 70
     0
 62
     2
  6
CENTER2
  0
LAYER
  2
247
 70
     0
 62
    60
  6
CONTINUOUS
  0
LAYER
  2
250
 70
     0
 62
     3
  6
CONTINUOUS
  0
LAYER
  2
DEFPOINTS
 70
     0
 62
     7
  6
CONTINUOUS
  0
ENDTAB
  0
TABLE
  2
STYLE
 70
     8
  0
STYLE
  2
STANDARD
 70
     0
 40
0.0
 41
1.0
 50
0.0
 71
     0
 42
3.0
  3
romans.shx
  4
BIGFONT.SHX
  0
STYLE
  2
YOKO
 70
     0
 40
0.0
 41
1.0
 50
0.0
 71
     0
 42
3.0
  3
romans.shx
  4
extfont.shx
  0
STYLE
  2
ACJISTS
 70
     0
 40
1.0
 41
1.0
 50
0.0
 71
     0
 42
3.0
  3
amgdt.shx
  4
extfont.shx
  0
STYLE
  2
ACJISGDT
 70
     0
 40
0.0
 41
1.0
 50
0.0
 71
     0
 42
3.0
  3
amgdt.shx
  4
extfont.shx
  0
STYLE
  2
ACISOTS
 70
     0
 40
1.0
 41
1.0
 50
0.0
 71
     0
 42
3.0
  3
amgdt.shx
  4
extfont.shx
  0
STYLE
  2
ACISOGDT
 70
     0
 40
0.0
 41
1.0
 50
0.0
 71
     0
 42
3.0
  3
amgdt.shx
  4
extfont.shx
  0
STYLE
  2

 70
     1
 40
0.0
 41
1.0
 50
0.0
 71
     0
 42
3.0
  3
genltshp.shx
  4

  0
STYLE
  2
ACANSGDT
 70
     0
 40
0.0
 41
1.0
 50
0.0
 71
     0
 42
3.0
  3
amgdt.shx
  4

  0
ENDTAB
  0
TABLE
  2
VIEW
 70
     0
  0
ENDTAB
  0
TABLE
  2
UCS
 70
     0
  0
ENDTAB
  0
TABLE
  2
APPID
 70
    40
  0
APPID
  2
ACAD
 70
     0
  0
APPID
  2
GLOBAL
 70
     0
  0
APPID
  2
DETAIL
 70
     0
  0
APPID
  2
GRPNAME
 70
     0
  0
APPID
  2
GPARA
 70
     0
  0
APPID
  2
DCO15
 70
     0
  0
APPID
  2
ITEMNAME
 70
     0
  0
APPID
  2
GRADE_0
 70
     0
  0
APPID
  2
ACAD_DSTYLE_DIMJAG
 70
     0
  0
APPID
  2
ACAD_DSTYLE_DIMTALN
 70
     0
  0
APPID
  2
ACAD_NAV_VCDISPLAY
 70
     0
  0
APPID
  2
ACAD_MLEADERVER
 70
     0
  0
APPID
  2
ACAD_DSTYLE_DIMBREAK
 70
     0
  0
APPID
  2
GENIUS_GENODEF_13
 70
     0
  0
APPID
  2
GENIUS_GENOBJ-N-FIL_13
 70
     0
  0
APPID
  2
ACAD_EXEMPT_FROM_CAD_STANDARDS
 70
     0
  0
APPID
  2
ACAD_PSEXT
 70
     0
  0
APPID
  2
MCAD_NO_VIS
 70
     0
  0
APPID
  2
ACAD_TEMP_GRAPHIC
 70
     0
  0
APPID
  2
ACATTRIBSERVICES
 70
     0
  0
APPID
  2
GENIUS_GENSCREG_15
 70
     0
  0
APPID
  2
GENIUS_GENOBJ-N-SDF_13
 70
     0
  0
APPID
  2
GENIUS_GENREC_14
 70
     0
  0
APPID
  2
GENIUS_GENOBJ-N-REC_13
 70
     0
  0
APPID
  2
GENIUS_GENDIMSH_14
 70
     0
  0
APPID
  2
GENIUS_GENOBJ-N-DIM_13
 70
     0
  0
APPID
  2
GENIUS_GENDIM_13
 70
     0
  0
APPID
  2
GENIUS_GENDTOL_13
 70
     0
  0
APPID
  2
GENIUS_GENOLIS_13
 70
     0
  0
APPID
  2
GENIUS_GENOENT_13
 70
     0
  0
APPID
  2
GENIUS_GENOBJ-F-FEM_13
 70
     0
  0
APPID
  2
GENIUS_GENOREF_13
 70
     0
  0
APPID
  2
GENIUS_GEFFEM_13
 70
     0
  0
APPID
  2
GENIUS_GEFFEMP_13
 70
     0
  0
APPID
  2
AD_DRAW
 70
     0
  0
APPID
  2
DESIGNERASSEMBLIES
 70
     0
  0
APPID
  2
ACADM_DIM_EDIT
 70
     0
  0
APPID
  2
AMDT_DM_ADJ
 70
     0
  0
APPID
  2
GENIUS_GENFIL_13
 70
     0
  0
APPID
  2
GENIUS_GENOBJ-N-CHA_13
 70
     0
  0
ENDTAB
  0
TABLE
  2
DIMSTYLE
 70
    29
  0
DIMSTYLE
  2
BIGT
 70
     0
  3

  4

  5
OPEN
  6

  7

 40
1.0
 41
2.2299999999999991
 42
0.5
 43
7.0
 44
1.0
 45
0.0
 46
0.0
 47
0.0
 48
0.01
140
2.7999999999999989
141
0.0
142
0.0
143
25.399999999999999
144
1.0
145
0.0
146
1.0
147
1.0
 71
     0
 72
     0
 73
     0
 74
     0
 75
     0
 76
     0
 77
     3
 78
     9
170
     0
171
     2
172
     1
173
     0
174
     1
175
     0
176
   256
177
   256
178
    40
  0
DIMSTYLE
  2
BIGT$0
 70
     0
  3

  4

  5
OPEN
  6

  7

 40
1.0
 41
2.2299999999999991
 42
0.5
 43
7.0
 44
1.0
 45
0.0
 46
0.0
 47
0.0
 48
0.01
140
2.7999999999999989
141
0.0
142
0.0
143
25.399999999999999
144
1.0
145
0.0
146
1.0
147
1.0
 71
     0
 72
     0
 73
     0
 74
     0
 75
     0
 76
     0
 77
     3
 78
     9
170
     0
171
     2
172
     1
173
     0
174
     1
175
     0
176
   256
177
   256
178
    40
  0
DIMSTYLE
  2
BIGT$2
 70
     0
  3

  4

  5
OPEN
  6

  7

 40
1.0
 41
2.2299999999999991
 42
0.5
 43
7.0
 44
1.0
 45
0.0
 46
0.0
 47
0.0
 48
0.01
140
2.7999999999999989
141
0.0
142
0.0
143
25.399999999999999
144
1.0
145
0.0
146
1.0
147
1.0
 71
     0
 72
     0
 73
     0
 74
     0
 75
     0
 76
     0
 77
     3
 78
     9
170
     0
171
     2
172
     1
173
     0
174
     0
175
     0
176
   256
177
   256
178
    40
  0
DIMSTYLE
  2
BIGT$3
 70
     0
  3

  4

  5
OPEN
  6

  7

 40
1.0
 41
2.2299999999999991
 42
0.5
 43
2.5
 44
1.0
 45
0.0
 46
0.0
 47
0.0
 48
0.01
140
2.7999999999999989
141
0.0
142
0.0
143
25.399999999999999
144
1.0
145
0.0
146
1.0
147
1.0
 71
     0
 72
     0
 73
     0
 74
     0
 75
     0
 76
     0
 77
     3
 78
     9
170
     0
171
     2
172
     1
173
     0
174
     0
175
     0
176
   256
177
   256
178
    40
  0
DIMSTYLE
  2
BIGT$4
 70
     0
  3

  4

  5
OPEN
  6

  7

 40
1.0
 41
2.2299999999999991
 42
0.5
 43
2.5
 44
1.0
 45
0.0
 46
0.0
 47
0.0
 48
0.01
140
2.7999999999999989
141
0.0
142
0.0
143
25.399999999999999
144
1.0
145
0.0
146
1.0
147
1.0
 71
     0
 72
     0
 73
     0
 74
     0
 75
     0
 76
     0
 77
     3
 78
     9
170
     0
171
     2
172
     1
173
     0
174
     0
175
     0
176
   256
177
   256
178
    40
  0
DIMSTYLE
  2
BIGT$6
 70
     0
  3

  4

  5
OPEN
  6

  7

 40
1.0
 41
2.2299999999999991
 42
0.5
 43
2.5
 44
1.0
 45
0.0
 46
0.0
 47
0.0
 48
0.01
140
2.7999999999999989
141
0.0
142
0.0
143
25.399999999999999
144
1.0
145
0.0
146
1.0
147
1.0
 71
     0
 72
     0
 73
     0
 74
     0
 75
     0
 76
     0
 77
     3
 78
     9
170
     0
171
     2
172
     1
173
     0
174
     0
175
     0
176
   256
177
   256
178
    40
  0
DIMSTYLE
  2
BIGT$7
 70
     0
  3

  4

  5
OPEN
  6

  7

 40
0.0
 41
2.2299999999999991
 42
0.5
 43
7.0
 44
1.0
 45
0.0
 46
0.0
 47
0.0
 48
0.01
140
2.7999999999999989
141
0.0
142
0.0
143
25.399999999999999
144
1.0
145
0.0
146
1.0
147
1.0
 71
     0
 72
     0
 73
     0
 74
     0
 75
     0
 76
     0
 77
     3
 78
     9
170
     0
171
     2
172
     0
173
     0
174
     0
175
     0
176
   256
177
   256
178
    40
  0
DIMSTYLE
  2
BIGT$SF
 70
     0
  3

  4

  5
OPEN
  6

  7

 40
1.0
 41
2.2299999999999991
 42
0.5
 43
7.0
 44
1.0
 45
0.0
 46
0.0
 47
0.0
 48
0.0
140
2.7999999999999989
141
0.0
142
0.0
143
25.399999999999999
144
1.0
145
0.0
146
1.0
147
1.0
 71
     0
 72
     0
 73
     0
 74
     0
 75
     0
 76
     0
 77
     3
 78
     9
170
     0
171
     2
172
     1
173
     0
174
     0
175
     0
176
   256
177
   256
178
    40
  0
DIMSTYLE
  2
BIGT$SH
 70
     0
  3

  4

  5
OPEN
  6

  7

 40
1.0
 41
2.2299999999999991
 42
0.5
 43
7.0
 44
1.0
 45
0.0
 46
0.0
 47
0.0
 48
0.0
140
2.7999999999999989
141
0.0
142
0.0
143
25.399999999999999
144
1.0
145
0.0
146
1.0
147
1.0
 71
     0
 72
     0
 73
     0
 74
     0
 75
     0
 76
     0
 77
     3
 78
     9
170
     0
171
     2
172
     1
173
     0
174
     0
175
     0
176
   256
177
   256
178
    40
  0
DIMSTYLE
  2
AM_ISO
 70
     0
  3

  4
"
  5

  6

  7

 40
1.0
 41
2.5
 42
1.0
 43
10.0
 44
1.0
 45
0.0
 46
0.0
 47
0.1
 48
0.1
140
3.5
141
0.0
142
0.0
143
0.0393701
144
1.0
145
0.0
146
0.71
147
1.5
 71
     0
 72
     0
 73
     0
 74
     0
 75
     0
 76
     0
 77
     1
 78
     8
170
     0
171
     2
172
     1
173
     0
174
     0
175
     0
176
   256
177
   256
178
     2
  0
DIMSTYLE
  2
AM_ISO$3
 70
     0
  3

  4
"
  5

  6

  7

 40
1.0
 41
2.5
 42
1.0
 43
10.0
 44
1.0
 45
0.0
 46
0.0
 47
0.1
 48
0.1
140
3.5
141
0.0
142
0.0
143
0.0393701
144
1.0
145
0.0
146
0.71
147
1.5
 71
     0
 72
     0
 73
     0
 74
     1
 75
     0
 76
     0
 77
     1
 78
     8
170
     0
171
     2
172
     0
173
     0
174
     0
175
     0
176
   256
177
   256
178
     2
  0
DIMSTYLE
  2
AM_ISO$4
 70
     0
  3

  4
"
  5

  6

  7

 40
1.0
 41
2.5
 42
1.0
 43
10.0
 44
1.0
 45
0.0
 46
0.0
 47
0.1
 48
0.1
140
3.5
141
0.0
142
0.0
143
0.0393701
144
1.0
145
0.0
146
0.71
147
1.5
 71
     0
 72
     0
 73
     0
 74
     1
 75
     0
 76
     0
 77
     1
 78
     8
170
     0
171
     2
172
     0
173
     0
174
     0
175
     0
176
   256
177
   256
178
     2
  0
DIMSTYLE
  2
AM_ISO$6
 70
     0
  3

  4
"
  5

  6

  7

 40
1.0
 41
2.5
 42
1.0
 43
10.0
 44
1.0
 45
0.0
 46
0.0
 47
0.1
 48
0.1
140
3.5
141
0.0
142
0.0
143
0.0393701
144
1.0
145
0.0
146
0.71
147
1.5
 71
     0
 72
     0
 73
     0
 74
     0
 75
     0
 76
     0
 77
     0
 78
     8
170
     0
171
     2
172
     1
173
     0
174
     0
175
     0
176
   256
177
   256
178
     2
  0
DIMSTYLE
  2
AM_ISO$7
 70
     0
  3

  4
"
  5

  6

  7

 40
1.0
 41
2.5
 42
1.0
 43
10.0
 44
1.0
 45
0.0
 46
0.0
 47
0.1
 48
0.1
140
5.0
141
0.0
142
0.0
143
0.0393701
144
1.0
145
0.0
146
0.71
147
1.5
 71
     0
 72
     0
 73
     0
 74
     0
 75
     0
 76
     0
 77
     1
 78
     8
170
     0
171
     2
172
     1
173
     0
174
     0
175
     0
176
   256
177
   256
178
     2
  0
DIMSTYLE
  2
AM_ISO$SF
 70
     0
  3

  4
"
  5

  6

  7

 40
1.0
 41
2.5
 42
1.0
 43
10.0
 44
1.0
 45
0.0
 46
0.0
 47
0.1
 48
0.1
140
3.5
141
0.0
142
0.0
143
0.0393701
144
1.0
145
0.0
146
0.71
147
1.5
 71
     0
 72
     0
 73
     0
 74
     0
 75
     1
 76
     1
 77
     1
 78
     8
170
     0
171
     2
172
     1
173
     0
174
     0
175
     0
176
   256
177
   256
178
     2
  0
DIMSTYLE
  2
AM_ISO$SH
 70
     0
  3

  4
"
  5

  6
GENAXEH
  7

 40
1.0
 41
2.5
 42
1.0
 43
10.0
 44
1.0
 45
0.0
 46
0.0
 47
0.1
 48
0.1
140
3.5
141
0.0
142
0.0
143
0.0393701
144
2.0
145
0.0
146
0.71
147
1.5
 71
     0
 72
     0
 73
     0
 74
     0
 75
     1
 76
     1
 77
     1
 78
     8
170
     0
171
     2
172
     1
173
     1
174
     0
175
     0
176
   256
177
   256
178
     2
  0
DIMSTYLE
  2
TECHNICAL_OSAKA
 70
     0
  3

  4
"
  5
OPEN30
  6

  7

 40
1.0
 41
2.5
 42
1.0
 43
10.0
 44
1.0
 45
0.0
 46
0.0
 47
0.1
 48
0.1
140
2.7999999999999989
141
0.0
142
0.0
143
0.0393701
144
1.0
145
0.0
146
0.71
147
1.5
 71
     0
 72
     0
 73
     0
 74
     0
 75
     0
 76
     0
 77
     3
 78
     8
170
     0
171
     2
172
     1
173
     0
174
     0
175
     0
176
   256
177
   256
178
    40
  0
DIMSTYLE
  2
TECHNICAL_OSAKA$3
 70
     0
  3

  4
"
  5
OPEN30
  6

  7

 40
1.0
 41
2.5
 42
1.0
 43
10.0
 44
1.0
 45
0.0
 46
0.0
 47
0.1
 48
0.1
140
2.7999999999999989
141
0.0
142
0.0
143
0.0393701
144
1.0
145
0.0
146
0.71
147
1.5
 71
     0
 72
     0
 73
     0
 74
     1
 75
     0
 76
     0
 77
     3
 78
     8
170
     0
171
     2
172
     0
173
     0
174
     0
175
     0
176
   256
177
   256
178
    40
  0
DIMSTYLE
  2
TECHNICAL_OSAKA$4
 70
     0
  3

  4
"
  5
OPEN30
  6

  7

 40
1.0
 41
2.5
 42
1.0
 43
10.0
 44
1.0
 45
0.0
 46
0.0
 47
0.1
 48
0.1
140
2.7999999999999989
141
0.0
142
0.0
143
0.0393701
144
1.0
145
0.0
146
0.71
147
1.5
 71
     0
 72
     0
 73
     0
 74
     1
 75
     0
 76
     0
 77
     3
 78
     8
170
     0
171
     2
172
     0
173
     0
174
     0
175
     0
176
   256
177
   256
178
    40
  0
DIMSTYLE
  2
TECHNICAL_OSAKA$6
 70
     0
  3

  4
"
  5
OPEN30
  6

  7

 40
1.0
 41
2.5
 42
1.0
 43
10.0
 44
1.0
 45
0.0
 46
0.0
 47
0.1
 48
0.1
140
2.7999999999999989
141
0.0
142
0.0
143
0.0393701
144
1.0
145
0.0
146
0.71
147
1.5
 71
     0
 72
     0
 73
     0
 74
     0
 75
     0
 76
     0
 77
     0
 78
     8
170
     0
171
     2
172
     1
173
     0
174
     0
175
     0
176
   256
177
   256
178
    40
  0
DIMSTYLE
  2
TECHNICAL_OSAKA$7
 70
     0
  3

  4
"
  5
OPEN30
  6

  7

 40
1.0
 41
2.5
 42
1.0
 43
10.0
 44
1.0
 45
0.0
 46
0.0
 47
0.1
 48
0.1
140
2.7999999999999989
141
0.0
142
0.0
143
0.0393701
144
1.0
145
0.0
146
0.71
147
1.5
 71
     0
 72
     0
 73
     0
 74
     0
 75
     0
 76
     0
 77
     3
 78
     8
170
     0
171
     2
172
     1
173
     0
174
     0
175
     0
176
   256
177
   256
178
    40
  0
DIMSTYLE
  2
TECHNICAL_OSAKA$SF
 70
     0
  3

  4
"
  5
OPEN30
  6
OPEN30
  7
OPEN30
 40
1.0
 41
2.5
 42
1.0
 43
10.0
 44
1.0
 45
0.0
 46
0.0
 47
0.1
 48
0.1
140
3.5
141
0.0
142
0.0
143
0.0393701
144
1.0
145
0.0
146
0.71
147
1.5
 71
     0
 72
     0
 73
     0
 74
     0
 75
     1
 76
     1
 77
     3
 78
     8
170
     0
171
     2
172
     1
173
     0
174
     0
175
     0
176
   256
177
   256
178
    40
  0
DIMSTYLE
  2
TECHNICAL_OSAKA$SH
 70
     0
  3

  4
"
  5
OPEN30
  6
GENAXEH
  7
OPEN30
 40
1.0
 41
2.5
 42
1.0
 43
10.0
 44
1.0
 45
0.0
 46
0.0
 47
0.1
 48
0.1
140
3.5
141
0.0
142
0.0
143
0.0393701
144
2.0
145
0.0
146
0.71
147
1.5
 71
     0
 72
     0
 73
     0
 74
     0
 75
     1
 76
     1
 77
     3
 78
     8
170
     0
171
     2
172
     1
173
     1
174
     0
175
     0
176
   256
177
   256
178
    40
  0
DIMSTYLE
  2
AM_ANSI
 70
     0
  3

  4
mm
  5

  6

  7

 40
1.0
 41
0.12
 42
0.05
 43
0.5
 44
0.1
 45
0.0
 46
0.0
 47
0.1
 48
0.1
140
0.12
141
0.0
142
0.0
143
25.399999999999999
144
1.0
145
0.0
146
0.71
147
0.06
 71
     0
 72
     0
 73
     1
 74
     1
 75
     0
 76
     0
 77
     0
 78
     7
170
     0
171
     2
172
     0
173
     0
174
     0
175
     0
176
   256
177
   256
178
     2
  0
DIMSTYLE
  2
AM_ANSI$3
 70
     0
  3

  4
mm
  5

  6

  7

 40
1.0
 41
0.12
 42
0.05
 43
0.5
 44
0.1
 45
0.0
 46
0.0
 47
0.1
 48
0.1
140
0.12
141
0.0
142
0.0
143
25.399999999999999
144
1.0
145
0.0
146
0.71
147
0.06
 71
     0
 72
     0
 73
     1
 74
     1
 75
     0
 76
     0
 77
     0
 78
     7
170
     0
171
     2
172
     0
173
     0
174
     0
175
     0
176
   256
177
   256
178
     2
  0
DIMSTYLE
  2
AM_ANSI$4
 70
     0
  3

  4
mm
  5

  6

  7

 40
1.0
 41
0.12
 42
0.05
 43
0.5
 44
0.1
 45
0.0
 46
0.0
 47
0.1
 48
0.1
140
0.12
141
0.0
142
0.0
143
25.399999999999999
144
1.0
145
0.0
146
0.71
147
0.06
 71
     0
 72
     0
 73
     1
 74
     1
 75
     0
 76
     0
 77
     0
 78
     7
170
     0
171
     2
172
     0
173
     0
174
     0
175
     0
176
   256
177
   256
178
     2
  0
DIMSTYLE
  2
AM_ANSI$7
 70
     0
  3

  4
mm
  5

  6

  7

 40
1.0
 41
0.12
 42
0.05
 43
0.5
 44
0.1
 45
0.0
 46
0.0
 47
0.1
 48
0.1
140
0.12
141
0.0
142
0.0
143
25.399999999999999
144
1.0
145
0.0
146
0.71
147
0.06
 71
     0
 72
     0
 73
     1
 74
     1
 75
     0
 76
     0
 77
     0
 78
     7
170
     0
171
     2
172
     0
173
     0
174
     0
175
     0
176
   256
177
   256
178
     2
  0
DIMSTYLE
  2
AM_ANSI$SF
 70
     0
  3

  4
mm
  5

  6

  7

 40
1.0
 41
0.12
 42
0.05
 43
0.5
 44
0.1
 45
0.0
 46
0.0
 47
0.1
 48
0.1
140
0.12
141
0.0
142
0.0
143
25.399999999999999
144
1.0
145
0.0
146
0.71
147
0.06
 71
     0
 72
     0
 73
     1
 74
     1
 75
     1
 76
     1
 77
     0
 78
     7
170
     0
171
     2
172
     0
173
     0
174
     0
175
     0
176
   256
177
   256
178
     2
  0
DIMSTYLE
  2
AM_ANSI$SH
 70
     0
  3

  4
mm
  5

  6
GENAXEH
  7

 40
1.0
 41
0.12
 42
0.05
 43
0.5
 44
0.1
 45
0.0
 46
0.0
 47
0.1
 48
0.1
140
0.12
141
0.0
142
0.0
143
25.399999999999999
144
1.0
145
0.0
146
0.71
147
0.06
 71
     0
 72
     0
 73
     1
 74
     1
 75
     1
 76
     1
 77
     0
 78
     7
170
     0
171
     2
172
     0
173
     1
174
     0
175
     0
176
   256
177
   256
178
     2
  0
ENDTAB
  0
ENDSEC
  0
SECTION
  2
BLOCKS
  0
BLOCK
  8
0
  2
$MODEL_SPACE
 70
     0
 10
0.0
 20
0.0
 30
0.0
  3
$MODEL_SPACE
  1

  0
ENDBLK
  5
1C
  8
0
  0
BLOCK
 67
     1
  8
0
  2
$PAPER_SPACE
 70
     0
 10
0.0
 20
0.0
 30
0.0
  3
$PAPER_SPACE
  1

  0
ENDBLK
  5
19
 67
     1
  8
0
  0
BLOCK
  8
0
  2
_OPEN
 70
     0
 10
0.0
 20
0.0
 30
0.0
  3
_OPEN
  1

  0
LINE
  5
FD0
  8
0
  6
BYBLOCK
 62
     0
 10
-1.0
 20
0.1666666666666666
 30
0.0
 11
0.0
 21
0.0
 31
0.0
  0
LINE
  5
FD1
  8
0
  6
BYBLOCK
 62
     0
 10
-1.0
 20
-0.1666666666666666
 30
0.0
 11
0.0
 21
0.0
 31
0.0
  0
LINE
  5
FD2
  8
0
  6
BYBLOCK
 62
     0
 10
0.0
 20
0.0
 30
0.0
 11
-1.0
 21
0.0
 31
0.0
  0
ENDBLK
  5
FD3
  8
0
  0
BLOCK
  8
0
  2
矢印なし
 70
     0
 10
0.0
 20
0.0
 30
0.0
  3
矢印なし
  1

  0
ENDBLK
  5
6E5
  8
0
  0
BLOCK
  8
0
  2
GENAXEH
 70
     0
 10
0.0
 20
0.0
 30
0.0
  3
GENAXEH
  1

  0
LINE
  5
100B
  8
0
 10
-1.0
 20
0.0
 30
0.0
 11
1.0
 21
0.0
 31
0.0
  0
ENDBLK
  5
100C
  8
0
  0
BLOCK
  8
0
  2
_OPEN30
 70
     0
 10
0.0
 20
0.0
 30
0.0
  3
_OPEN30
  1

  0
LINE
  5
1047
  8
0
  6
BYBLOCK
 62
     0
 10
-1.0
 20
0.26794919
 30
0.0
 11
0.0
 21
0.0
 31
0.0
  0
LINE
  5
1048
  8
0
  6
BYBLOCK
 62
     0
 10
0.0
 20
0.0
 30
0.0
 11
-1.0
 21
-0.26794919
 31
0.0
  0
LINE
  5
1049
  8
0
  6
BYBLOCK
 62
     0
 10
0.0
 20
0.0
 30
0.0
 11
-1.0
 21
0.0
 31
0.0
  0
ENDBLK
  5
104A
  8
0
  0
BLOCK
  8
0
  2
*U9
 70
     1
 10
0.0
 20
0.0
 30
0.0
  3
*U9
  1

  0
TEXT
  5
1683
  8
250
 10
17.333333333332941
 20
36.0
 30
0.0
 40
2.799999999999998
  1
40
  0
ENDBLK
  5
1685
  8
0
  0
BLOCK
  8
0
  2
*U10
 70
     1
 10
0.0
 20
0.0
 30
0.0
  3
*U10
  1

  0
TEXT
  5
1687
  8
250
 10
17.873333333332639
 20
29.0
 30
0.0
 40
2.799999999999998
  1
（max.23）
  0
ENDBLK
  5
1689
  8
0
  0
BLOCK
  8
0
  2
*U11
 70
     1
 10
0.0
 20
0.0
 30
0.0
  3
*U11
  1

  0
TEXT
  5
168B
  8
250
 10
55.0
 20
-3.933333333333326
 30
0.0
 40
2.7999999999999989
  1
\U+2205
 50
90.0
  0
TEXT
  5
168C
  8
250
 10
55.0
 20
-1.3999999999999939
 30
0.0
 40
2.799999999999998
  1
25
 50
90.0
  0
ENDBLK
  5
168E
  8
0
  0
BLOCK
  8
0
  2
*U12
 70
     1
 10
0.0
 20
0.0
 30
0.0
  3
*U12
  1

  0
TEXT
  5
1690
  8
250
 10
48.0
 20
-2.599999999999993
 30
0.0
 40
2.7999999999999989
  1
\U+2205
 50
90.0
  0
TEXT
  5
1691
  8
250
 10
48.0
 20
-0.0666666666666611
 30
0.0
 40
2.799999999999998
  1
8
 50
90.0
  0
ENDBLK
  5
1693
  8
0
  0
ENDSEC
  0
SECTION
  2
ENTITIES
  0
INSERT
  5
6E6
  8
245
  2
矢印なし
 10
175.62382696643769
 20
90.551235716905978
 30
0.0
  0
LINE
  5
B6D
  8
240
  6
CONTINUOUS
 10
-24.0
 20
13.462452753759919
 30
0.0
 11
0.0
 21
14.06250549360146
 31
0.0
  0
LINE
  5
B6E
  8
240
  6
CONTINUOUS
 10
0.0
 20
-14.062505499322411
 30
0.0
 11
-24.0
 21
-13.46245267871182
 31
0.0
  0
LINE
  5
B6F
  8
245
  6
CENTER2
 10
-25.0
 20
0.0
 30
0.0
 11
41.0
 21
0.0
 31
0.0
  0
LINE
  5
B70
  8
240
  6
CONTINUOUS
 10
-24.0
 20
-13.46245267871182
 30
0.0
 11
-24.0
 21
13.462452753759919
 31
0.0
  0
LINE
  5
B71
  8
241
  6
CONTINUOUS
 10
-19.800000000000001
 20
-2.5425000000000182
 30
0.0
 11
-19.800000000000001
 21
2.5425000000000182
 31
0.0
  0
LINE
  5
B72
  8
241
  6
CONTINUOUS
 10
-24.0
 20
-2.5425000000000182
 30
0.0
 11
-19.800000000000001
 21
-2.5425000000000182
 31
0.0
  0
LINE
  5
B73
  8
241
  6
CONTINUOUS
 10
-24.0
 20
2.5425000000000182
 30
0.0
 11
-19.800000000000001
 21
2.5425000000000182
 31
0.0
  0
LINE
  5
B74
  8
241
  6
CONTINUOUS
 10
0.0
 20
-14.062505499322411
 30
0.0
 11
0.0
 21
14.06250549360146
 31
0.0
  0
LINE
  5
B75
  8
240
  6
CONTINUOUS
 10
0.0
 20
-20.0
 30
0.0
 11
0.0
 21
-14.062505499322411
 31
0.0
  0
LINE
  5
B76
  8
240
  6
CONTINUOUS
 10
20.0
 20
-20.0
 30
0.0
 11
20.0
 21
-13.500000000002579
 31
0.0
  0
LINE
  5
B77
  8
240
  6
CONTINUOUS
 10
0.0
 20
20.0
 30
0.0
 11
0.0
 21
14.06250549360152
 31
0.0
  0
LINE
  5
B78
  8
250
  6
CONTINUOUS
 10
-14.21116305741373
 20
-15.30479900198344
 30
0.0
 11
-12.92248792332026
 21
-13.739414860668489
 31
0.0
  0
LINE
  5
B79
  8
250
  6
CONTINUOUS
 10
-13.63381278811732
 20
-15.638132335131839
 30
0.0
 11
-12.92248792332026
 21
-13.739414860668489
 31
0.0
  0
LINE
  5
B7A
  8
250
  6
CONTINUOUS
 10
-12.92248792332026
 20
-13.739414860668489
 30
0.0
 11
-13.922487922765519
 21
-15.47146566855764
 31
0.0
  0
LINE
  5
B7B
  8
250
  6
CONTINUOUS
 10
-13.922487922765519
 20
-15.47146566855764
 30
0.0
 11
-17.582293443320271
 21
-21.810434780668452
 31
0.0
1001
ACAD
1000
DSTYLE
1002
{
1070
     6
1000
OPEN
1070
    41
1040
2.0
1070
    42
1040
2.0
1070
    44
1040
2.0
1070
   140
1040
4.0
1070
   343
1005
0
1002
}
  0
TEXT
  5
B7C
  8
250
  6
CONTINUOUS
 10
-25.582293443320282
 20
-20.810434780668452
 30
0.0
 40
2.799999999999998
  1
C4
  7
YOKO
1001
ITEMNAME
1000
LNSP3
  0
LINE
  5
B7D
  8
250
  6
CONTINUOUS
 10
-17.582293443320271
 20
-21.810434780668452
 30
0.0
 11
-27.982293443320319
 21
-21.810434780668452
 31
0.0
1001
ITEMNAME
1000
LNSP2
  0
LINE
  5
B7E
  8
247
  6
CONTINUOUS
 10
3.9999999999999432
 20
-8.75
 30
0.0
 11
4.0
 21
-4.115384615669992
 31
0.0
  0
LINE
  5
B7F
  8
247
  6
CONTINUOUS
 10
1.5
 20
-7.954893499987973
 30
0.0
 11
3.5999999999160082
 21
-8.5570588100573541
 31
0.0
  0
LINE
  5
B80
  8
247
  6
CONTINUOUS
 10
2.496153846113998
 20
-7.325151403519043
 30
0.0
 11
2.496153846113998
 21
-8.2405360188670311
 31
0.0
  0
ARC
  5
B81
  8
247
  6
CONTINUOUS
 10
1.8847190672940981
 20
-7.087263401946811
 30
0.0
 40
0.3876715809326743
 50
72.9978896752922
 51
172.92416621851359
  0
ARC
  5
B82
  8
247
  6
CONTINUOUS
 10
1.805223131028014
 20
-7.3824775568041323
 30
0.0
 40
0.6933047965358772
 50
4.7429368522022113
 51
73.849226273266751
1001
GENIUS_GENOBJ-N-FIL_13
1002
{
1000
OWNER
1000
GEN
1002
}
1001
GENIUS_GENODEF_13
1002
{
1000
HIER
1070
     0
1002
}
1002
{
1000
MANEDIT
1070
     0
1002
}
1002
{
1000
NOSEL
1070
     0
1002
}
1002
{
1000
BEHIND
1070
     0
1002
}
1002
{
1000
OTHER
1070
     0
1002
}
1002
{
1000
REACTOR
1002
}
  0
LINE
  5
B83
  8
247
  6
CONTINUOUS
 10
3.5999999999160082
 20
-7.641674194709366
 30
0.0
 11
3.5999999999160082
 21
-8.5570588100573541
 31
0.0
  0
LINE
  5
B84
  8
247
  6
CONTINUOUS
 10
1.5
 20
-7.954893499987973
 30
0.0
 11
1.5
 21
-7.0395088846399272
 31
0.0
  0
ARC
  5
B85
  8
247
  6
CONTINUOUS
 10
2.8874169627678721
 20
-7.3783064762668573
 30
0.0
 40
0.394857301075386
 50
65.990941652528889
 51
172.26344345906909
  0
ARC
  5
B86
  8
247
  6
CONTINUOUS
 10
2.8912003273325682
 20
-7.7124466104269231
 30
0.0
 40
0.7123241612361686
 50
5.7019851642564632
 51
77.277338436822021
1001
GENIUS_GENOBJ-N-FIL_13
1002
{
1000
OWNER
1000
GEN
1002
}
1001
GENIUS_GENODEF_13
1002
{
1000
HIER
1070
     0
1002
}
1002
{
1000
MANEDIT
1070
     0
1002
}
1002
{
1000
NOSEL
1070
     0
1002
}
1002
{
1000
BEHIND
1070
     0
1002
}
1002
{
1000
OTHER
1070
     0
1002
}
1002
{
1000
REACTOR
1002
}
  0
LINE
  5
B87
  8
247
  6
CONTINUOUS
 10
3.5999999999160082
 20
-6.6839818870633962
 30
0.0
 11
1.5
 21
-6.0818165769939556
 31
0.0
  0
LINE
  5
B88
  8
247
  6
CONTINUOUS
 10
1.5
 20
-4.5856627309079832
 30
0.0
 11
1.5
 21
-4.981678364303546
 31
0.0
  0
LINE
  5
B89
  8
247
  6
CONTINUOUS
 10
3.5999999999160082
 20
-5.6087396539439851
 30
0.0
 11
3.5999999999160082
 21
-5.177970423191935
 31
0.0
  0
ARC
  5
B8A
  8
247
  6
CONTINUOUS
 10
2.9582995950833602
 20
-4.3818165770699684
 30
0.0
 40
1.576855057639547
 50
202.35948814152911
 51
254.99324854284649
  0
ARC
  5
B8B
  8
247
  6
CONTINUOUS
 10
2.0658188585381341
 20
-4.8475113661332312
 30
0.0
 40
0.6234706797009447
 50
94.994589319075317
 51
155.1663289573039
1001
GENIUS_GENOBJ-N-FIL_13
1002
{
1000
OWNER
1000
GEN
1002
}
1001
GENIUS_GENODEF_13
1002
{
1000
HIER
1070
     0
1002
}
1002
{
1000
MANEDIT
1070
     0
1002
}
1002
{
1000
NOSEL
1070
     0
1002
}
1002
{
1000
BEHIND
1070
     0
1002
}
1002
{
1000
OTHER
1070
     0
1002
}
1002
{
1000
REACTOR
1002
}
  0
ARC
  5
B8C
  8
247
  6
CONTINUOUS
 10
2.6621021219694381
 20
-5.4441839510327554
 30
0.0
 40
0.9749472149106983
 50
15.8460965557808
 51
82.325137004169278
  0
ARC
  5
B8D
  8
247
  6
CONTINUOUS
 10
2.8714704019710662
 20
-5.0352116387722381
 30
0.0
 40
0.9271945638692009
 50
249.7136016704969
 51
321.78874565641053
1001
GENIUS_GENOBJ-N-FIL_13
1002
{
1000
OWNER
1000
GEN
1002
}
1001
GENIUS_GENODEF_13
1002
{
1000
HIER
1070
     0
1002
}
1002
{
1000
MANEDIT
1070
     0
1002
}
1002
{
1000
NOSEL
1070
     0
1002
}
1002
{
1000
BEHIND
1070
     0
1002
}
1002
{
1000
OTHER
1070
     0
1002
}
1002
{
1000
REACTOR
1002
}
  0
LINE
  5
B8E
  8
247
  6
CONTINUOUS
 10
2.792307692255974
 20
-4.962585807815965
 30
0.0
 11
2.792307692255974
 21
-4.4779704232199711
 31
0.0
  0
ARC
  5
B8F
  8
247
  6
CONTINUOUS
 10
2.75
 20
-8.75
 30
0.0
 40
1.25
 50
180.0
 51
0.0
  0
LINE
  5
B90
  8
247
  6
CONTINUOUS
 10
1.5
 20
-8.75
 30
0.0
 11
1.5
 21
-8.3038461539139803
 31
0.0
  0
ARC
  5
B91
  8
247
  6
CONTINUOUS
 10
2.75
 20
-4.115384615669992
 30
0.0
 40
1.25
 50
0.0
 51
180.0
  0
LINE
  5
B92
  8
240
  6
CONTINUOUS
 10
20.0
 20
20.0
 30
0.0
 11
0.0
 21
20.0
 31
0.0
  0
LINE
  5
B93
  8
240
  6
CONTINUOUS
 10
20.0
 20
-20.0
 30
0.0
 11
0.0
 21
-20.0
 31
0.0
  0
LINE
  5
B94
  8
241
  6
CONTINUOUS
 10
6.6999999999999851
 20
5.4434495400000156
 30
0.0
 11
6.6999999999999851
 21
19.23457711999998
 31
0.0
  0
LINE
  5
B95
  8
241
  6
CONTINUOUS
 10
9.3000000000000114
 20
5.4434495400000156
 30
0.0
 11
9.3000000000000114
 21
19.23457711999998
 31
0.0
  0
LINE
  5
B96
  8
241
  6
CONTINUOUS
 10
6.6999999999999851
 20
5.4434495400000156
 30
0.0
 11
9.3000000000000114
 21
5.4434495400000156
 31
0.0
  0
LINE
  5
B97
  8
241
  6
CONTINUOUS
 10
6.6999999999999851
 20
19.23457711999998
 30
0.0
 11
9.3000000000000114
 21
19.23457711999998
 31
0.0
  0
ARC
  5
B98
  8
241
  6
CONTINUOUS
 10
19.246864401683411
 20
12.33901333
 30
0.0
 40
14.316864401683389
 50
151.207481346615
 51
208.792518653385
  0
ARC
  5
B99
  8
241
  6
CONTINUOUS
 10
-3.2468644016833501
 20
12.33901333
 30
0.0
 40
14.31686440168337
 50
331.20748134661488
 51
28.792518653385031
  0
LINE
  5
B9A
  8
241
  6
CONTINUOUS
 10
6.6999999999999851
 20
-5.4434495400000156
 30
0.0
 11
6.6999999999999851
 21
-19.23457711999998
 31
0.0
  0
LINE
  5
B9B
  8
241
  6
CONTINUOUS
 10
9.3000000000000114
 20
-5.4434495400000156
 30
0.0
 11
9.3000000000000114
 21
-19.23457711999998
 31
0.0
  0
LINE
  5
B9C
  8
241
  6
CONTINUOUS
 10
6.6999999999999851
 20
-5.4434495400000156
 30
0.0
 11
9.3000000000000114
 21
-5.4434495400000156
 31
0.0
  0
LINE
  5
B9D
  8
241
  6
CONTINUOUS
 10
6.6999999999999851
 20
-19.23457711999998
 30
0.0
 11
9.3000000000000114
 21
-19.23457711999998
 31
0.0
  0
ARC
  5
B9E
  8
241
  6
CONTINUOUS
 10
19.246864401683411
 20
-12.33901333
 30
0.0
 40
14.316864401683389
 50
151.207481346615
 51
208.792518653385
  0
ARC
  5
B9F
  8
241
  6
CONTINUOUS
 10
-3.2468644016833501
 20
-12.33901333
 30
0.0
 40
14.31686440168337
 50
331.20748134661488
 51
28.792518653385031
  0
ARC
  5
BA0
  8
241
  6
CONTINUOUS
 10
-20.845185903844769
 20
0.0
 30
0.0
 40
2.7489488579447801
 50
292.34687274647791
 51
67.653127253522129
  0
TEXT
  5
CC0
  8
241
  6
CONTINUOUS
 10
-24.0
 20
49.0
 30
0.0
 40
5.0
  1
C4-BSL8-40
  7
YOKO
 11
-24.0
 21
49.0
 31
0.0
 73
     1
  0
ARC
  5
DC8
  8
240
  6
CONTINUOUS
 10
21.0
 20
-13.500000000002579
 30
0.0
 40
1.0
 50
89.999999999998366
 51
180.0
  0
LINE
  5
DC9
  8
243
  6
HIDDEN2
 10
19.999999999998892
 20
4.0000000000013918
 30
0.0
 11
39.99999999999919
 21
4.0000000000049623
 31
0.0
  0
LINE
  5
DCA
  8
240
  6
CONTINUOUS
 10
20.999999999999432
 20
-12.500000000006731
 30
0.0
 11
36.857650869456613
 21
-12.499999999998179
 31
0.0
  0
LINE
  5
DCC
  8
240
  6
CONTINUOUS
 10
39.999999999999211
 20
6.5000000000010649
 30
0.0
 11
39.999999999999091
 21
-6.5000000000015037
 31
0.0
  0
LINE
  5
DCD
  8
240
  6
CONTINUOUS
 10
39.999999999999091
 20
-6.5000000000015037
 30
0.0
 11
38.789502522032649
 21
-11.01763809020497
 31
0.0
  0
ARC
  5
DCE
  8
240
  6
CONTINUOUS
 10
36.857650869455597
 20
-10.50000000000079
 30
0.0
 40
2.0
 50
270.00000000003092
 51
345.00000000000563
  0
LINE
  5
DCF
  8
241
  6
CONTINUOUS
 10
38.392304259488498
 20
-11.782512757231929
 30
0.0
 11
38.392304259488498
 21
11.78251275723326
 31
0.0
  0
LINE
  5
DD1
  8
241
  6
CONTINUOUS
 10
28.133974596208901
 20
-12.50000000000297
 30
0.0
 11
28.133974596208049
 21
12.50000000000289
 31
0.0
  0
LINE
  5
DD2
  8
241
  6
CONTINUOUS
 10
29.866025403777169
 20
-12.50000000000186
 30
0.0
 11
29.866025403776089
 21
12.50000000000195
 31
0.0
  0
LINE
  5
DD3
  8
245
  6
CENTER2
 10
23.99999999999287
 20
4.0
 30
0.0
 11
23.99999999999287
 21
-4.0
 31
0.0
  0
ARC
  5
DDE
  8
240
  6
CONTINUOUS
 10
21.0
 20
13.500000000002579
 30
0.0
 40
1.0
 50
180.0
 51
270.00000000000171
  0
LINE
  5
DDF
  8
240
  6
CONTINUOUS
 10
20.999999999999432
 20
12.500000000006731
 30
0.0
 11
36.857650869456613
 21
12.499999999998179
 31
0.0
  0
LINE
  5
DE0
  8
240
  6
CONTINUOUS
 10
39.999999999999211
 20
6.5000000000010649
 30
0.0
 11
38.789502522032649
 21
11.01763809020497
 31
0.0
  0
ARC
  5
DE1
  8
240
  6
CONTINUOUS
 10
36.857650869455597
 20
10.50000000000079
 30
0.0
 40
2.0
 50
14.999999999994451
 51
89.999999999969063
  0
LINE
  5
DEB
  8
240
  6
CONTINUOUS
 10
20.0
 20
20.0
 30
0.0
 11
20.0
 21
13.500000000002579
 31
0.0
  0
LINE
  5
DF3
  8
241
  6
CONTINUOUS
 10
19.999999989129599
 20
-13.50000009311108
 30
0.0
 11
19.999999989129599
 21
13.500000000002579
 31
0.0
  0
LINE
  5
E01
  8
243
  6
HIDDEN2
 10
19.999999999998892
 20
-4.0000000000013918
 30
0.0
 11
39.99999999999919
 21
-4.0000000000049623
 31
0.0
  0
CIRCLE
  5
E45
  8
242
  6
CONTINUOUS
 10
23.999999999993001
 20
0.0
 30
0.0
 40
2.5
  0
CIRCLE
  5
E47
  8
241
  6
CONTINUOUS
 10
23.999999999993001
 20
0.0
 30
0.0
 40
3.0
  0
POLYLINE
  5
E48
  8
241
  6
CONTINUOUS
 66
     1
 10
0.0
 20
0.0
 30
0.0
 70
     1
  0
VERTEX
  5
1674
  8
241
  6
CONTINUOUS
 10
22.499999999993008
 20
-0.8660254037844373
 30
0.0
  0
VERTEX
  5
1675
  8
241
  6
CONTINUOUS
 10
23.999999999993001
 20
-1.7320508075688781
 30
0.0
  0
VERTEX
  5
1676
  8
241
  6
CONTINUOUS
 10
25.499999999993008
 20
-0.8660254037844408
 30
0.0
  0
VERTEX
  5
1677
  8
241
  6
CONTINUOUS
 10
25.499999999993008
 20
0.8660254037844373
 30
0.0
  0
VERTEX
  5
1678
  8
241
  6
CONTINUOUS
 10
23.999999999993008
 20
1.7320508075688781
 30
0.0
  0
VERTEX
  5
1679
  8
241
  6
CONTINUOUS
 10
22.499999999993008
 20
0.8660254037844408
 30
0.0
  0
SEQEND
  5
167A
  8
241
  6
CONTINUOUS
  0
LINE
  5
E6D
  8
245
  6
CENTER2
 10
33.999999999992951
 20
4.0
 30
0.0
 11
33.999999999992951
 21
-4.0
 31
0.0
  0
CIRCLE
  5
E6E
  8
242
  6
CONTINUOUS
 10
33.999999999993094
 20
0.0
 30
0.0
 40
2.5
  0
CIRCLE
  5
E6F
  8
241
  6
CONTINUOUS
 10
33.999999999993094
 20
0.0
 30
0.0
 40
3.0
  0
POLYLINE
  5
E70
  8
241
  6
CONTINUOUS
 66
     1
 10
0.0
 20
0.0
 30
0.0
 70
     1
  0
VERTEX
  5
167B
  8
241
  6
CONTINUOUS
 10
32.499999999993094
 20
-0.8660254037844373
 30
0.0
  0
VERTEX
  5
167C
  8
241
  6
CONTINUOUS
 10
33.999999999993094
 20
-1.7320508075688781
 30
0.0
  0
VERTEX
  5
167D
  8
241
  6
CONTINUOUS
 10
35.499999999993101
 20
-0.8660254037844408
 30
0.0
  0
VERTEX
  5
167E
  8
241
  6
CONTINUOUS
 10
35.499999999993101
 20
0.8660254037844373
 30
0.0
  0
VERTEX
  5
167F
  8
241
  6
CONTINUOUS
 10
33.999999999993094
 20
1.7320508075688781
 30
0.0
  0
VERTEX
  5
1680
  8
241
  6
CONTINUOUS
 10
32.499999999993094
 20
0.8660254037844408
 30
0.0
  0
SEQEND
  5
1681
  8
241
  6
CONTINUOUS
  0
LINE
  5
E8C
  8
250
  6
CONTINUOUS
 10
0.0
 20
20.5
 30
0.0
 11
0.000000000000001
 21
36.0
 31
0.0
  0
LINE
  5
E8D
  8
250
  6
CONTINUOUS
 10
39.999999999999211
 20
7.0000000000010649
 30
0.0
 11
39.999999999999211
 21
36.0
 31
0.0
  0
LINE
  5
E8E
  8
250
  6
CONTINUOUS
 10
2.0
 20
35.0
 30
0.0
 11
37.999999999999211
 21
35.0
 31
0.0
  0
INSERT
  5
E8F
  8
250
  6
CONTINUOUS
  2
_OPEN
 10
0.0000000000000009
 20
35.0
 30
0.0
 41
2.0
 42
2.0
 43
2.0
 50
180.0
  0
INSERT
  5
E90
  8
250
  6
CONTINUOUS
  2
_OPEN
 10
39.999999999999211
 20
35.0
 30
0.0
 41
2.0
 42
2.0
 43
2.0
  0
INSERT
  5
E91
  8
245
  2
*U9
 10
0.0
 20
0.0
 30
0.0
  0
LINE
  5
E92
  8
250
  6
CONTINUOUS
 10
16.999999999999371
 20
4.9999999999996581
 30
0.0
 11
16.999999999999371
 21
29.0
 31
0.0
  0
LINE
  5
E93
  8
250
  6
CONTINUOUS
 10
39.999999999999211
 20
7.0000000000010649
 30
0.0
 11
39.999999999999211
 21
29.0
 31
0.0
  0
LINE
  5
E94
  8
250
  6
CONTINUOUS
 10
18.999999999999371
 20
28.0
 30
0.0
 11
37.999999999999211
 21
28.0
 31
0.0
  0
INSERT
  5
E95
  8
250
  6
CONTINUOUS
  2
_OPEN
 10
16.999999999999371
 20
28.0
 30
0.0
 41
2.0
 42
2.0
 43
2.0
 50
180.0
  0
INSERT
  5
E96
  8
250
  6
CONTINUOUS
  2
_OPEN
 10
39.999999999999211
 20
28.0
 30
0.0
 41
2.0
 42
2.0
 43
2.0
  0
INSERT
  5
E97
  8
245
  2
*U10
 10
0.0
 20
0.0
 30
0.0
  0
LINE
  5
E98
  8
250
  6
CONTINUOUS
 10
37.357650869456677
 20
-12.50000000000079
 30
0.0
 11
57.0
 21
-12.500000000000799
 31
0.0
  0
LINE
  5
E99
  8
250
  6
CONTINUOUS
 10
37.357650869456677
 20
12.50000000000079
 30
0.0
 11
57.0
 21
12.50000000000079
 31
0.0
  0
LINE
  5
E9A
  8
250
  6
CONTINUOUS
 10
56.0
 20
-10.500000000000799
 30
0.0
 11
56.0
 21
10.50000000000079
 31
0.0
  0
INSERT
  5
E9B
  8
250
  6
CONTINUOUS
  2
_OPEN
 10
56.0
 20
-12.500000000000799
 30
0.0
 41
2.0
 42
2.0
 43
2.0
 50
270.0
  0
INSERT
  5
E9C
  8
250
  6
CONTINUOUS
  2
_OPEN
 10
56.0
 20
12.50000000000079
 30
0.0
 41
2.0
 42
2.0
 43
2.0
 50
90.0
  0
INSERT
  5
E9D
  8
245
  2
*U11
 10
0.0
 20
0.0
 30
0.0
  0
LINE
  5
E9E
  8
250
  6
CONTINUOUS
 10
40.499999999999183
 20
-4.0000000000049623
 30
0.0
 11
50.0
 21
-4.000000000004964
 31
0.0
  0
LINE
  5
E9F
  8
250
  6
CONTINUOUS
 10
40.499999999999183
 20
4.0000000000049623
 30
0.0
 11
50.0
 21
4.0000000000049569
 31
0.0
  0
LINE
  5
EA0
  8
250
  6
CONTINUOUS
 10
49.0
 20
-2.000000000004964
 30
0.0
 11
49.0
 21
2.0000000000049591
 31
0.0
  0
INSERT
  5
EA1
  8
250
  6
CONTINUOUS
  2
_OPEN
 10
49.0
 20
-4.000000000004964
 30
0.0
 41
2.0
 42
2.0
 43
2.0
 50
270.0
  0
INSERT
  5
EA2
  8
250
  6
CONTINUOUS
  2
_OPEN
 10
49.0
 20
4.0000000000049569
 30
0.0
 41
2.0
 42
2.0
 43
2.0
 50
90.0
  0
INSERT
  5
EA3
  8
245
  2
*U12
 10
0.0
 20
0.0
 30
0.0
  0
LINE
  5
136F
  8
245
  6
CENTER2
 10
-48.999999999999872
 20
17.642024170851109
 30
0.0
 11
-48.999999999999879
 21
-17.642024170850959
 31
0.0
  0
LINE
  5
1370
  8
245
  6
CENTER2
 10
-66.642024170850931
 20
0.0000000000000729
 30
0.0
 11
-31.357975829148842
 21
0.0000000000000729
 31
0.0
  0
CIRCLE
  5
1371
  8
241
  6
CONTINUOUS
 10
-48.999999999999943
 20
0.0000000000000729
 30
0.0
 40
6.2999999999999821
  0
CIRCLE
  5
1372
  8
242
  6
CONTINUOUS
 10
-48.999999999999943
 20
0.0000000000000729
 30
0.0
 40
7.0
  0
ARC
  5
1373
  8
241
  6
CONTINUOUS
 10
-63.999999999999943
 20
0.0000000000000729
 30
0.0
 40
4.0
 50
303.68130686566451
 51
57.096903795047503
  0
ARC
  5
1374
  8
241
  6
CONTINUOUS
 10
-32.189999999999863
 20
0.0000000000000729
 30
0.0
 40
4.0
 50
129.75569266280161
 51
231.35348123898629
  0
CIRCLE
  5
1375
  8
241
  6
CONTINUOUS
 10
-48.999999999999943
 20
0.0000000000000729
 30
0.0
 40
9.0
  0
POLYLINE
  5
1376
  8
240
 66
     1
 10
0.0
 20
0.0
 30
0.0
 70
     8
  0
VERTEX
  5
1377
  8
240
 10
-42.450000000000003
 20
11.344900000000001
 30
0.0
 70
    32
  0
VERTEX
  5
1378
  8
240
 10
-42.323700000000002
 20
11.2714
 30
0.0
 70
    32
  0
VERTEX
  5
1379
  8
240
 10
-42.19789999999999
 20
11.196999999999999
 30
0.0
 70
    32
  0
VERTEX
  5
137A
  8
240
 10
-42.072600000000001
 20
11.1219
 30
0.0
 70
    32
  0
VERTEX
  5
137B
  8
240
 10
-41.947999999999993
 20
11.0459
 30
0.0
 70
    32
  0
VERTEX
  5
137C
  8
240
 10
-41.823900000000002
 20
10.969200000000001
 30
0.0
 70
    32
  0
VERTEX
  5
137D
  8
240
 10
-41.700400000000002
 20
10.8916
 30
0.0
 70
    32
  0
VERTEX
  5
137E
  8
240
 10
-41.57759999999999
 20
10.8133
 30
0.0
 70
    32
  0
VERTEX
  5
137F
  8
240
 10
-41.455299999999987
 20
10.734299999999999
 30
0.0
 70
    32
  0
VERTEX
  5
1380
  8
240
 10
-41.3337
 20
10.654500000000001
 30
0.0
 70
    32
  0
VERTEX
  5
1381
  8
240
 10
-41.212699999999991
 20
10.5739
 30
0.0
 70
    32
  0
VERTEX
  5
1382
  8
240
 10
-41.092399999999991
 20
10.492599999999999
 30
0.0
 70
    32
  0
VERTEX
  5
1383
  8
240
 10
-40.972700000000003
 20
10.410600000000001
 30
0.0
 70
    32
  0
VERTEX
  5
1384
  8
240
 10
-40.8536
 20
10.3278
 30
0.0
 70
    32
  0
VERTEX
  5
1385
  8
240
 10
-40.735300000000002
 20
10.244300000000001
 30
0.0
 70
    32
  0
VERTEX
  5
1386
  8
240
 10
-40.617600000000003
 20
10.1602
 30
0.0
 70
    32
  0
VERTEX
  5
1387
  8
240
 10
-40.500700000000002
 20
10.0753
 30
0.0
 70
    32
  0
VERTEX
  5
1388
  8
240
 10
-40.384399999999999
 20
9.9897300000000016
 30
0.0
 70
    32
  0
VERTEX
  5
1389
  8
240
 10
-40.268900000000002
 20
9.9034900000000015
 30
0.0
 70
    32
  0
VERTEX
  5
138A
  8
240
 10
-40.1541
 20
9.8165800000000019
 30
0.0
 70
    32
  0
VERTEX
  5
138B
  8
240
 10
-40.040100000000002
 20
9.7289999999999992
 30
0.0
 70
    32
  0
VERTEX
  5
138C
  8
240
 10
-39.9268
 20
9.6407700000000016
 30
0.0
 70
    32
  0
VERTEX
  5
138D
  8
240
 10
-39.8142
 20
9.5518800000000024
 30
0.0
 70
    32
  0
VERTEX
  5
138E
  8
240
 10
-39.702399999999997
 20
9.4623600000000021
 30
0.0
 70
    32
  0
VERTEX
  5
138F
  8
240
 10
-39.5914
 20
9.3722100000000026
 30
0.0
 70
    32
  0
VERTEX
  5
1390
  8
240
 10
-39.481200000000001
 20
9.2814400000000017
 30
0.0
 70
    32
  0
VERTEX
  5
1391
  8
240
 10
-39.3718
 20
9.1900500000000012
 30
0.0
 70
    32
  0
VERTEX
  5
1392
  8
240
 10
-39.263199999999998
 20
9.098060000000002
 30
0.0
 70
    32
  0
VERTEX
  5
1393
  8
240
 10
-39.155500000000011
 20
9.0054600000000011
 30
0.0
 70
    32
  0
VERTEX
  5
1394
  8
240
 10
-39.048499999999997
 20
8.9122800000000026
 30
0.0
 70
    32
  0
VERTEX
  5
1395
  8
240
 10
-38.942399999999999
 20
8.8185200000000012
 30
0.0
 70
    32
  0
VERTEX
  5
1396
  8
240
 10
-38.837200000000003
 20
8.7241800000000023
 30
0.0
 70
    32
  0
VERTEX
  5
1397
  8
240
 10
-38.732799999999997
 20
8.6292800000000014
 30
0.0
 70
    32
  0
VERTEX
  5
1398
  8
240
 10
-38.629300000000001
 20
8.5338300000000018
 30
0.0
 70
    32
  0
VERTEX
  5
1399
  8
240
 10
-38.526699999999998
 20
8.4378200000000021
 30
0.0
 70
    32
  0
VERTEX
  5
139A
  8
240
 10
-38.424999999999997
 20
8.3412800000000011
 30
0.0
 70
    32
  0
VERTEX
  5
139B
  8
240
 10
-38.324199999999998
 20
8.2442100000000025
 30
0.0
 70
    32
  0
VERTEX
  5
139C
  8
240
 10
-38.224299999999999
 20
8.1466100000000026
 30
0.0
 70
    32
  0
VERTEX
  5
139D
  8
240
 10
-38.125300000000003
 20
8.0485000000000024
 30
0.0
 70
    32
  0
VERTEX
  5
139E
  8
240
 10
-38.027299999999997
 20
7.9498800000000021
 30
0.0
 70
    32
  0
VERTEX
  5
139F
  8
240
 10
-37.930199999999999
 20
7.8507600000000011
 30
0.0
 70
    32
  0
VERTEX
  5
13A0
  8
240
 10
-37.834099999999999
 20
7.7511600000000023
 30
0.0
 70
    32
  0
VERTEX
  5
13A1
  8
240
 10
-37.738900000000001
 20
7.6510700000000007
 30
0.0
 70
    32
  0
VERTEX
  5
13A2
  8
240
 10
-37.6447
 20
7.5505100000000018
 30
0.0
 70
    32
  0
VERTEX
  5
13A3
  8
240
 10
-37.551499999999997
 20
7.4494800000000021
 30
0.0
 70
    32
  0
VERTEX
  5
13A4
  8
240
 10
-37.459299999999999
 20
7.3480000000000008
 30
0.0
 70
    32
  0
VERTEX
  5
13A5
  8
240
 10
-37.368099999999998
 20
7.2460700000000013
 30
0.0
 70
    32
  0
VERTEX
  5
13A6
  8
240
 10
-37.277999999999999
 20
7.1437000000000008
 30
0.0
 70
    32
  0
VERTEX
  5
13A7
  8
240
 10
-37.188800000000001
 20
7.0408900000000001
 30
0.0
 70
    32
  0
VERTEX
  5
13A8
  8
240
 10
-37.100700000000003
 20
6.9376700000000007
 30
0.0
 70
    32
  0
VERTEX
  5
13A9
  8
240
 10
-37.0137
 20
6.834030000000002
 30
0.0
 70
    32
  0
VERTEX
  5
13AA
  8
240
 10
-36.927700000000002
 20
6.7299800000000021
 30
0.0
 70
    32
  0
VERTEX
  5
13AB
  8
240
 10
-36.842799999999997
 20
6.6255300000000021
 30
0.0
 70
    32
  0
VERTEX
  5
13AC
  8
240
 10
-36.758899999999997
 20
6.5207000000000006
 30
0.0
 70
    32
  0
VERTEX
  5
13AD
  8
240
 10
-36.676200000000001
 20
6.4154800000000023
 30
0.0
 70
    32
  0
VERTEX
  5
13AE
  8
240
 10
-36.594499999999996
 20
6.3098900000000011
 30
0.0
 70
    32
  0
VERTEX
  5
13AF
  8
240
 10
-36.51400000000001
 20
6.2039300000000024
 30
0.0
 70
    32
  0
VERTEX
  5
13B0
  8
240
 10
-36.43460000000001
 20
6.0976100000000013
 30
0.0
 70
    32
  0
VERTEX
  5
13B1
  8
240
 10
-36.356299999999997
 20
5.9909500000000007
 30
0.0
 70
    32
  0
VERTEX
  5
13B2
  8
240
 10
-36.279200000000003
 20
5.8839500000000013
 30
0.0
 70
    32
  0
VERTEX
  5
13B3
  8
240
 10
-36.203200000000002
 20
5.7766100000000007
 30
0.0
 70
    32
  0
VERTEX
  5
13B4
  8
240
 10
-36.128399999999999
 20
5.6689500000000006
 30
0.0
 70
    32
  0
VERTEX
  5
13B5
  8
240
 10
-36.0548
 20
5.5609800000000016
 30
0.0
 70
    32
  0
VERTEX
  5
13B6
  8
240
 10
-35.982300000000002
 20
5.452700000000001
 30
0.0
 70
    32
  0
VERTEX
  5
13B7
  8
240
 10
-35.911099999999998
 20
5.3441200000000011
 30
0.0
 70
    32
  0
VERTEX
  5
13B8
  8
240
 10
-35.841000000000001
 20
5.2352500000000006
 30
0.0
 70
    32
  0
VERTEX
  5
13B9
  8
240
 10
-35.772199999999998
 20
5.1260900000000023
 30
0.0
 70
    32
  0
VERTEX
  5
13BA
  8
240
 10
-35.704599999999999
 20
5.0166600000000008
 30
0.0
 70
    32
  0
VERTEX
  5
13BB
  8
240
 10
-35.638199999999998
 20
4.9069700000000012
 30
0.0
 70
    32
  0
VERTEX
  5
13BC
  8
240
 10
-35.573099999999997
 20
4.7970200000000007
 30
0.0
 70
    32
  0
VERTEX
  5
13BD
  8
240
 10
-35.5092
 20
4.6868200000000009
 30
0.0
 70
    32
  0
VERTEX
  5
13BE
  8
240
 10
-35.446599999999997
 20
4.5763800000000021
 30
0.0
 70
    32
  0
VERTEX
  5
13BF
  8
240
 10
-35.385300000000001
 20
4.4657100000000014
 30
0.0
 70
    32
  0
VERTEX
  5
13C0
  8
240
 10
-35.325299999999999
 20
4.3548100000000014
 30
0.0
 70
    32
  0
VERTEX
  5
13C1
  8
240
 10
-35.266500000000001
 20
4.2437000000000014
 30
0.0
 70
    32
  0
VERTEX
  5
13C2
  8
240
 10
-35.209099999999999
 20
4.1323800000000022
 30
0.0
 70
    32
  0
VERTEX
  5
13C3
  8
240
 10
-35.152999999999999
 20
4.0208600000000008
 30
0.0
 70
    32
  0
VERTEX
  5
13C4
  8
240
 10
-35.098199999999999
 20
3.9091500000000008
 30
0.0
 70
    32
  0
VERTEX
  5
13C5
  8
240
 10
-35.044800000000002
 20
3.7972500000000009
 30
0.0
 70
    32
  0
VERTEX
  5
13C6
  8
240
 10
-34.992699999999999
 20
3.6851800000000021
 30
0.0
 70
    32
  0
VERTEX
  5
13C7
  8
240
 10
-34.942
 20
3.572950000000001
 30
0.0
 70
    32
  0
VERTEX
  5
13C8
  8
240
 10
-34.892600000000002
 20
3.460560000000001
 30
0.0
 70
    32
  0
VERTEX
  5
13C9
  8
240
 10
-34.844700000000003
 20
3.3480200000000009
 30
0.0
 70
    32
  0
VERTEX
  5
13CA
  8
240
 10
-34.798099999999998
 20
3.2353400000000021
 30
0.0
 70
    32
  0
VERTEX
  5
13CB
  8
240
 10
-34.752899999999997
 20
3.1225200000000011
 30
0.0
 70
    32
  0
VERTEX
  5
13CC
  8
240
 10
-34.709099999999999
 20
3.009580000000001
 30
0.0
 70
    32
  0
VERTEX
  5
13CD
  8
240
 10
-34.666800000000002
 20
2.896520000000002
 30
0.0
 70
    32
  0
VERTEX
  5
13CE
  8
240
 10
-34.625900000000001
 20
2.7833600000000009
 30
0.0
 70
    32
  0
VERTEX
  5
13CF
  8
240
 10
-34.586399999999998
 20
2.670100000000001
 30
0.0
 70
    32
  0
VERTEX
  5
13D0
  8
240
 10
-34.548400000000001
 20
2.5567400000000009
 30
0.0
 70
    32
  0
VERTEX
  5
13D1
  8
240
 10
-34.511899999999997
 20
2.4433000000000011
 30
0.0
 70
    32
  0
VERTEX
  5
13D2
  8
240
 10
-34.476799999999997
 20
2.3297900000000009
 30
0.0
 70
    32
  0
VERTEX
  5
13D3
  8
240
 10
-34.443199999999997
 20
2.2162100000000011
 30
0.0
 70
    32
  0
VERTEX
  5
13D4
  8
240
 10
-34.411099999999998
 20
2.1025700000000009
 30
0.0
 70
    32
  0
VERTEX
  5
13D5
  8
240
 10
-34.380499999999998
 20
1.9888800000000011
 30
0.0
 70
    32
  0
VERTEX
  5
13D6
  8
240
 10
-34.351500000000001
 20
1.875150000000001
 30
0.0
 70
    32
  0
VERTEX
  5
13D7
  8
240
 10
-34.323900000000002
 20
1.761390000000002
 30
0.0
 70
    32
  0
VERTEX
  5
13D8
  8
240
 10
-34.297899999999998
 20
1.6476000000000011
 30
0.0
 70
    32
  0
VERTEX
  5
13D9
  8
240
 10
-34.273499999999999
 20
1.5338000000000009
 30
0.0
 70
    32
  0
VERTEX
  5
13DA
  8
240
 10
-34.250599999999999
 20
1.4199800000000009
 30
0.0
 70
    32
  0
VERTEX
  5
13DB
  8
240
 10
-34.229199999999999
 20
1.3061700000000009
 30
0.0
 70
    32
  0
VERTEX
  5
13DC
  8
240
 10
-34.209499999999998
 20
1.192370000000001
 30
0.0
 70
    32
  0
VERTEX
  5
13DD
  8
240
 10
-34.191299999999998
 20
1.078580000000001
 30
0.0
 70
    32
  0
VERTEX
  5
13DE
  8
240
 10
-34.174799999999998
 20
0.9648150000000018
 30
0.0
 70
    32
  0
VERTEX
  5
13DF
  8
240
 10
-34.159799999999997
 20
0.8510850000000019
 30
0.0
 70
    32
  0
VERTEX
  5
13E0
  8
240
 10
-34.146500000000003
 20
0.7373960000000018
 30
0.0
 70
    32
  0
VERTEX
  5
13E1
  8
240
 10
-34.134799999999998
 20
0.6237570000000018
 30
0.0
 70
    32
  0
VERTEX
  5
13E2
  8
240
 10
-34.124699999999997
 20
0.5101760000000019
 30
0.0
 70
    32
  0
VERTEX
  5
13E3
  8
240
 10
-34.11630000000001
 20
0.3966610000000017
 30
0.0
 70
    32
  0
VERTEX
  5
13E4
  8
240
 10
-34.109499999999997
 20
0.2832200000000018
 30
0.0
 70
    32
  0
VERTEX
  5
13E5
  8
240
 10
-34.104500000000002
 20
0.1698630000000018
 30
0.0
 70
    32
  0
VERTEX
  5
13E6
  8
240
 10
-34.101100000000002
 20
0.0565964000000018
 30
0.0
 70
    32
  0
VERTEX
  5
13E7
  8
240
 10
-34.09940000000001
 20
-0.0565705999999982
 30
0.0
 70
    32
  0
VERTEX
  5
13E8
  8
240
 10
-34.099299999999999
 20
-0.1696329999999982
 30
0.0
 70
    32
  0
VERTEX
  5
13E9
  8
240
 10
-34.100999999999999
 20
-0.2825869999999982
 30
0.0
 70
    32
  0
VERTEX
  5
13EA
  8
240
 10
-34.104399999999998
 20
-0.3954309999999982
 30
0.0
 70
    32
  0
VERTEX
  5
13EB
  8
240
 10
-34.109400000000001
 20
-0.5081609999999982
 30
0.0
 70
    32
  0
VERTEX
  5
13EC
  8
240
 10
-34.116
 20
-0.6207759999999983
 30
0.0
 70
    32
  0
VERTEX
  5
13ED
  8
240
 10
-34.124400000000001
 20
-0.7332719999999983
 30
0.0
 70
    32
  0
VERTEX
  5
13EE
  8
240
 10
-34.134300000000003
 20
-0.8456469999999982
 30
0.0
 70
    32
  0
VERTEX
  5
13EF
  8
240
 10
-34.145899999999997
 20
-0.9578979999999981
 30
0.0
 70
    32
  0
VERTEX
  5
13F0
  8
240
 10
-34.159100000000002
 20
-1.070019999999998
 30
0.0
 70
    32
  0
VERTEX
  5
13F1
  8
240
 10
-34.173999999999999
 20
-1.1820199999999981
 30
0.0
 70
    32
  0
VERTEX
  5
13F2
  8
240
 10
-34.190399999999997
 20
-1.2938799999999979
 30
0.0
 70
    32
  0
VERTEX
  5
13F3
  8
240
 10
-34.208399999999997
 20
-1.405609999999998
 30
0.0
 70
    32
  0
VERTEX
  5
13F4
  8
240
 10
-34.228099999999998
 20
-1.5171999999999981
 30
0.0
 70
    32
  0
VERTEX
  5
13F5
  8
240
 10
-34.249299999999998
 20
-1.6286399999999981
 30
0.0
 70
    32
  0
VERTEX
  5
13F6
  8
240
 10
-34.271999999999998
 20
-1.7399499999999981
 30
0.0
 70
    32
  0
VERTEX
  5
13F7
  8
240
 10
-34.296399999999998
 20
-1.851109999999998
 30
0.0
 70
    32
  0
VERTEX
  5
13F8
  8
240
 10
-34.322299999999998
 20
-1.9621199999999981
 30
0.0
 70
    32
  0
VERTEX
  5
13F9
  8
240
 10
-34.349699999999999
 20
-2.072979999999998
 30
0.0
 70
    32
  0
VERTEX
  5
13FA
  8
240
 10
-34.378700000000002
 20
-2.1836899999999981
 30
0.0
 70
    32
  0
VERTEX
  5
13FB
  8
240
 10
-34.409199999999998
 20
-2.2942399999999981
 30
0.0
 70
    32
  0
VERTEX
  5
13FC
  8
240
 10
-34.441200000000002
 20
-2.4046299999999978
 30
0.0
 70
    32
  0
VERTEX
  5
13FD
  8
240
 10
-34.474699999999999
 20
-2.514859999999997
 30
0.0
 70
    32
  0
VERTEX
  5
13FE
  8
240
 10
-34.509799999999998
 20
-2.6249199999999981
 30
0.0
 70
    32
  0
VERTEX
  5
13FF
  8
240
 10
-34.546300000000002
 20
-2.7348199999999978
 30
0.0
 70
    32
  0
VERTEX
  5
1400
  8
240
 10
-34.584299999999999
 20
-2.8445399999999981
 30
0.0
 70
    32
  0
VERTEX
  5
1401
  8
240
 10
-34.623800000000003
 20
-2.9540899999999981
 30
0.0
 70
    32
  0
VERTEX
  5
1402
  8
240
 10
-34.664700000000011
 20
-3.0634699999999979
 30
0.0
 70
    32
  0
VERTEX
  5
1403
  8
240
 10
-34.707099999999997
 20
-3.1726699999999979
 30
0.0
 70
    32
  0
VERTEX
  5
1404
  8
240
 10
-34.750999999999998
 20
-3.2816799999999979
 30
0.0
 70
    32
  0
VERTEX
  5
1405
  8
240
 10
-34.796300000000002
 20
-3.3905199999999969
 30
0.0
 70
    32
  0
VERTEX
  5
1406
  8
240
 10
-34.843000000000011
 20
-3.499159999999998
 30
0.0
 70
    32
  0
VERTEX
  5
1407
  8
240
 10
-34.891199999999998
 20
-3.6076199999999981
 30
0.0
 70
    32
  0
VERTEX
  5
1408
  8
240
 10
-34.9407
 20
-3.7158799999999981
 30
0.0
 70
    32
  0
VERTEX
  5
1409
  8
240
 10
-34.991700000000002
 20
-3.8239499999999982
 30
0.0
 70
    32
  0
VERTEX
  5
140A
  8
240
 10
-35.0441
 20
-3.9318299999999979
 30
0.0
 70
    32
  0
VERTEX
  5
140B
  8
240
 10
-35.097799999999999
 20
-4.0394999999999976
 30
0.0
 70
    32
  0
VERTEX
  5
140C
  8
240
 10
-35.152999999999999
 20
-4.1469699999999969
 30
0.0
 70
    32
  0
VERTEX
  5
140D
  8
240
 10
-35.209499999999998
 20
-4.254229999999998
 30
0.0
 70
    32
  0
VERTEX
  5
140E
  8
240
 10
-35.267400000000002
 20
-4.361279999999998
 30
0.0
 70
    32
  0
VERTEX
  5
140F
  8
240
 10
-35.326599999999999
 20
-4.4681299999999977
 30
0.0
 70
    32
  0
VERTEX
  5
1410
  8
240
 10
-35.387099999999997
 20
-4.5747599999999968
 30
0.0
 70
    32
  0
VERTEX
  5
1411
  8
240
 10
-35.449100000000001
 20
-4.6811699999999981
 30
0.0
 70
    32
  0
VERTEX
  5
1412
  8
240
 10
-35.512300000000003
 20
-4.787359999999997
 30
0.0
 70
    32
  0
VERTEX
  5
1413
  8
240
 10
-35.576799999999999
 20
-4.893329999999998
 30
0.0
 70
    32
  0
VERTEX
  5
1414
  8
240
 10
-35.642699999999998
 20
-4.9990799999999984
 30
0.0
 70
    32
  0
VERTEX
  5
1415
  8
240
 10
-35.709899999999998
 20
-5.1045999999999969
 30
0.0
 70
    32
  0
VERTEX
  5
1416
  8
240
 10
-35.778300000000002
 20
-5.2098899999999979
 30
0.0
 70
    32
  0
VERTEX
  5
1417
  8
240
 10
-35.848100000000002
 20
-5.314949999999997
 30
0.0
 70
    32
  0
VERTEX
  5
1418
  8
240
 10
-35.9191
 20
-5.4197699999999971
 30
0.0
 70
    32
  0
VERTEX
  5
1419
  8
240
 10
-35.991399999999999
 20
-5.5243499999999983
 30
0.0
 70
    32
  0
VERTEX
  5
141A
  8
240
 10
-36.064900000000002
 20
-5.6286899999999971
 30
0.0
 70
    32
  0
VERTEX
  5
141B
  8
240
 10
-36.139699999999998
 20
-5.7327899999999978
 30
0.0
 70
    32
  0
VERTEX
  5
141C
  8
240
 10
-36.215699999999998
 20
-5.8366399999999983
 30
0.0
 70
    32
  0
VERTEX
  5
141D
  8
240
 10
-36.292999999999999
 20
-5.9402399999999984
 30
0.0
 70
    32
  0
VERTEX
  5
141E
  8
240
 10
-36.371499999999997
 20
-6.0435899999999982
 30
0.0
 70
    32
  0
VERTEX
  5
141F
  8
240
 10
-36.4512
 20
-6.1466799999999981
 30
0.0
 70
    32
  0
VERTEX
  5
1420
  8
240
 10
-36.5321
 20
-6.2495199999999969
 30
0.0
 70
    32
  0
VERTEX
  5
1421
  8
240
 10
-36.614199999999997
 20
-6.3520899999999978
 30
0.0
 70
    32
  0
VERTEX
  5
1422
  8
240
 10
-36.697499999999998
 20
-6.4544099999999984
 30
0.0
 70
    32
  0
VERTEX
  5
1423
  8
240
 10
-36.7819
 20
-6.5564599999999977
 30
0.0
 70
    32
  0
VERTEX
  5
1424
  8
240
 10
-36.867600000000003
 20
-6.6582399999999966
 30
0.0
 70
    32
  0
VERTEX
  5
1425
  8
240
 10
-36.9544
 20
-6.7597499999999977
 30
0.0
 70
    32
  0
VERTEX
  5
1426
  8
240
 10
-37.042299999999997
 20
-6.8609799999999979
 30
0.0
 70
    32
  0
VERTEX
  5
1427
  8
240
 10
-37.131399999999999
 20
-6.9619399999999967
 30
0.0
 70
    32
  0
VERTEX
  5
1428
  8
240
 10
-37.221699999999998
 20
-7.0626199999999981
 30
0.0
 70
    32
  0
VERTEX
  5
1429
  8
240
 10
-37.313000000000002
 20
-7.1630199999999968
 30
0.0
 70
    32
  0
VERTEX
  5
142A
  8
240
 10
-37.405500000000011
 20
-7.2631299999999976
 30
0.0
 70
    32
  0
VERTEX
  5
142B
  8
240
 10
-37.499099999999999
 20
-7.362949999999997
 30
0.0
 70
    32
  0
VERTEX
  5
142C
  8
240
 10
-37.593800000000002
 20
-7.4624899999999981
 30
0.0
 70
    32
  0
VERTEX
  5
142D
  8
240
 10
-37.689599999999999
 20
-7.5617299999999981
 30
0.0
 70
    32
  0
VERTEX
  5
142E
  8
240
 10
-37.786499999999997
 20
-7.6606799999999984
 30
0.0
 70
    32
  0
VERTEX
  5
142F
  8
240
 10
-37.884399999999999
 20
-7.7593299999999976
 30
0.0
 70
    32
  0
VERTEX
  5
1430
  8
240
 10
-37.983400000000003
 20
-7.857669999999997
 30
0.0
 70
    32
  0
VERTEX
  5
1431
  8
240
 10
-38.083500000000001
 20
-7.9557199999999968
 30
0.0
 70
    32
  0
VERTEX
  5
1432
  8
240
 10
-38.184600000000003
 20
-8.0534499999999962
 30
0.0
 70
    32
  0
VERTEX
  5
1433
  8
240
 10
-38.286799999999999
 20
-8.150879999999999
 30
0.0
 70
    32
  0
VERTEX
  5
1434
  8
240
 10
-38.389899999999997
 20
-8.2479999999999976
 30
0.0
 70
    32
  0
VERTEX
  5
1435
  8
240
 10
-38.494199999999999
 20
-8.3447999999999976
 30
0.0
 70
    32
  0
VERTEX
  5
1436
  8
240
 10
-38.599400000000003
 20
-8.441279999999999
 30
0.0
 70
    32
  0
VERTEX
  5
1437
  8
240
 10
-38.705599999999997
 20
-8.5374499999999962
 30
0.0
 70
    32
  0
VERTEX
  5
1438
  8
240
 10
-38.812800000000003
 20
-8.633289999999997
 30
0.0
 70
    32
  0
VERTEX
  5
1439
  8
240
 10
-38.921100000000003
 20
-8.7288099999999993
 30
0.0
 70
    32
  0
VERTEX
  5
143A
  8
240
 10
-39.030299999999997
 20
-8.8239899999999984
 30
0.0
 70
    32
  0
VERTEX
  5
143B
  8
240
 10
-39.1404
 20
-8.9188499999999991
 30
0.0
 70
    32
  0
VERTEX
  5
143C
  8
240
 10
-39.251600000000003
 20
-9.0133699999999983
 30
0.0
 70
    32
  0
VERTEX
  5
143D
  8
240
 10
-39.363599999999998
 20
-9.1075599999999994
 30
0.0
 70
    32
  0
VERTEX
  5
143E
  8
240
 10
-39.476700000000001
 20
-9.2014099999999992
 30
0.0
 70
    32
  0
VERTEX
  5
143F
  8
240
 10
-39.590600000000002
 20
-9.294909999999998
 30
0.0
 70
    32
  0
VERTEX
  5
1440
  8
240
 10
-39.705500000000001
 20
-9.3880699999999973
 30
0.0
 70
    32
  0
VERTEX
  5
1441
  8
240
 10
-39.821300000000001
 20
-9.4808899999999952
 30
0.0
 70
    32
  0
VERTEX
  5
1442
  8
240
 10
-39.938000000000002
 20
-9.5733499999999978
 30
0.0
 70
    32
  0
VERTEX
  5
1443
  8
240
 10
-40.055700000000002
 20
-9.6654599999999995
 30
0.0
 70
    32
  0
VERTEX
  5
1444
  8
240
 10
-40.174199999999999
 20
-9.7572199999999984
 30
0.0
 70
    32
  0
VERTEX
  5
1445
  8
240
 10
-40.293599999999991
 20
-9.8486199999999986
 30
0.0
 70
    32
  0
VERTEX
  5
1446
  8
240
 10
-40.413800000000002
 20
-9.9396499999999985
 30
0.0
 70
    32
  0
VERTEX
  5
1447
  8
240
 10
-40.534999999999989
 20
-10.0303
 30
0.0
 70
    32
  0
VERTEX
  5
1448
  8
240
 10
-40.656999999999989
 20
-10.120599999999991
 30
0.0
 70
    32
  0
VERTEX
  5
1449
  8
240
 10
-40.779800000000002
 20
-10.210599999999999
 30
0.0
 70
    32
  0
VERTEX
  5
144A
  8
240
 10
-40.903499999999987
 20
-10.3001
 30
0.0
 70
    32
  0
VERTEX
  5
144B
  8
240
 10
-41.027999999999999
 20
-10.3893
 30
0.0
 70
    32
  0
VERTEX
  5
144C
  8
240
 10
-41.153300000000002
 20
-10.4781
 30
0.0
 70
    32
  0
VERTEX
  5
144D
  8
240
 10
-41.279499999999999
 20
-10.56659999999999
 30
0.0
 70
    32
  0
VERTEX
  5
144E
  8
240
 10
-41.406399999999998
 20
-10.6546
 30
0.0
 70
    32
  0
VERTEX
  5
144F
  8
240
 10
-41.534199999999991
 20
-10.7423
 30
0.0
 70
    32
  0
VERTEX
  5
1450
  8
240
 10
-41.662699999999987
 20
-10.82959999999999
 30
0.0
 70
    32
  0
VERTEX
  5
1451
  8
240
 10
-41.792000000000002
 20
-10.916499999999999
 30
0.0
 70
    32
  0
VERTEX
  5
1452
  8
240
 10
-41.9221
 20
-11.0029
 30
0.0
 70
    32
  0
VERTEX
  5
1453
  8
240
 10
-42.052999999999997
 20
-11.089
 30
0.0
 70
    32
  0
VERTEX
  5
1454
  8
240
 10
-42.184600000000003
 20
-11.174699999999991
 30
0.0
 70
    32
  0
VERTEX
  5
1455
  8
240
 10
-42.31689999999999
 20
-11.26
 30
0.0
 70
    32
  0
VERTEX
  5
1456
  8
240
 10
-42.450000000000003
 20
-11.344900000000001
 30
0.0
 70
    32
  0
SEQEND
  5
1457
  8
240
  0
POLYLINE
  5
1458
  8
240
 66
     1
 10
0.0
 20
0.0
 30
0.0
 70
     8
  0
VERTEX
  5
1459
  8
240
 10
-62.100000000000001
 20
-0.0000000016944782
 30
0.0
 70
    32
  0
VERTEX
  5
145A
  8
240
 10
-62.099499999999999
 20
0.1461890000000018
 30
0.0
 70
    32
  0
VERTEX
  5
145B
  8
240
 10
-62.097999999999999
 20
0.2923060000000018
 30
0.0
 70
    32
  0
VERTEX
  5
145C
  8
240
 10
-62.095500000000001
 20
0.4383370000000017
 30
0.0
 70
    32
  0
VERTEX
  5
145D
  8
240
 10
-62.092100000000002
 20
0.5842690000000017
 30
0.0
 70
    32
  0
VERTEX
  5
145E
  8
240
 10
-62.087600000000002
 20
0.7300890000000018
 30
0.0
 70
    32
  0
VERTEX
  5
145F
  8
240
 10
-62.0822
 20
0.8757840000000017
 30
0.0
 70
    32
  0
VERTEX
  5
1460
  8
240
 10
-62.075800000000001
 20
1.021340000000001
 30
0.0
 70
    32
  0
VERTEX
  5
1461
  8
240
 10
-62.0685
 20
1.1667500000000011
 30
0.0
 70
    32
  0
VERTEX
  5
1462
  8
240
 10
-62.060200000000002
 20
1.3119900000000011
 30
0.0
 70
    32
  0
VERTEX
  5
1463
  8
240
 10
-62.050899999999999
 20
1.4570500000000011
 30
0.0
 70
    32
  0
VERTEX
  5
1464
  8
240
 10
-62.040700000000001
 20
1.6019200000000009
 30
0.0
 70
    32
  0
VERTEX
  5
1465
  8
240
 10
-62.029499999999999
 20
1.746590000000001
 30
0.0
 70
    32
  0
VERTEX
  5
1466
  8
240
 10
-62.017299999999999
 20
1.8910400000000009
 30
0.0
 70
    32
  0
VERTEX
  5
1467
  8
240
 10
-62.004199999999997
 20
2.035270000000001
 30
0.0
 70
    32
  0
VERTEX
  5
1468
  8
240
 10
-61.990099999999998
 20
2.179250000000001
 30
0.0
 70
    32
  0
VERTEX
  5
1469
  8
240
 10
-61.975099999999998
 20
2.3229700000000011
 30
0.0
 70
    32
  0
VERTEX
  5
146A
  8
240
 10
-61.959099999999999
 20
2.4664200000000021
 30
0.0
 70
    32
  0
VERTEX
  5
146B
  8
240
 10
-61.9422
 20
2.6095900000000021
 30
0.0
 70
    32
  0
VERTEX
  5
146C
  8
240
 10
-61.924300000000002
 20
2.7524700000000011
 30
0.0
 70
    32
  0
VERTEX
  5
146D
  8
240
 10
-61.905500000000004
 20
2.8950400000000012
 30
0.0
 70
    32
  0
VERTEX
  5
146E
  8
240
 10
-61.885800000000003
 20
3.0372800000000009
 30
0.0
 70
    32
  0
VERTEX
  5
146F
  8
240
 10
-61.865099999999998
 20
3.1791900000000011
 30
0.0
 70
    32
  0
VERTEX
  5
1470
  8
240
 10
-61.843400000000003
 20
3.3207500000000012
 30
0.0
 70
    32
  0
VERTEX
  5
1471
  8
240
 10
-61.820900000000002
 20
3.4619500000000012
 30
0.0
 70
    32
  0
VERTEX
  5
1472
  8
240
 10
-61.7973
 20
3.602780000000001
 30
0.0
 70
    32
  0
VERTEX
  5
1473
  8
240
 10
-61.7729
 20
3.7432200000000009
 30
0.0
 70
    32
  0
VERTEX
  5
1474
  8
240
 10
-61.747500000000002
 20
3.8832600000000008
 30
0.0
 70
    32
  0
VERTEX
  5
1475
  8
240
 10
-61.721200000000003
 20
4.0228800000000016
 30
0.0
 70
    32
  0
VERTEX
  5
1476
  8
240
 10
-61.694000000000003
 20
4.1620800000000022
 30
0.0
 70
    32
  0
VERTEX
  5
1477
  8
240
 10
-61.66579999999999
 20
4.3008400000000009
 30
0.0
 70
    32
  0
VERTEX
  5
1478
  8
240
 10
-61.636800000000001
 20
4.4391500000000006
 30
0.0
 70
    32
  0
VERTEX
  5
1479
  8
240
 10
-61.6068
 20
4.5769800000000016
 30
0.0
 70
    32
  0
VERTEX
  5
147A
  8
240
 10
-61.575800000000001
 20
4.7143400000000009
 30
0.0
 70
    32
  0
VERTEX
  5
147B
  8
240
 10
-61.54399999999999
 20
4.8512100000000009
 30
0.0
 70
    32
  0
VERTEX
  5
147C
  8
240
 10
-61.511299999999999
 20
4.9875800000000021
 30
0.0
 70
    32
  0
VERTEX
  5
147D
  8
240
 10
-61.477600000000002
 20
5.1234200000000012
 30
0.0
 70
    32
  0
VERTEX
  5
147E
  8
240
 10
-61.442999999999998
 20
5.2587300000000008
 30
0.0
 70
    32
  0
VERTEX
  5
147F
  8
240
 10
-61.407499999999999
 20
5.3935000000000022
 30
0.0
 70
    32
  0
VERTEX
  5
1480
  8
240
 10
-61.371200000000002
 20
5.5277100000000008
 30
0.0
 70
    32
  0
VERTEX
  5
1481
  8
240
 10
-61.3339
 20
5.6613500000000014
 30
0.0
 70
    32
  0
VERTEX
  5
1482
  8
240
 10
-61.295699999999997
 20
5.7944000000000022
 30
0.0
 70
    32
  0
VERTEX
  5
1483
  8
240
 10
-61.256599999999992
 20
5.9268600000000013
 30
0.0
 70
    32
  0
VERTEX
  5
1484
  8
240
 10
-61.2166
 20
6.0587100000000014
 30
0.0
 70
    32
  0
VERTEX
  5
1485
  8
240
 10
-61.175699999999999
 20
6.1899300000000022
 30
0.0
 70
    32
  0
VERTEX
  5
1486
  8
240
 10
-61.13389999999999
 20
6.320520000000001
 30
0.0
 70
    32
  0
VERTEX
  5
1487
  8
240
 10
-61.091200000000001
 20
6.4504600000000014
 30
0.0
 70
    32
  0
VERTEX
  5
1488
  8
240
 10
-61.047600000000003
 20
6.5797300000000023
 30
0.0
 70
    32
  0
VERTEX
  5
1489
  8
240
 10
-61.003199999999993
 20
6.708330000000001
 30
0.0
 70
    32
  0
VERTEX
  5
148A
  8
240
 10
-60.957799999999999
 20
6.8362400000000001
 30
0.0
 70
    32
  0
VERTEX
  5
148B
  8
240
 10
-60.9116
 20
6.9634500000000008
 30
0.0
 70
    32
  0
VERTEX
  5
148C
  8
240
 10
-60.8645
 20
7.0899400000000012
 30
0.0
 70
    32
  0
VERTEX
  5
148D
  8
240
 10
-60.816499999999991
 20
7.2157000000000009
 30
0.0
 70
    32
  0
VERTEX
  5
148E
  8
240
 10
-60.767600000000002
 20
7.3407300000000024
 30
0.0
 70
    32
  0
VERTEX
  5
148F
  8
240
 10
-60.7179
 20
7.4649900000000011
 30
0.0
 70
    32
  0
VERTEX
  5
1490
  8
240
 10
-60.667200000000001
 20
7.5884900000000011
 30
0.0
 70
    32
  0
VERTEX
  5
1491
  8
240
 10
-60.6158
 20
7.7112100000000021
 30
0.0
 70
    32
  0
VERTEX
  5
1492
  8
240
 10
-60.563400000000001
 20
7.8331400000000011
 30
0.0
 70
    32
  0
VERTEX
  5
1493
  8
240
 10
-60.510100000000001
 20
7.9542600000000023
 30
0.0
 70
    32
  0
VERTEX
  5
1494
  8
240
 10
-60.456000000000003
 20
8.0745500000000021
 30
0.0
 70
    32
  0
VERTEX
  5
1495
  8
240
 10
-60.4011
 20
8.1940200000000019
 30
0.0
 70
    32
  0
VERTEX
  5
1496
  8
240
 10
-60.345199999999998
 20
8.3126400000000018
 30
0.0
 70
    32
  0
VERTEX
  5
1497
  8
240
 10
-60.288600000000002
 20
8.4304000000000023
 30
0.0
 70
    32
  0
VERTEX
  5
1498
  8
240
 10
-60.231000000000002
 20
8.5472800000000024
 30
0.0
 70
    32
  0
VERTEX
  5
1499
  8
240
 10
-60.172600000000003
 20
8.6632800000000021
 30
0.0
 70
    32
  0
VERTEX
  5
149A
  8
240
 10
-60.113300000000002
 20
8.7783900000000017
 30
0.0
 70
    32
  0
VERTEX
  5
149B
  8
240
 10
-60.053199999999997
 20
8.8925800000000024
 30
0.0
 70
    32
  0
VERTEX
  5
149C
  8
240
 10
-59.9923
 20
9.0058399999999992
 30
0.0
 70
    32
  0
VERTEX
  5
149D
  8
240
 10
-59.930500000000002
 20
9.1181699999999992
 30
0.0
 70
    32
  0
VERTEX
  5
149E
  8
240
 10
-59.867800000000003
 20
9.2295400000000019
 30
0.0
 70
    32
  0
VERTEX
  5
149F
  8
240
 10
-59.804299999999998
 20
9.3399500000000018
 30
0.0
 70
    32
  0
VERTEX
  5
14A0
  8
240
 10
-59.740000000000002
 20
9.4493900000000011
 30
0.0
 70
    32
  0
VERTEX
  5
14A1
  8
240
 10
-59.674799999999998
 20
9.5578300000000027
 30
0.0
 70
    32
  0
VERTEX
  5
14A2
  8
240
 10
-59.608699999999992
 20
9.6652700000000014
 30
0.0
 70
    32
  0
VERTEX
  5
14A3
  8
240
 10
-59.541899999999998
 20
9.7716900000000013
 30
0.0
 70
    32
  0
VERTEX
  5
14A4
  8
240
 10
-59.47420000000001
 20
9.8770800000000012
 30
0.0
 70
    32
  0
VERTEX
  5
14A5
  8
240
 10
-59.40570000000001
 20
9.9814300000000014
 30
0.0
 70
    32
  0
VERTEX
  5
14A6
  8
240
 10
-59.336300000000001
 20
10.0847
 30
0.0
 70
    32
  0
VERTEX
  5
14A7
  8
240
 10
-59.266100000000002
 20
10.1869
 30
0.0
 70
    32
  0
VERTEX
  5
14A8
  8
240
 10
-59.195099999999989
 20
10.2881
 30
0.0
 70
    32
  0
VERTEX
  5
14A9
  8
240
 10
-59.1233
 20
10.3881
 30
0.0
 70
    32
  0
VERTEX
  5
14AA
  8
240
 10
-59.050600000000003
 20
10.4871
 30
0.0
 70
    32
  0
VERTEX
  5
14AB
  8
240
 10
-58.9771
 20
10.584899999999999
 30
0.0
 70
    32
  0
VERTEX
  5
14AC
  8
240
 10
-58.902799999999999
 20
10.6816
 30
0.0
 70
    32
  0
VERTEX
  5
14AD
  8
240
 10
-58.8277
 20
10.777100000000001
 30
0.0
 70
    32
  0
VERTEX
  5
14AE
  8
240
 10
-58.751800000000003
 20
10.871499999999999
 30
0.0
 70
    32
  0
VERTEX
  5
14AF
  8
240
 10
-58.6751
 20
10.964700000000001
 30
0.0
 70
    32
  0
VERTEX
  5
14B0
  8
240
 10
-58.597499999999997
 20
11.056699999999999
 30
0.0
 70
    32
  0
VERTEX
  5
14B1
  8
240
 10
-58.519199999999991
 20
11.147500000000001
 30
0.0
 70
    32
  0
VERTEX
  5
14B2
  8
240
 10
-58.439999999999998
 20
11.2371
 30
0.0
 70
    32
  0
VERTEX
  5
14B3
  8
240
 10
-58.359999999999999
 20
11.3254
 30
0.0
 70
    32
  0
VERTEX
  5
14B4
  8
240
 10
-58.279299999999999
 20
11.412599999999999
 30
0.0
 70
    32
  0
VERTEX
  5
14B5
  8
240
 10
-58.197699999999998
 20
11.4984
 30
0.0
 70
    32
  0
VERTEX
  5
14B6
  8
240
 10
-58.115299999999998
 20
11.583
 30
0.0
 70
    32
  0
VERTEX
  5
14B7
  8
240
 10
-58.032099999999993
 20
11.666399999999999
 30
0.0
 70
    32
  0
VERTEX
  5
14B8
  8
240
 10
-57.9482
 20
11.7484
 30
0.0
 70
    32
  0
VERTEX
  5
14B9
  8
240
 10
-57.863399999999999
 20
11.8291
 30
0.0
 70
    32
  0
VERTEX
  5
14BA
  8
240
 10
-57.777900000000002
 20
11.9086
 30
0.0
 70
    32
  0
VERTEX
  5
14BB
  8
240
 10
-57.691600000000001
 20
11.986599999999999
 30
0.0
 70
    32
  0
VERTEX
  5
14BC
  8
240
 10
-57.604500000000002
 20
12.0634
 30
0.0
 70
    32
  0
VERTEX
  5
14BD
  8
240
 10
-57.516599999999997
 20
12.1388
 30
0.0
 70
    32
  0
VERTEX
  5
14BE
  8
240
 10
-57.427900000000001
 20
12.2128
 30
0.0
 70
    32
  0
VERTEX
  5
14BF
  8
240
 10
-57.3384
 20
12.285399999999999
 30
0.0
 70
    32
  0
VERTEX
  5
14C0
  8
240
 10
-57.248199999999997
 20
12.3566
 30
0.0
 70
    32
  0
VERTEX
  5
14C1
  8
240
 10
-57.15720000000001
 20
12.426399999999999
 30
0.0
 70
    32
  0
VERTEX
  5
14C2
  8
240
 10
-57.065399999999997
 20
12.4948
 30
0.0
 70
    32
  0
VERTEX
  5
14C3
  8
240
 10
-56.972799999999999
 20
12.5618
 30
0.0
 70
    32
  0
VERTEX
  5
14C4
  8
240
 10
-56.8795
 20
12.6273
 30
0.0
 70
    32
  0
VERTEX
  5
14C5
  8
240
 10
-56.785400000000003
 20
12.6913
 30
0.0
 70
    32
  0
VERTEX
  5
14C6
  8
240
 10
-56.6905
 20
12.7539
 30
0.0
 70
    32
  0
VERTEX
  5
14C7
  8
240
 10
-56.594900000000003
 20
12.815
 30
0.0
 70
    32
  0
VERTEX
  5
14C8
  8
240
 10
-56.4985
 20
12.874599999999999
 30
0.0
 70
    32
  0
VERTEX
  5
14C9
  8
240
 10
-56.401299999999999
 20
12.932600000000001
 30
0.0
 70
    32
  0
VERTEX
  5
14CA
  8
240
 10
-56.303400000000003
 20
12.9892
 30
0.0
 70
    32
  0
VERTEX
  5
14CB
  8
240
 10
-56.204799999999999
 20
13.0442
 30
0.0
 70
    32
  0
VERTEX
  5
14CC
  8
240
 10
-56.105400000000003
 20
13.0977
 30
0.0
 70
    32
  0
VERTEX
  5
14CD
  8
240
 10
-56.005200000000002
 20
13.149699999999999
 30
0.0
 70
    32
  0
VERTEX
  5
14CE
  8
240
 10
-55.904400000000003
 20
13.2003
 30
0.0
 70
    32
  0
VERTEX
  5
14CF
  8
240
 10
-55.802799999999998
 20
13.2493
 30
0.0
 70
    32
  0
VERTEX
  5
14D0
  8
240
 10
-55.700499999999998
 20
13.296900000000001
 30
0.0
 70
    32
  0
VERTEX
  5
14D1
  8
240
 10
-55.597499999999997
 20
13.343
 30
0.0
 70
    32
  0
VERTEX
  5
14D2
  8
240
 10
-55.4938
 20
13.387600000000001
 30
0.0
 70
    32
  0
VERTEX
  5
14D3
  8
240
 10
-55.389400000000002
 20
13.4307
 30
0.0
 70
    32
  0
VERTEX
  5
14D4
  8
240
 10
-55.284300000000002
 20
13.4724
 30
0.0
 70
    32
  0
VERTEX
  5
14D5
  8
240
 10
-55.1785
 20
13.512700000000001
 30
0.0
 70
    32
  0
VERTEX
  5
14D6
  8
240
 10
-55.072000000000003
 20
13.551500000000001
 30
0.0
 70
    32
  0
VERTEX
  5
14D7
  8
240
 10
-54.9649
 20
13.588800000000001
 30
0.0
 70
    32
  0
VERTEX
  5
14D8
  8
240
 10
-54.857100000000003
 20
13.6248
 30
0.0
 70
    32
  0
VERTEX
  5
14D9
  8
240
 10
-54.748699999999999
 20
13.6593
 30
0.0
 70
    32
  0
VERTEX
  5
14DA
  8
240
 10
-54.639600000000002
 20
13.692399999999999
 30
0.0
 70
    32
  0
VERTEX
  5
14DB
  8
240
 10
-54.529899999999991
 20
13.724
 30
0.0
 70
    32
  0
VERTEX
  5
14DC
  8
240
 10
-54.419499999999999
 20
13.754300000000001
 30
0.0
 70
    32
  0
VERTEX
  5
14DD
  8
240
 10
-54.308500000000002
 20
13.783099999999999
 30
0.0
 70
    32
  0
VERTEX
  5
14DE
  8
240
 10
-54.196899999999999
 20
13.810600000000001
 30
0.0
 70
    32
  0
VERTEX
  5
14DF
  8
240
 10
-54.084699999999998
 20
13.8367
 30
0.0
 70
    32
  0
VERTEX
  5
14E0
  8
240
 10
-53.971899999999998
 20
13.8614
 30
0.0
 70
    32
  0
VERTEX
  5
14E1
  8
240
 10
-53.858400000000003
 20
13.8847
 30
0.0
 70
    32
  0
VERTEX
  5
14E2
  8
240
 10
-53.744399999999992
 20
13.906599999999999
 30
0.0
 70
    32
  0
VERTEX
  5
14E3
  8
240
 10
-53.629800000000003
 20
13.927199999999999
 30
0.0
 70
    32
  0
VERTEX
  5
14E4
  8
240
 10
-53.514600000000002
 20
13.9465
 30
0.0
 70
    32
  0
VERTEX
  5
14E5
  8
240
 10
-53.398800000000001
 20
13.9643
 30
0.0
 70
    32
  0
VERTEX
  5
14E6
  8
240
 10
-53.282499999999999
 20
13.9809
 30
0.0
 70
    32
  0
VERTEX
  5
14E7
  8
240
 10
-53.165599999999991
 20
13.996
 30
0.0
 70
    32
  0
VERTEX
  5
14E8
  8
240
 10
-53.048099999999991
 20
14.0099
 30
0.0
 70
    32
  0
VERTEX
  5
14E9
  8
240
 10
-52.930100000000003
 20
14.022399999999999
 30
0.0
 70
    32
  0
VERTEX
  5
14EA
  8
240
 10
-52.811599999999991
 20
14.0336
 30
0.0
 70
    32
  0
VERTEX
  5
14EB
  8
240
 10
-52.692500000000003
 20
14.0435
 30
0.0
 70
    32
  0
VERTEX
  5
14EC
  8
240
 10
-52.572899999999997
 20
14.052099999999999
 30
0.0
 70
    32
  0
VERTEX
  5
14ED
  8
240
 10
-52.452800000000011
 20
14.0594
 30
0.0
 70
    32
  0
VERTEX
  5
14EE
  8
240
 10
-52.33209999999999
 20
14.0654
 30
0.0
 70
    32
  0
VERTEX
  5
14EF
  8
240
 10
-52.210999999999991
 20
14.0701
 30
0.0
 70
    32
  0
VERTEX
  5
14F0
  8
240
 10
-52.089300000000001
 20
14.073499999999999
 30
0.0
 70
    32
  0
VERTEX
  5
14F1
  8
240
 10
-51.967199999999998
 20
14.0756
 30
0.0
 70
    32
  0
VERTEX
  5
14F2
  8
240
 10
-51.8446
 20
14.076499999999999
 30
0.0
 70
    32
  0
VERTEX
  5
14F3
  8
240
 10
-51.721499999999999
 20
14.076000000000001
 30
0.0
 70
    32
  0
VERTEX
  5
14F4
  8
240
 10
-51.597900000000003
 20
14.074400000000001
 30
0.0
 70
    32
  0
VERTEX
  5
14F5
  8
240
 10
-51.473799999999997
 20
14.0715
 30
0.0
 70
    32
  0
VERTEX
  5
14F6
  8
240
 10
-51.349299999999999
 20
14.067299999999999
 30
0.0
 70
    32
  0
VERTEX
  5
14F7
  8
240
 10
-51.224400000000003
 20
14.0619
 30
0.0
 70
    32
  0
VERTEX
  5
14F8
  8
240
 10
-51.0989
 20
14.055300000000001
 30
0.0
 70
    32
  0
VERTEX
  5
14F9
  8
240
 10
-50.973100000000002
 20
14.0474
 30
0.0
 70
    32
  0
VERTEX
  5
14FA
  8
240
 10
-50.846800000000002
 20
14.0383
 30
0.0
 70
    32
  0
VERTEX
  5
14FB
  8
240
 10
-50.720100000000002
 20
14.028
 30
0.0
 70
    32
  0
VERTEX
  5
14FC
  8
240
 10
-50.593000000000004
 20
14.016500000000001
 30
0.0
 70
    32
  0
VERTEX
  5
14FD
  8
240
 10
-50.465400000000002
 20
14.0037
 30
0.0
 70
    32
  0
VERTEX
  5
14FE
  8
240
 10
-50.337499999999999
 20
13.989800000000001
 30
0.0
 70
    32
  0
VERTEX
  5
14FF
  8
240
 10
-50.209099999999999
 20
13.9747
 30
0.0
 70
    32
  0
VERTEX
  5
1500
  8
240
 10
-50.080399999999997
 20
13.958399999999999
 30
0.0
 70
    32
  0
VERTEX
  5
1501
  8
240
 10
-49.9512
 20
13.940899999999999
 30
0.0
 70
    32
  0
VERTEX
  5
1502
  8
240
 10
-49.821699999999993
 20
13.9223
 30
0.0
 70
    32
  0
VERTEX
  5
1503
  8
240
 10
-49.691800000000001
 20
13.9025
 30
0.0
 70
    32
  0
VERTEX
  5
1504
  8
240
 10
-49.561599999999999
 20
13.881500000000001
 30
0.0
 70
    32
  0
VERTEX
  5
1505
  8
240
 10
-49.430999999999997
 20
13.859400000000001
 30
0.0
 70
    32
  0
VERTEX
  5
1506
  8
240
 10
-49.29999999999999
 20
13.8361
 30
0.0
 70
    32
  0
VERTEX
  5
1507
  8
240
 10
-49.168700000000001
 20
13.8117
 30
0.0
 70
    32
  0
VERTEX
  5
1508
  8
240
 10
-49.036999999999999
 20
13.786099999999999
 30
0.0
 70
    32
  0
VERTEX
  5
1509
  8
240
 10
-48.90509999999999
 20
13.759399999999999
 30
0.0
 70
    32
  0
VERTEX
  5
150A
  8
240
 10
-48.772799999999989
 20
13.7316
 30
0.0
 70
    32
  0
VERTEX
  5
150B
  8
240
 10
-48.640099999999997
 20
13.7027
 30
0.0
 70
    32
  0
VERTEX
  5
150C
  8
240
 10
-48.50719999999999
 20
13.672700000000001
 30
0.0
 70
    32
  0
VERTEX
  5
150D
  8
240
 10
-48.373899999999999
 20
13.641500000000001
 30
0.0
 70
    32
  0
VERTEX
  5
150E
  8
240
 10
-48.240400000000001
 20
13.609299999999999
 30
0.0
 70
    32
  0
VERTEX
  5
150F
  8
240
 10
-48.1066
 20
13.576000000000001
 30
0.0
 70
    32
  0
VERTEX
  5
1510
  8
240
 10
-47.9724
 20
13.541600000000001
 30
0.0
 70
    32
  0
VERTEX
  5
1511
  8
240
 10
-47.838000000000001
 20
13.5061
 30
0.0
 70
    32
  0
VERTEX
  5
1512
  8
240
 10
-47.703299999999999
 20
13.4695
 30
0.0
 70
    32
  0
VERTEX
  5
1513
  8
240
 10
-47.56839999999999
 20
13.431800000000001
 30
0.0
 70
    32
  0
VERTEX
  5
1514
  8
240
 10
-47.433199999999992
 20
13.3931
 30
0.0
 70
    32
  0
VERTEX
  5
1515
  8
240
 10
-47.297699999999999
 20
13.353400000000001
 30
0.0
 70
    32
  0
VERTEX
  5
1516
  8
240
 10
-47.161999999999992
 20
13.3126
 30
0.0
 70
    32
  0
VERTEX
  5
1517
  8
240
 10
-47.026099999999992
 20
13.2707
 30
0.0
 70
    32
  0
VERTEX
  5
1518
  8
240
 10
-46.88989999999999
 20
13.2278
 30
0.0
 70
    32
  0
VERTEX
  5
1519
  8
240
 10
-46.753500000000003
 20
13.1839
 30
0.0
 70
    32
  0
VERTEX
  5
151A
  8
240
 10
-46.616900000000001
 20
13.138999999999999
 30
0.0
 70
    32
  0
VERTEX
  5
151B
  8
240
 10
-46.4801
 20
13.093
 30
0.0
 70
    32
  0
VERTEX
  5
151C
  8
240
 10
-46.3431
 20
13.045999999999999
 30
0.0
 70
    32
  0
VERTEX
  5
151D
  8
240
 10
-46.205800000000004
 20
12.998100000000001
 30
0.0
 70
    32
  0
VERTEX
  5
151E
  8
240
 10
-46.068399999999997
 20
12.9491
 30
0.0
 70
    32
  0
VERTEX
  5
151F
  8
240
 10
-45.930799999999991
 20
12.899100000000001
 30
0.0
 70
    32
  0
VERTEX
  5
1520
  8
240
 10
-45.792999999999992
 20
12.8482
 30
0.0
 70
    32
  0
VERTEX
  5
1521
  8
240
 10
-45.65509999999999
 20
12.796200000000001
 30
0.0
 70
    32
  0
VERTEX
  5
1522
  8
240
 10
-45.516899999999993
 20
12.7433
 30
0.0
 70
    32
  0
VERTEX
  5
1523
  8
240
 10
-45.378700000000002
 20
12.689399999999999
 30
0.0
 70
    32
  0
VERTEX
  5
1524
  8
240
 10
-45.240200000000002
 20
12.634600000000001
 30
0.0
 70
    32
  0
VERTEX
  5
1525
  8
240
 10
-45.101599999999991
 20
12.578799999999999
 30
0.0
 70
    32
  0
VERTEX
  5
1526
  8
240
 10
-44.962899999999998
 20
12.522
 30
0.0
 70
    32
  0
VERTEX
  5
1527
  8
240
 10
-44.824100000000001
 20
12.4643
 30
0.0
 70
    32
  0
VERTEX
  5
1528
  8
240
 10
-44.685099999999998
 20
12.4057
 30
0.0
 70
    32
  0
VERTEX
  5
1529
  8
240
 10
-44.545999999999999
 20
12.3461
 30
0.0
 70
    32
  0
VERTEX
  5
152A
  8
240
 10
-44.40679999999999
 20
12.285600000000001
 30
0.0
 70
    32
  0
VERTEX
  5
152B
  8
240
 10
-44.267499999999998
 20
12.2242
 30
0.0
 70
    32
  0
VERTEX
  5
152C
  8
240
 10
-44.128100000000003
 20
12.161899999999999
 30
0.0
 70
    32
  0
VERTEX
  5
152D
  8
240
 10
-43.988599999999991
 20
12.098599999999999
 30
0.0
 70
    32
  0
VERTEX
  5
152E
  8
240
 10
-43.848999999999997
 20
12.0345
 30
0.0
 70
    32
  0
VERTEX
  5
152F
  8
240
 10
-43.709299999999999
 20
11.9695
 30
0.0
 70
    32
  0
VERTEX
  5
1530
  8
240
 10
-43.569599999999987
 20
11.903499999999999
 30
0.0
 70
    32
  0
VERTEX
  5
1531
  8
240
 10
-43.429799999999993
 20
11.8367
 30
0.0
 70
    32
  0
VERTEX
  5
1532
  8
240
 10
-43.289999999999992
 20
11.7691
 30
0.0
 70
    32
  0
VERTEX
  5
1533
  8
240
 10
-43.150100000000002
 20
11.7005
 30
0.0
 70
    32
  0
VERTEX
  5
1534
  8
240
 10
-43.010100000000001
 20
11.6311
 30
0.0
 70
    32
  0
VERTEX
  5
1535
  8
240
 10
-42.870100000000001
 20
11.5608
 30
0.0
 70
    32
  0
VERTEX
  5
1536
  8
240
 10
-42.7301
 20
11.489699999999999
 30
0.0
 70
    32
  0
VERTEX
  5
1537
  8
240
 10
-42.590099999999993
 20
11.4177
 30
0.0
 70
    32
  0
VERTEX
  5
1538
  8
240
 10
-42.450000000000003
 20
11.344900000000001
 30
0.0
 70
    32
  0
SEQEND
  5
1539
  8
240
  0
POLYLINE
  5
153A
  8
240
 66
     1
 10
0.0
 20
0.0
 30
0.0
 70
     8
  0
VERTEX
  5
153B
  8
240
 10
-42.450000000000003
 20
-11.344900000000001
 30
0.0
 70
    32
  0
VERTEX
  5
153C
  8
240
 10
-42.576900000000002
 20
-11.4176
 30
0.0
 70
    32
  0
VERTEX
  5
153D
  8
240
 10
-42.7042
 20
-11.4893
 30
0.0
 70
    32
  0
VERTEX
  5
153E
  8
240
 10
-42.831899999999997
 20
-11.5602
 30
0.0
 70
    32
  0
VERTEX
  5
153F
  8
240
 10
-42.960000000000001
 20
-11.6302
 30
0.0
 70
    32
  0
VERTEX
  5
1540
  8
240
 10
-43.088500000000003
 20
-11.69929999999999
 30
0.0
 70
    32
  0
VERTEX
  5
1541
  8
240
 10
-43.217300000000002
 20
-11.7674
 30
0.0
 70
    32
  0
VERTEX
  5
1542
  8
240
 10
-43.346600000000002
 20
-11.8347
 30
0.0
 70
    32
  0
VERTEX
  5
1543
  8
240
 10
-43.476199999999999
 20
-11.901
 30
0.0
 70
    32
  0
VERTEX
  5
1544
  8
240
 10
-43.606099999999998
 20
-11.966499999999989
 30
0.0
 70
    32
  0
VERTEX
  5
1545
  8
240
 10
-43.736400000000003
 20
-12.031000000000001
 30
0.0
 70
    32
  0
VERTEX
  5
1546
  8
240
 10
-43.866999999999997
 20
-12.0945
 30
0.0
 70
    32
  0
VERTEX
  5
1547
  8
240
 10
-43.997900000000001
 20
-12.1572
 30
0.0
 70
    32
  0
VERTEX
  5
1548
  8
240
 10
-44.128999999999991
 20
-12.2189
 30
0.0
 70
    32
  0
VERTEX
  5
1549
  8
240
 10
-44.2605
 20
-12.2796
 30
0.0
 70
    32
  0
VERTEX
  5
154A
  8
240
 10
-44.392200000000003
 20
-12.339399999999999
 30
0.0
 70
    32
  0
VERTEX
  5
154B
  8
240
 10
-44.5242
 20
-12.398300000000001
 30
0.0
 70
    32
  0
VERTEX
  5
154C
  8
240
 10
-44.656399999999991
 20
-12.456200000000001
 30
0.0
 70
    32
  0
VERTEX
  5
154D
  8
240
 10
-44.788899999999991
 20
-12.5131
 30
0.0
 70
    32
  0
VERTEX
  5
154E
  8
240
 10
-44.921500000000002
 20
-12.569000000000001
 30
0.0
 70
    32
  0
VERTEX
  5
154F
  8
240
 10
-45.054400000000001
 20
-12.624000000000001
 30
0.0
 70
    32
  0
VERTEX
  5
1550
  8
240
 10
-45.187499999999993
 20
-12.678000000000001
 30
0.0
 70
    32
  0
VERTEX
  5
1551
  8
240
 10
-45.320700000000002
 20
-12.7311
 30
0.0
 70
    32
  0
VERTEX
  5
1552
  8
240
 10
-45.45409999999999
 20
-12.783099999999999
 30
0.0
 70
    32
  0
VERTEX
  5
1553
  8
240
 10
-45.587699999999991
 20
-12.834199999999999
 30
0.0
 70
    32
  0
VERTEX
  5
1554
  8
240
 10
-45.721400000000003
 20
-12.8842
 30
0.0
 70
    32
  0
VERTEX
  5
1555
  8
240
 10
-45.8553
 20
-12.933299999999999
 30
0.0
 70
    32
  0
VERTEX
  5
1556
  8
240
 10
-45.98919999999999
 20
-12.981299999999999
 30
0.0
 70
    32
  0
VERTEX
  5
1557
  8
240
 10
-46.1233
 20
-13.0283
 30
0.0
 70
    32
  0
VERTEX
  5
1558
  8
240
 10
-46.2575
 20
-13.074400000000001
 30
0.0
 70
    32
  0
VERTEX
  5
1559
  8
240
 10
-46.3917
 20
-13.119400000000001
 30
0.0
 70
    32
  0
VERTEX
  5
155A
  8
240
 10
-46.526000000000003
 20
-13.1633
 30
0.0
 70
    32
  0
VERTEX
  5
155B
  8
240
 10
-46.660400000000003
 20
-13.206300000000001
 30
0.0
 70
    32
  0
VERTEX
  5
155C
  8
240
 10
-46.794800000000002
 20
-13.248200000000001
 30
0.0
 70
    32
  0
VERTEX
  5
155D
  8
240
 10
-46.929299999999991
 20
-13.289
 30
0.0
 70
    32
  0
VERTEX
  5
155E
  8
240
 10
-47.06369999999999
 20
-13.328900000000001
 30
0.0
 70
    32
  0
VERTEX
  5
155F
  8
240
 10
-47.1982
 20
-13.367599999999999
 30
0.0
 70
    32
  0
VERTEX
  5
1560
  8
240
 10
-47.332700000000003
 20
-13.4053
 30
0.0
 70
    32
  0
VERTEX
  5
1561
  8
240
 10
-47.467100000000002
 20
-13.442
 30
0.0
 70
    32
  0
VERTEX
  5
1562
  8
240
 10
-47.601599999999991
 20
-13.477600000000001
 30
0.0
 70
    32
  0
VERTEX
  5
1563
  8
240
 10
-47.735900000000001
 20
-13.5121
 30
0.0
 70
    32
  0
VERTEX
  5
1564
  8
240
 10
-47.8703
 20
-13.5456
 30
0.0
 70
    32
  0
VERTEX
  5
1565
  8
240
 10
-48.0045
 20
-13.5779
 30
0.0
 70
    32
  0
VERTEX
  5
1566
  8
240
 10
-48.1387
 20
-13.6092
 30
0.0
 70
    32
  0
VERTEX
  5
1567
  8
240
 10
-48.272799999999997
 20
-13.6394
 30
0.0
 70
    32
  0
VERTEX
  5
1568
  8
240
 10
-48.40679999999999
 20
-13.6685
 30
0.0
 70
    32
  0
VERTEX
  5
1569
  8
240
 10
-48.540700000000001
 20
-13.6965
 30
0.0
 70
    32
  0
VERTEX
  5
156A
  8
240
 10
-48.674399999999999
 20
-13.7234
 30
0.0
 70
    32
  0
VERTEX
  5
156B
  8
240
 10
-48.808
 20
-13.7492
 30
0.0
 70
    32
  0
VERTEX
  5
156C
  8
240
 10
-48.941400000000002
 20
-13.773899999999999
 30
0.0
 70
    32
  0
VERTEX
  5
156D
  8
240
 10
-49.074699999999993
 20
-13.797499999999999
 30
0.0
 70
    32
  0
VERTEX
  5
156E
  8
240
 10
-49.207799999999999
 20
-13.819900000000001
 30
0.0
 70
    32
  0
VERTEX
  5
156F
  8
240
 10
-49.340699999999998
 20
-13.841200000000001
 30
0.0
 70
    32
  0
VERTEX
  5
1570
  8
240
 10
-49.473399999999998
 20
-13.8614
 30
0.0
 70
    32
  0
VERTEX
  5
1571
  8
240
 10
-49.605899999999991
 20
-13.880499999999991
 30
0.0
 70
    32
  0
VERTEX
  5
1572
  8
240
 10
-49.738199999999992
 20
-13.898400000000001
 30
0.0
 70
    32
  0
VERTEX
  5
1573
  8
240
 10
-49.870199999999997
 20
-13.915100000000001
 30
0.0
 70
    32
  0
VERTEX
  5
1574
  8
240
 10
-50.002000000000002
 20
-13.9308
 30
0.0
 70
    32
  0
VERTEX
  5
1575
  8
240
 10
-50.133499999999991
 20
-13.9452
 30
0.0
 70
    32
  0
VERTEX
  5
1576
  8
240
 10
-50.264699999999991
 20
-13.958500000000001
 30
0.0
 70
    32
  0
VERTEX
  5
1577
  8
240
 10
-50.395699999999998
 20
-13.97059999999999
 30
0.0
 70
    32
  0
VERTEX
  5
1578
  8
240
 10
-50.526299999999999
 20
-13.9816
 30
0.0
 70
    32
  0
VERTEX
  5
1579
  8
240
 10
-50.656700000000001
 20
-13.991400000000001
 30
0.0
 70
    32
  0
VERTEX
  5
157A
  8
240
 10
-50.786700000000003
 20
-14.0
 30
0.0
 70
    32
  0
VERTEX
  5
157B
  8
240
 10
-50.9163
 20
-14.007400000000001
 30
0.0
 70
    32
  0
VERTEX
  5
157C
  8
240
 10
-51.0456
 20
-14.0136
 30
0.0
 70
    32
  0
VERTEX
  5
157D
  8
240
 10
-51.174599999999998
 20
-14.018700000000001
 30
0.0
 70
    32
  0
VERTEX
  5
157E
  8
240
 10
-51.303199999999997
 20
-14.022500000000001
 30
0.0
 70
    32
  0
VERTEX
  5
157F
  8
240
 10
-51.4313
 20
-14.0251
 30
0.0
 70
    32
  0
VERTEX
  5
1580
  8
240
 10
-51.559100000000001
 20
-14.0266
 30
0.0
 70
    32
  0
VERTEX
  5
1581
  8
240
 10
-51.686500000000002
 20
-14.0268
 30
0.0
 70
    32
  0
VERTEX
  5
1582
  8
240
 10
-51.813400000000001
 20
-14.0258
 30
0.0
 70
    32
  0
VERTEX
  5
1583
  8
240
 10
-51.939900000000002
 20
-14.0235
 30
0.0
 70
    32
  0
VERTEX
  5
1584
  8
240
 10
-52.066000000000003
 20
-14.02009999999999
 30
0.0
 70
    32
  0
VERTEX
  5
1585
  8
240
 10
-52.191600000000001
 20
-14.015399999999991
 30
0.0
 70
    32
  0
VERTEX
  5
1586
  8
240
 10
-52.316699999999997
 20
-14.009499999999999
 30
0.0
 70
    32
  0
VERTEX
  5
1587
  8
240
 10
-52.441299999999998
 20
-14.0023
 30
0.0
 70
    32
  0
VERTEX
  5
1588
  8
240
 10
-52.5655
 20
-13.9939
 30
0.0
 70
    32
  0
VERTEX
  5
1589
  8
240
 10
-52.689100000000003
 20
-13.984199999999991
 30
0.0
 70
    32
  0
VERTEX
  5
158A
  8
240
 10
-52.812199999999997
 20
-13.9733
 30
0.0
 70
    32
  0
VERTEX
  5
158B
  8
240
 10
-52.934699999999999
 20
-13.9611
 30
0.0
 70
    32
  0
VERTEX
  5
158C
  8
240
 10
-53.056800000000003
 20
-13.947599999999991
 30
0.0
 70
    32
  0
VERTEX
  5
158D
  8
240
 10
-53.178199999999997
 20
-13.9329
 30
0.0
 70
    32
  0
VERTEX
  5
158E
  8
240
 10
-53.299100000000003
 20
-13.9169
 30
0.0
 70
    32
  0
VERTEX
  5
158F
  8
240
 10
-53.41940000000001
 20
-13.8996
 30
0.0
 70
    32
  0
VERTEX
  5
1590
  8
240
 10
-53.539099999999991
 20
-13.881
 30
0.0
 70
    32
  0
VERTEX
  5
1591
  8
240
 10
-53.65809999999999
 20
-13.8612
 30
0.0
 70
    32
  0
VERTEX
  5
1592
  8
240
 10
-53.776600000000002
 20
-13.84
 30
0.0
 70
    32
  0
VERTEX
  5
1593
  8
240
 10
-53.894399999999997
 20
-13.817600000000001
 30
0.0
 70
    32
  0
VERTEX
  5
1594
  8
240
 10
-54.011600000000001
 20
-13.793799999999999
 30
0.0
 70
    32
  0
VERTEX
  5
1595
  8
240
 10
-54.128100000000003
 20
-13.768700000000001
 30
0.0
 70
    32
  0
VERTEX
  5
1596
  8
240
 10
-54.243899999999989
 20
-13.7424
 30
0.0
 70
    32
  0
VERTEX
  5
1597
  8
240
 10
-54.359099999999991
 20
-13.714600000000001
 30
0.0
 70
    32
  0
VERTEX
  5
1598
  8
240
 10
-54.47359999999999
 20
-13.685600000000001
 30
0.0
 70
    32
  0
VERTEX
  5
1599
  8
240
 10
-54.587299999999999
 20
-13.6553
 30
0.0
 70
    32
  0
VERTEX
  5
159A
  8
240
 10
-54.700299999999999
 20
-13.6236
 30
0.0
 70
    32
  0
VERTEX
  5
159B
  8
240
 10
-54.812600000000003
 20
-13.5905
 30
0.0
 70
    32
  0
VERTEX
  5
159C
  8
240
 10
-54.924199999999999
 20
-13.5562
 30
0.0
 70
    32
  0
VERTEX
  5
159D
  8
240
 10
-55.034999999999989
 20
-13.5204
 30
0.0
 70
    32
  0
VERTEX
  5
159E
  8
240
 10
-55.145000000000003
 20
-13.4834
 30
0.0
 70
    32
  0
VERTEX
  5
159F
  8
240
 10
-55.254199999999997
 20
-13.444900000000001
 30
0.0
 70
    32
  0
VERTEX
  5
15A0
  8
240
 10
-55.3626
 20
-13.405099999999999
 30
0.0
 70
    32
  0
VERTEX
  5
15A1
  8
240
 10
-55.470300000000002
 20
-13.364000000000001
 30
0.0
 70
    32
  0
VERTEX
  5
15A2
  8
240
 10
-55.577100000000002
 20
-13.321400000000001
 30
0.0
 70
    32
  0
VERTEX
  5
15A3
  8
240
 10
-55.683
 20
-13.2775
 30
0.0
 70
    32
  0
VERTEX
  5
15A4
  8
240
 10
-55.788200000000003
 20
-13.232200000000001
 30
0.0
 70
    32
  0
VERTEX
  5
15A5
  8
240
 10
-55.892400000000002
 20
-13.185499999999999
 30
0.0
 70
    32
  0
VERTEX
  5
15A6
  8
240
 10
-55.995800000000003
 20
-13.13749999999999
 30
0.0
 70
    32
  0
VERTEX
  5
15A7
  8
240
 10
-56.098300000000002
 20
-13.08799999999999
 30
0.0
 70
    32
  0
VERTEX
  5
15A8
  8
240
 10
-56.200000000000003
 20
-13.037100000000001
 30
0.0
 70
    32
  0
VERTEX
  5
15A9
  8
240
 10
-56.300699999999992
 20
-12.9848
 30
0.0
 70
    32
  0
VERTEX
  5
15AA
  8
240
 10
-56.400500000000001
 20
-12.9312
 30
0.0
 70
    32
  0
VERTEX
  5
15AB
  8
240
 10
-56.499299999999998
 20
-12.875999999999999
 30
0.0
 70
    32
  0
VERTEX
  5
15AC
  8
240
 10
-56.597200000000001
 20
-12.8195
 30
0.0
 70
    32
  0
VERTEX
  5
15AD
  8
240
 10
-56.694200000000002
 20
-12.7616
 30
0.0
 70
    32
  0
VERTEX
  5
15AE
  8
240
 10
-56.790300000000002
 20
-12.70229999999999
 30
0.0
 70
    32
  0
VERTEX
  5
15AF
  8
240
 10
-56.88539999999999
 20
-12.6416
 30
0.0
 70
    32
  0
VERTEX
  5
15B0
  8
240
 10
-56.979599999999998
 20
-12.579499999999999
 30
0.0
 70
    32
  0
VERTEX
  5
15B1
  8
240
 10
-57.072899999999997
 20
-12.516
 30
0.0
 70
    32
  0
VERTEX
  5
15B2
  8
240
 10
-57.165199999999999
 20
-12.4512
 30
0.0
 70
    32
  0
VERTEX
  5
15B3
  8
240
 10
-57.256599999999999
 20
-12.385099999999991
 30
0.0
 70
    32
  0
VERTEX
  5
15B4
  8
240
 10
-57.34709999999999
 20
-12.317600000000001
 30
0.0
 70
    32
  0
VERTEX
  5
15B5
  8
240
 10
-57.436700000000002
 20
-12.248699999999999
 30
0.0
 70
    32
  0
VERTEX
  5
15B6
  8
240
 10
-57.525300000000001
 20
-12.1785
 30
0.0
 70
    32
  0
VERTEX
  5
15B7
  8
240
 10
-57.613100000000003
 20
-12.107100000000001
 30
0.0
 70
    32
  0
VERTEX
  5
15B8
  8
240
 10
-57.699899999999992
 20
-12.0343
 30
0.0
 70
    32
  0
VERTEX
  5
15B9
  8
240
 10
-57.785800000000002
 20
-11.9602
 30
0.0
 70
    32
  0
VERTEX
  5
15BA
  8
240
 10
-57.870800000000003
 20
-11.8848
 30
0.0
 70
    32
  0
VERTEX
  5
15BB
  8
240
 10
-57.954900000000002
 20
-11.80819999999999
 30
0.0
 70
    32
  0
VERTEX
  5
15BC
  8
240
 10
-58.0381
 20
-11.7302
 30
0.0
 70
    32
  0
VERTEX
  5
15BD
  8
240
 10
-58.120399999999989
 20
-11.651
 30
0.0
 70
    32
  0
VERTEX
  5
15BE
  8
240
 10
-58.201799999999999
 20
-11.570600000000001
 30
0.0
 70
    32
  0
VERTEX
  5
15BF
  8
240
 10
-58.282299999999999
 20
-11.48889999999999
 30
0.0
 70
    32
  0
VERTEX
  5
15C0
  8
240
 10
-58.361899999999999
 20
-11.406000000000001
 30
0.0
 70
    32
  0
VERTEX
  5
15C1
  8
240
 10
-58.440600000000003
 20
-11.321799999999991
 30
0.0
 70
    32
  0
VERTEX
  5
15C2
  8
240
 10
-58.5184
 20
-11.236499999999999
 30
0.0
 70
    32
  0
VERTEX
  5
15C3
  8
240
 10
-58.595300000000002
 20
-11.149900000000001
 30
0.0
 70
    32
  0
VERTEX
  5
15C4
  8
240
 10
-58.671300000000002
 20
-11.06209999999999
 30
0.0
 70
    32
  0
VERTEX
  5
15C5
  8
240
 10
-58.746400000000001
 20
-10.973100000000001
 30
0.0
 70
    32
  0
VERTEX
  5
15C6
  8
240
 10
-58.820700000000002
 20
-10.882999999999999
 30
0.0
 70
    32
  0
VERTEX
  5
15C7
  8
240
 10
-58.893999999999998
 20
-10.791700000000001
 30
0.0
 70
    32
  0
VERTEX
  5
15C8
  8
240
 10
-58.966500000000011
 20
-10.69919999999999
 30
0.0
 70
    32
  0
VERTEX
  5
15C9
  8
240
 10
-59.0381
 20
-10.605499999999999
 30
0.0
 70
    32
  0
VERTEX
  5
15CA
  8
240
 10
-59.108899999999998
 20
-10.5107
 30
0.0
 70
    32
  0
VERTEX
  5
15CB
  8
240
 10
-59.178699999999999
 20
-10.414799999999991
 30
0.0
 70
    32
  0
VERTEX
  5
15CC
  8
240
 10
-59.247700000000002
 20
-10.3177
 30
0.0
 70
    32
  0
VERTEX
  5
15CD
  8
240
 10
-59.315800000000003
 20
-10.219599999999989
 30
0.0
 70
    32
  0
VERTEX
  5
15CE
  8
240
 10
-59.383000000000003
 20
-10.1203
 30
0.0
 70
    32
  0
VERTEX
  5
15CF
  8
240
 10
-59.44939999999999
 20
-10.0199
 30
0.0
 70
    32
  0
VERTEX
  5
15D0
  8
240
 10
-59.51489999999999
 20
-9.9183999999999983
 30
0.0
 70
    32
  0
VERTEX
  5
15D1
  8
240
 10
-59.579500000000003
 20
-9.8158299999999983
 30
0.0
 70
    32
  0
VERTEX
  5
15D2
  8
240
 10
-59.643300000000004
 20
-9.7121799999999983
 30
0.0
 70
    32
  0
VERTEX
  5
15D3
  8
240
 10
-59.706200000000003
 20
-9.6074699999999975
 30
0.0
 70
    32
  0
VERTEX
  5
15D4
  8
240
 10
-59.768300000000004
 20
-9.5016999999999978
 30
0.0
 70
    32
  0
VERTEX
  5
15D5
  8
240
 10
-59.829500000000003
 20
-9.3948799999999988
 30
0.0
 70
    32
  0
VERTEX
  5
15D6
  8
240
 10
-59.889800000000001
 20
-9.2870199999999983
 30
0.0
 70
    32
  0
VERTEX
  5
15D7
  8
240
 10
-59.949300000000001
 20
-9.1781299999999977
 30
0.0
 70
    32
  0
VERTEX
  5
15D8
  8
240
 10
-60.008000000000003
 20
-9.0682199999999984
 30
0.0
 70
    32
  0
VERTEX
  5
15D9
  8
240
 10
-60.065800000000003
 20
-8.9572899999999969
 30
0.0
 70
    32
  0
VERTEX
  5
15DA
  8
240
 10
-60.122700000000002
 20
-8.8453599999999994
 30
0.0
 70
    32
  0
VERTEX
  5
15DB
  8
240
 10
-60.178800000000003
 20
-8.7324399999999969
 30
0.0
 70
    32
  0
VERTEX
  5
15DC
  8
240
 10
-60.234099999999998
 20
-8.6185199999999984
 30
0.0
 70
    32
  0
VERTEX
  5
15DD
  8
240
 10
-60.288499999999999
 20
-8.5036399999999972
 30
0.0
 70
    32
  0
VERTEX
  5
15DE
  8
240
 10
-60.342100000000002
 20
-8.3877799999999993
 30
0.0
 70
    32
  0
VERTEX
  5
15DF
  8
240
 10
-60.3949
 20
-8.2709599999999988
 30
0.0
 70
    32
  0
VERTEX
  5
15E0
  8
240
 10
-60.446800000000003
 20
-8.1531899999999968
 30
0.0
 70
    32
  0
VERTEX
  5
15E1
  8
240
 10
-60.497900000000001
 20
-8.0344799999999985
 30
0.0
 70
    32
  0
VERTEX
  5
15E2
  8
240
 10
-60.548200000000001
 20
-7.9148299999999976
 30
0.0
 70
    32
  0
VERTEX
  5
15E3
  8
240
 10
-60.5976
 20
-7.7942699999999983
 30
0.0
 70
    32
  0
VERTEX
  5
15E4
  8
240
 10
-60.6462
 20
-7.6727799999999977
 30
0.0
 70
    32
  0
VERTEX
  5
15E5
  8
240
 10
-60.694000000000003
 20
-7.5503899999999966
 30
0.0
 70
    32
  0
VERTEX
  5
15E6
  8
240
 10
-60.740900000000003
 20
-7.4270999999999976
 30
0.0
 70
    32
  0
VERTEX
  5
15E7
  8
240
 10
-60.787100000000002
 20
-7.3029299999999981
 30
0.0
 70
    32
  0
VERTEX
  5
15E8
  8
240
 10
-60.832399999999993
 20
-7.1778699999999969
 30
0.0
 70
    32
  0
VERTEX
  5
15E9
  8
240
 10
-60.876899999999999
 20
-7.0519399999999974
 30
0.0
 70
    32
  0
VERTEX
  5
15EA
  8
240
 10
-60.9206
 20
-6.9251499999999977
 30
0.0
 70
    32
  0
VERTEX
  5
15EB
  8
240
 10
-60.96350000000001
 20
-6.7975099999999991
 30
0.0
 70
    32
  0
VERTEX
  5
15EC
  8
240
 10
-61.005600000000001
 20
-6.6690199999999971
 30
0.0
 70
    32
  0
VERTEX
  5
15ED
  8
240
 10
-61.046799999999998
 20
-6.5396999999999981
 30
0.0
 70
    32
  0
VERTEX
  5
15EE
  8
240
 10
-61.087299999999999
 20
-6.4095499999999976
 30
0.0
 70
    32
  0
VERTEX
  5
15EF
  8
240
 10
-61.127000000000002
 20
-6.2785899999999977
 30
0.0
 70
    32
  0
VERTEX
  5
15F0
  8
240
 10
-61.16579999999999
 20
-6.1468099999999968
 30
0.0
 70
    32
  0
VERTEX
  5
15F1
  8
240
 10
-61.203899999999997
 20
-6.0142399999999983
 30
0.0
 70
    32
  0
VERTEX
  5
15F2
  8
240
 10
-61.241100000000003
 20
-5.880869999999998
 30
0.0
 70
    32
  0
VERTEX
  5
15F3
  8
240
 10
-61.2776
 20
-5.7467299999999977
 30
0.0
 70
    32
  0
VERTEX
  5
15F4
  8
240
 10
-61.313200000000002
 20
-5.6118099999999984
 30
0.0
 70
    32
  0
VERTEX
  5
15F5
  8
240
 10
-61.348100000000002
 20
-5.4761199999999981
 30
0.0
 70
    32
  0
VERTEX
  5
15F6
  8
240
 10
-61.382199999999997
 20
-5.3396799999999978
 30
0.0
 70
    32
  0
VERTEX
  5
15F7
  8
240
 10
-61.415500000000002
 20
-5.202499999999997
 30
0.0
 70
    32
  0
VERTEX
  5
15F8
  8
240
 10
-61.448
 20
-5.0645799999999976
 30
0.0
 70
    32
  0
VERTEX
  5
15F9
  8
240
 10
-61.479700000000001
 20
-4.925919999999997
 30
0.0
 70
    32
  0
VERTEX
  5
15FA
  8
240
 10
-61.5107
 20
-4.7865499999999983
 30
0.0
 70
    32
  0
VERTEX
  5
15FB
  8
240
 10
-61.540799999999997
 20
-4.6464699999999981
 30
0.0
 70
    32
  0
VERTEX
  5
15FC
  8
240
 10
-61.5702
 20
-4.5056899999999978
 30
0.0
 70
    32
  0
VERTEX
  5
15FD
  8
240
 10
-61.598799999999997
 20
-4.3642099999999981
 30
0.0
 70
    32
  0
VERTEX
  5
15FE
  8
240
 10
-61.6267
 20
-4.2220499999999976
 30
0.0
 70
    32
  0
VERTEX
  5
15FF
  8
240
 10
-61.653700000000001
 20
-4.0792199999999967
 30
0.0
 70
    32
  0
VERTEX
  5
1600
  8
240
 10
-61.68
 20
-3.9357199999999981
 30
0.0
 70
    32
  0
VERTEX
  5
1601
  8
240
 10
-61.705599999999997
 20
-3.7915599999999978
 30
0.0
 70
    32
  0
VERTEX
  5
1602
  8
240
 10
-61.7303
 20
-3.6467499999999982
 30
0.0
 70
    32
  0
VERTEX
  5
1603
  8
240
 10
-61.754300000000001
 20
-3.5012999999999979
 30
0.0
 70
    32
  0
VERTEX
  5
1604
  8
240
 10
-61.7776
 20
-3.3552299999999979
 30
0.0
 70
    32
  0
VERTEX
  5
1605
  8
240
 10
-61.79999999999999
 20
-3.2085299999999979
 30
0.0
 70
    32
  0
VERTEX
  5
1606
  8
240
 10
-61.8217
 20
-3.0612199999999978
 30
0.0
 70
    32
  0
VERTEX
  5
1607
  8
240
 10
-61.842700000000001
 20
-2.9132999999999978
 30
0.0
 70
    32
  0
VERTEX
  5
1608
  8
240
 10
-61.862900000000003
 20
-2.7647899999999979
 30
0.0
 70
    32
  0
VERTEX
  5
1609
  8
240
 10
-61.882399999999997
 20
-2.6156899999999981
 30
0.0
 70
    32
  0
VERTEX
  5
160A
  8
240
 10
-61.9011
 20
-2.4660199999999981
 30
0.0
 70
    32
  0
VERTEX
  5
160B
  8
240
 10
-61.918999999999997
 20
-2.3157799999999971
 30
0.0
 70
    32
  0
VERTEX
  5
160C
  8
240
 10
-61.936199999999999
 20
-2.1649799999999981
 30
0.0
 70
    32
  0
VERTEX
  5
160D
  8
240
 10
-61.9527
 20
-2.0136199999999982
 30
0.0
 70
    32
  0
VERTEX
  5
160E
  8
240
 10
-61.968400000000003
 20
-1.8617299999999981
 30
0.0
 70
    32
  0
VERTEX
  5
160F
  8
240
 10
-61.983400000000003
 20
-1.709299999999998
 30
0.0
 70
    32
  0
VERTEX
  5
1610
  8
240
 10
-61.997700000000002
 20
-1.5563499999999979
 30
0.0
 70
    32
  0
VERTEX
  5
1611
  8
240
 10
-62.011200000000002
 20
-1.402889999999998
 30
0.0
 70
    32
  0
VERTEX
  5
1612
  8
240
 10
-62.024000000000001
 20
-1.248919999999998
 30
0.0
 70
    32
  0
VERTEX
  5
1613
  8
240
 10
-62.036000000000001
 20
-1.0944499999999979
 30
0.0
 70
    32
  0
VERTEX
  5
1614
  8
240
 10
-62.0473
 20
-0.9394929999999983
 30
0.0
 70
    32
  0
VERTEX
  5
1615
  8
240
 10
-62.057899999999997
 20
-0.7840569999999982
 30
0.0
 70
    32
  0
VERTEX
  5
1616
  8
240
 10
-62.067799999999998
 20
-0.6281509999999984
 30
0.0
 70
    32
  0
VERTEX
  5
1617
  8
240
 10
-62.076900000000002
 20
-0.4717829999999983
 30
0.0
 70
    32
  0
VERTEX
  5
1618
  8
240
 10
-62.085299999999989
 20
-0.3149629999999982
 30
0.0
 70
    32
  0
VERTEX
  5
1619
  8
240
 10
-62.093000000000004
 20
-0.1576989999999982
 30
0.0
 70
    32
  0
VERTEX
  5
161A
  8
240
 10
-62.100000000000001
 20
0.0000000013795618
 30
0.0
 70
    32
  0
SEQEND
  5
161B
  8
240
  0
VIEWPORT
  5
22
 67
     1
  8
0
 10
261.51769911504419
 20
148.5
 30
0.0
 40
523.0353982300885
 41
297.0
 68
     1
 69
     1
1001
ACAD
1000
MVIEW
1002
{
1070
    16
1010
0.0
1020
0.0
1030
0.0
1010
0.0
1020
0.0
1030
1.0
1040
0.0
1040
297.0
1040
261.51769911504419
1040
148.5
1040
50.0
1040
0.0
1040
0.0
1070
     0
1070
   100
1070
     1
1070
     1
1070
     0
1070
     0
1070
     0
1070
     0
1040
0.0
1040
0.0
1040
0.0
1040
1.0
1040
1.0
1040
10.0
1040
10.0
1070
     0
1002
{
1002
}
1002
}
1001
GENIUS_GENODEF_13
1002
{
1000
HIER
1070
     0
1002
}
1002
{
1000
MANEDIT
1070
     0
1002
}
1002
{
1000
NOSEL
1070
     0
1002
}
1002
{
1000
BEHIND
1070
     0
1002
}
1002
{
1000
OTHER
1070
     0
1002
}
1002
{
1000
REACTOR
1002
}
1001
GENIUS_GENOBJ-N-SDF_13
1002
{
1000
OWNER
1000
GEN
1002
}
1001
GENIUS_GENSCREG_15
1000
PF
1040
1.0
1000
DF
1040
1.0
1000
MIN
1011
0.0
1021
0.0
1031
0.0
1021
0.0
1031
0.0
1000
MAX
1011
523.0353982300885
1021
0.0
1031
0.0
1021
297.0
1031
0.0
1000
FLAGS
1070
     4
  0
ENDSEC
  0
EOF
