  0
SECTION
  2
HEADER
  9
$ACADVER
  1
AC1009
  9
$INSBASE
 10
0.0
 20
0.0
 30
0.0
  9
$EXTMIN
 10
-83.309339824653236
 20
-21.810434780668452
 30
0.0
  9
$EXTMAX
 10
60.5
 20
92.000000000000057
 30
0.0
  9
$LIMMIN
 10
0.0
 20
0.0
  9
$LIMMAX
 10
297.0
 20
210.0
  9
$ORTHOMODE
 70
     0
  9
$REGENMODE
 70
     1
  9
$FILLMODE
 70
     1
  9
$QTEXTMODE
 70
     0
  9
$MIRRTEXT
 70
     1
  9
$DRAGMODE
 70
     2
  9
$LTSCALE
 40
10.0
  9
$OSMODE
 70
    39
  9
$ATTMODE
 70
     1
  9
$TEXTSIZE
 40
3.0
  9
$TRACEWID
 40
1.0
  9
$TEXTSTYLE
  7
YOKO
  9
$CLAYER
  8
241
  9
$CELTYPE
  6
BYLAYER
  9
$CECOLOR
 62
   256
  9
$DIMSCALE
 40
1.0
  9
$DIMASZ
 40
2.0
  9
$DIMEXO
 40
0.5
  9
$DIMDLI
 40
2.5
  9
$DIMRND
 40
0.0
  9
$DIMDLE
 40
0.0
  9
$DIMEXE
 40
1.0
  9
$DIMTP
 40
0.0
  9
$DIMTM
 40
0.0
  9
$DIMTXT
 40
2.799999999999998
  9
$DIMCEN
 40
0.0
  9
$DIMTSZ
 40
0.0
  9
$DIMTOL
 70
     0
  9
$DIMLIM
 70
     0
  9
$DIMTIH
 70
     0
  9
$DIMTOH
 70
     0
  9
$DIMSE1
 70
     0
  9
$DIMSE2
 70
     0
  9
$DIMTAD
 70
     3
  9
$DIMZIN
 70
     8
  9
$DIMBLK
  1

  9
$DIMASO
 70
     1
  9
$DIMSHO
 70
     1
  9
$DIMPOST
  1

  9
$DIMAPOST
  1

  9
$DIMALT
 70
     0
  9
$DIMALTD
 70
     2
  9
$DIMALTF
 40
25.399999999999999
  9
$DIMLFAC
 40
1.0
  9
$DIMTOFL
 70
     1
  9
$DIMTVP
 40
0.0
  9
$DIMTIX
 70
     1
  9
$DIMSOXD
 70
     0
  9
$DIMSAH
 70
     1
  9
$DIMBLK1
  1
OPEN
  9
$DIMBLK2
  1
OPEN
  9
$DIMSTYLE
  2
BIGT
  9
$DIMCLRD
 70
     3
  9
$DIMCLRE
 70
     3
  9
$DIMCLRT
 70
    40
  9
$DIMTFAC
 40
1.0
  9
$DIMGAP
 40
1.0
  9
$LUNITS
 70
     2
  9
$LUPREC
 70
     3
  9
$SKETCHINC
 40
1.0
  9
$FILLETRAD
 40
0.0
  9
$AUNITS
 70
     0
  9
$AUPREC
 70
     3
  9
$MENU
  1
.
  9
$ELEVATION
 40
0.0
  9
$PELEVATION
 40
0.0
  9
$THICKNESS
 40
0.0
  9
$LIMCHECK
 70
     0
  9
$BLIPMODE
 70
     0
  9
$CHAMFERA
 40
10.0
  9
$CHAMFERB
 40
10.0
  9
$SKPOLY
 70
     0
  9
$TDCREATE
 40
2458250.3577490631
  9
$TDUPDATE
 40
2459607.416102997
  9
$TDINDWG
 40
0.0951303009
  9
$TDUSRTIMER
 40
0.0951297569
  9
$USRTIMER
 70
     1
  9
$ANGBASE
 50
0.0
  9
$ANGDIR
 70
     0
  9
$PDMODE
 70
     0
  9
$PDSIZE
 40
-5.0
  9
$PLINEWID
 40
0.0
  9
$COORDS
 70
     1
  9
$SPLFRAME
 70
     0
  9
$SPLINETYPE
 70
     6
  9
$SPLINESEGS
 70
     8
  9
$ATTDIA
 70
     1
  9
$ATTREQ
 70
     1
  9
$HANDLING
 70
     1
  9
$HANDSEED
  5
1348
  9
$SURFTAB1
 70
     6
  9
$SURFTAB2
 70
     6
  9
$SURFTYPE
 70
     6
  9
$SURFU
 70
     6
  9
$SURFV
 70
     6
  9
$UCSNAME
  2

  9
$UCSORG
 10
0.0
 20
0.0
 30
0.0
  9
$UCSXDIR
 10
1.0
 20
0.0
 30
0.0
  9
$UCSYDIR
 10
0.0
 20
1.0
 30
0.0
  9
$PUCSNAME
  2

  9
$PUCSORG
 10
0.0
 20
0.0
 30
0.0
  9
$PUCSXDIR
 10
1.0
 20
0.0
 30
0.0
  9
$PUCSYDIR
 10
0.0
 20
1.0
 30
0.0
  9
$USERI1
 70
     1
  9
$USERI2
 70
     0
  9
$USERI3
 70
     0
  9
$USERI4
 70
     0
  9
$USERI5
 70
     0
  9
$USERR1
 40
0.0
  9
$USERR2
 40
0.0
  9
$USERR3
 40
0.0
  9
$USERR4
 40
0.0
  9
$USERR5
 40
0.0
  9
$WORLDVIEW
 70
     1
  9
$SHADEDGE
 70
     3
  9
$SHADEDIF
 70
    70
  9
$TILEMODE
 70
     1
  9
$MAXACTVP
 70
    16
  9
$PLIMCHECK
 70
     0
  9
$PEXTMIN
 10
1.0000000000000000E+020
 20
1.0000000000000000E+020
 30
1.0000000000000000E+020
  9
$PEXTMAX
 10
-1.0000000000000000E+020
 20
-1.0000000000000000E+020
 30
-1.0000000000000000E+020
  9
$PLIMMIN
 10
0.0
 20
0.0
  9
$PLIMMAX
 10
420.0
 20
297.0
  9
$UNITMODE
 70
     0
  9
$VISRETAIN
 70
     0
  9
$PLINEGEN
 70
     0
  9
$PSLTSCALE
 70
     1
  0
ENDSEC
  0
SECTION
  2
TABLES
  0
TABLE
  2
VPORT
 70
     1
  0
VPORT
  2
*ACTIVE
 70
     0
 10
0.0
 20
0.0
 11
1.0
 21
1.0
 12
-8.6842740534280267
 22
10.017727273548219
 13
0.0
 23
0.0
 14
7.0
 24
7.0
 15
7.0
 25
7.0
 16
0.0
 26
0.0
 36
1.0
 17
0.0
 27
0.0
 37
0.0
 40
107.6413673740191
 41
1.488859764089121
 42
50.0
 43
0.0
 44
0.0
 50
0.0
 51
0.0
 71
     0
 72
 20000
 73
     1
 74
     0
 75
     0
 76
     1
 77
     0
 78
     0
  0
ENDTAB
  0
TABLE
  2
LTYPE
 70
    14
  0
LTYPE
  2
CONTINUOUS
 70
     0
  3
Solid line
 72
    65
 73
     0
 40
0.0
  0
LTYPE
  2
CENTER2
 70
     0
  3
___ _ ___ _ ___ _ ___ _ ___ _ ___ _ ___ _ ___ _
 72
    65
 73
     4
 40
1.125
 49
0.75
 49
-0.125
 49
0.125
 49
-0.125
  0
LTYPE
  2
HIDDEN2
 70
     0
  3
_ _ _ _ _ _ _ _ _ _ _ _ _ _ _ _ _ _ _ _ _ _ _ _
 72
    65
 73
     2
 40
0.1875
 49
0.125
 49
-0.0625
  0
LTYPE
  2
PHANTOM2
 70
     0
  3
___ _ _ ___ _ _ ___ _ _ ___ _ _ ___ _ _ ___ _ _
 72
    65
 73
     6
 40
1.25
 49
0.625
 49
-0.125
 49
0.125
 49
-0.125
 49
0.125
 49
-0.125
  0
LTYPE
  2
AMCONSTR
 70
     0
  3
_______________________
 72
    65
 73
     2
 40
9999.0
 49
9999.0
 49
0.0
  0
LTYPE
  2
AM_ISO02W050
 70
     0
  3
__ __ __ __ __ __ __ __ __ __ __ __ __ __ __
 72
    65
 73
     2
 40
7.5
 49
6.0
 49
-1.5
  0
LTYPE
  2
ACJISTGB
 70
     0
  3
__ . . __ . .
 72
    65
 73
     6
 40
9.0
 49
4.0
 49
-1.0
 49
1.0
 49
-1.0
 49
1.0
 49
-1.0
  0
LTYPE
  2
ACJISTGL
 70
     0
  3
_ _ _ _ _
 72
    65
 73
     2
 40
3.0
 49
2.0
 49
-1.0
  0
LTYPE
  2
ACISOWELD
 70
     0
  3
_ _ _ _ _
 72
    65
 73
     2
 40
2.0
 49
2.0
 49
-1.0
  0
LTYPE
  2
ACISOTGB
 70
     0
  3
__ . . __ . .
 72
    65
 73
     6
 40
9.0
 49
4.0
 49
-1.0
 49
1.0
 49
-1.0
 49
1.0
 49
-1.0
  0
LTYPE
  2
ACISOTGL
 70
     0
  3
_ _ _ _ _
 72
    65
 73
     2
 40
3.0
 49
2.0
 49
-1.0
  0
ENDTAB
  0
TABLE
  2
LAYER
 70
    11
  0
LAYER
  2
0
 70
     0
 62
     7
  6
CONTINUOUS
  0
LAYER
  2
240
 70
     0
 62
     4
  6
CONTINUOUS
  0
LAYER
  2
241
 70
     0
 62
   211
  6
CONTINUOUS
  0
LAYER
  2
242
 70
     0
 62
     3
  6
CONTINUOUS
  0
LAYER
  2
243
 70
     0
 62
   211
  6
HIDDEN2
  0
LAYER
  2
245
 70
     0
 62
     2
  6
CENTER2
  0
LAYER
  2
247
 70
     0
 62
    60
  6
CONTINUOUS
  0
LAYER
  2
250
 70
     0
 62
     3
  6
CONTINUOUS
  0
LAYER
  2
DEFPOINTS
 70
     0
 62
     7
  6
CONTINUOUS
  0
ENDTAB
  0
TABLE
  2
STYLE
 70
     6
  0
STYLE
  2
STANDARD
 70
     0
 40
0.0
 41
1.0
 50
0.0
 71
     0
 42
3.0
  3
romans.shx
  4
BIGFONT.SHX
  0
STYLE
  2
YOKO
 70
     0
 40
0.0
 41
1.0
 50
0.0
 71
     0
 42
3.0
  3
romans.shx
  4
extfont.shx
  0
STYLE
  2
ACJISTS
 70
     0
 40
1.0
 41
1.0
 50
0.0
 71
     0
 42
3.0
  3
amgdt.shx
  4
extfont.shx
  0
STYLE
  2
ACJISGDT
 70
     0
 40
0.0
 41
1.0
 50
0.0
 71
     0
 42
3.0
  3
amgdt.shx
  4
extfont.shx
  0
STYLE
  2
ACISOTS
 70
     0
 40
1.0
 41
1.0
 50
0.0
 71
     0
 42
3.0
  3
amgdt.shx
  4
extfont.shx
  0
STYLE
  2
ACISOGDT
 70
     0
 40
0.0
 41
1.0
 50
0.0
 71
     0
 42
3.0
  3
amgdt.shx
  4
extfont.shx
  0
ENDTAB
  0
TABLE
  2
VIEW
 70
     0
  0
ENDTAB
  0
TABLE
  2
UCS
 70
     0
  0
ENDTAB
  0
TABLE
  2
APPID
 70
    41
  0
APPID
  2
ACAD
 70
     0
  0
APPID
  2
GLOBAL
 70
     0
  0
APPID
  2
DETAIL
 70
     0
  0
APPID
  2
GRPNAME
 70
     0
  0
APPID
  2
GPARA
 70
     0
  0
APPID
  2
DCO15
 70
     0
  0
APPID
  2
ITEMNAME
 70
     0
  0
APPID
  2
GRADE_0
 70
     0
  0
APPID
  2
ACAD_DSTYLE_DIMJAG
 70
     0
  0
APPID
  2
ACAD_DSTYLE_DIMTALN
 70
     0
  0
APPID
  2
ACAD_NAV_VCDISPLAY
 70
     0
  0
APPID
  2
ACAD_MLEADERVER
 70
     0
  0
APPID
  2
ACAD_DSTYLE_DIMBREAK
 70
     0
  0
APPID
  2
GENIUS_GENODEF_13
 70
     0
  0
APPID
  2
GENIUS_GENOBJ-N-FIL_13
 70
     0
  0
APPID
  2
ACAD_EXEMPT_FROM_CAD_STANDARDS
 70
     0
  0
APPID
  2
ACAD_PSEXT
 70
     0
  0
APPID
  2
MCAD_NO_VIS
 70
     0
  0
APPID
  2
ACAD_TEMP_GRAPHIC
 70
     0
  0
APPID
  2
ACATTRIBSERVICES
 70
     0
  0
APPID
  2
GENIUS_GENSCREG_15
 70
     0
  0
APPID
  2
GENIUS_GENOBJ-N-SDF_13
 70
     0
  0
APPID
  2
GENIUS_GENREC_14
 70
     0
  0
APPID
  2
GENIUS_GENOBJ-N-REC_13
 70
     0
  0
APPID
  2
GENIUS_GENDIMSH_14
 70
     0
  0
APPID
  2
GENIUS_GENOBJ-N-DIM_13
 70
     0
  0
APPID
  2
GENIUS_GENDIM_13
 70
     0
  0
APPID
  2
GENIUS_GENDTOL_13
 70
     0
  0
APPID
  2
GENIUS_GENOLIS_13
 70
     0
  0
APPID
  2
GENIUS_GENOENT_13
 70
     0
  0
APPID
  2
GENIUS_GENOBJ-F-FEM_13
 70
     0
  0
APPID
  2
GENIUS_GENOREF_13
 70
     0
  0
APPID
  2
GENIUS_GEFFEM_13
 70
     0
  0
APPID
  2
GENIUS_GEFFEMP_13
 70
     0
  0
APPID
  2
AD_DRAW
 70
     0
  0
APPID
  2
DESIGNERASSEMBLIES
 70
     0
  0
APPID
  2
ACADM_DIM_EDIT
 70
     0
  0
APPID
  2
AMDT_DM_ADJ
 70
     0
  0
APPID
  2
GENIUS_GENFIL_13
 70
     0
  0
APPID
  2
GENIUS_GENOBJ-N-CHA_13
 70
     0
  0
APPID
  2
ACAECLAYERSTANDARD
 70
     0
  0
ENDTAB
  0
TABLE
  2
DIMSTYLE
 70
    24
  0
DIMSTYLE
  2
BIGT
 70
     0
  3

  4

  5
OPEN
  6

  7

 40
1.0
 41
2.2299999999999991
 42
0.5
 43
7.0
 44
1.0
 45
0.0
 46
0.0
 47
0.0
 48
0.01
140
2.7999999999999989
141
0.0
142
0.0
143
25.399999999999999
144
1.0
145
0.0
146
1.0
147
1.0
 71
     0
 72
     0
 73
     0
 74
     0
 75
     0
 76
     0
 77
     3
 78
     9
170
     0
171
     2
172
     1
173
     0
174
     1
175
     0
176
   256
177
   256
178
    40
  0
DIMSTYLE
  2
BIGT$0
 70
     0
  3

  4

  5
OPEN
  6

  7

 40
1.0
 41
2.2299999999999991
 42
0.5
 43
7.0
 44
1.0
 45
0.0
 46
0.0
 47
0.0
 48
0.01
140
2.7999999999999989
141
0.0
142
0.0
143
25.399999999999999
144
1.0
145
0.0
146
1.0
147
1.0
 71
     0
 72
     0
 73
     0
 74
     0
 75
     0
 76
     0
 77
     3
 78
     9
170
     0
171
     2
172
     1
173
     0
174
     1
175
     0
176
   256
177
   256
178
    40
  0
DIMSTYLE
  2
BIGT$2
 70
     0
  3

  4

  5
OPEN
  6

  7

 40
1.0
 41
2.2299999999999991
 42
0.5
 43
7.0
 44
1.0
 45
0.0
 46
0.0
 47
0.0
 48
0.01
140
2.7999999999999989
141
0.0
142
0.0
143
25.399999999999999
144
1.0
145
0.0
146
1.0
147
1.0
 71
     0
 72
     0
 73
     0
 74
     0
 75
     0
 76
     0
 77
     3
 78
     9
170
     0
171
     2
172
     1
173
     0
174
     0
175
     0
176
   256
177
   256
178
    40
  0
DIMSTYLE
  2
BIGT$3
 70
     0
  3

  4

  5
OPEN
  6

  7

 40
1.0
 41
2.2299999999999991
 42
0.5
 43
2.5
 44
1.0
 45
0.0
 46
0.0
 47
0.0
 48
0.01
140
2.7999999999999989
141
0.0
142
0.0
143
25.399999999999999
144
1.0
145
0.0
146
1.0
147
1.0
 71
     0
 72
     0
 73
     0
 74
     0
 75
     0
 76
     0
 77
     3
 78
     9
170
     0
171
     2
172
     1
173
     0
174
     0
175
     0
176
   256
177
   256
178
    40
  0
DIMSTYLE
  2
BIGT$4
 70
     0
  3

  4

  5
OPEN
  6

  7

 40
1.0
 41
2.2299999999999991
 42
0.5
 43
2.5
 44
1.0
 45
0.0
 46
0.0
 47
0.0
 48
0.01
140
2.7999999999999989
141
0.0
142
0.0
143
25.399999999999999
144
1.0
145
0.0
146
1.0
147
1.0
 71
     0
 72
     0
 73
     0
 74
     0
 75
     0
 76
     0
 77
     3
 78
     9
170
     0
171
     2
172
     1
173
     0
174
     0
175
     0
176
   256
177
   256
178
    40
  0
DIMSTYLE
  2
BIGT$6
 70
     0
  3

  4

  5
OPEN
  6

  7

 40
1.0
 41
2.2299999999999991
 42
0.5
 43
2.5
 44
1.0
 45
0.0
 46
0.0
 47
0.0
 48
0.01
140
2.7999999999999989
141
0.0
142
0.0
143
25.399999999999999
144
1.0
145
0.0
146
1.0
147
1.0
 71
     0
 72
     0
 73
     0
 74
     0
 75
     0
 76
     0
 77
     3
 78
     9
170
     0
171
     2
172
     1
173
     0
174
     0
175
     0
176
   256
177
   256
178
    40
  0
DIMSTYLE
  2
BIGT$7
 70
     0
  3

  4

  5
OPEN
  6

  7

 40
0.0
 41
2.2299999999999991
 42
0.5
 43
7.0
 44
1.0
 45
0.0
 46
0.0
 47
0.0
 48
0.01
140
2.7999999999999989
141
0.0
142
0.0
143
25.399999999999999
144
1.0
145
0.0
146
1.0
147
1.0
 71
     0
 72
     0
 73
     0
 74
     0
 75
     0
 76
     0
 77
     3
 78
     9
170
     0
171
     2
172
     0
173
     0
174
     0
175
     0
176
   256
177
   256
178
    40
  0
DIMSTYLE
  2
BIGT$SF
 70
     0
  3

  4

  5
OPEN
  6

  7

 40
1.0
 41
2.2299999999999991
 42
0.5
 43
7.0
 44
1.0
 45
0.0
 46
0.0
 47
0.0
 48
0.0
140
2.7999999999999989
141
0.0
142
0.0
143
25.399999999999999
144
1.0
145
0.0
146
1.0
147
1.0
 71
     0
 72
     0
 73
     0
 74
     0
 75
     0
 76
     0
 77
     3
 78
     9
170
     0
171
     2
172
     1
173
     0
174
     0
175
     0
176
   256
177
   256
178
    40
  0
DIMSTYLE
  2
BIGT$SH
 70
     0
  3

  4

  5
OPEN
  6

  7

 40
1.0
 41
2.2299999999999991
 42
0.5
 43
7.0
 44
1.0
 45
0.0
 46
0.0
 47
0.0
 48
0.0
140
2.7999999999999989
141
0.0
142
0.0
143
25.399999999999999
144
1.0
145
0.0
146
1.0
147
1.0
 71
     0
 72
     0
 73
     0
 74
     0
 75
     0
 76
     0
 77
     3
 78
     9
170
     0
171
     2
172
     1
173
     0
174
     0
175
     0
176
   256
177
   256
178
    40
  0
DIMSTYLE
  2
AM_ISO
 70
     0
  3

  4
"
  5

  6

  7

 40
1.0
 41
2.5
 42
1.0
 43
10.0
 44
1.0
 45
0.0
 46
0.0
 47
0.1
 48
0.1
140
3.5
141
0.0
142
0.0
143
0.0393701
144
1.0
145
0.0
146
0.71
147
1.5
 71
     0
 72
     0
 73
     0
 74
     0
 75
     0
 76
     0
 77
     1
 78
     8
170
     0
171
     2
172
     1
173
     0
174
     0
175
     0
176
   256
177
   256
178
     2
  0
DIMSTYLE
  2
AM_ISO$3
 70
     0
  3

  4
"
  5

  6

  7

 40
1.0
 41
2.5
 42
1.0
 43
10.0
 44
1.0
 45
0.0
 46
0.0
 47
0.1
 48
0.1
140
3.5
141
0.0
142
0.0
143
0.0393701
144
1.0
145
0.0
146
0.71
147
1.5
 71
     0
 72
     0
 73
     0
 74
     1
 75
     0
 76
     0
 77
     1
 78
     8
170
     0
171
     2
172
     0
173
     0
174
     0
175
     0
176
   256
177
   256
178
     2
  0
DIMSTYLE
  2
AM_ISO$4
 70
     0
  3

  4
"
  5

  6

  7

 40
1.0
 41
2.5
 42
1.0
 43
10.0
 44
1.0
 45
0.0
 46
0.0
 47
0.1
 48
0.1
140
3.5
141
0.0
142
0.0
143
0.0393701
144
1.0
145
0.0
146
0.71
147
1.5
 71
     0
 72
     0
 73
     0
 74
     1
 75
     0
 76
     0
 77
     1
 78
     8
170
     0
171
     2
172
     0
173
     0
174
     0
175
     0
176
   256
177
   256
178
     2
  0
DIMSTYLE
  2
AM_ISO$6
 70
     0
  3

  4
"
  5

  6

  7

 40
1.0
 41
2.5
 42
1.0
 43
10.0
 44
1.0
 45
0.0
 46
0.0
 47
0.1
 48
0.1
140
3.5
141
0.0
142
0.0
143
0.0393701
144
1.0
145
0.0
146
0.71
147
1.5
 71
     0
 72
     0
 73
     0
 74
     0
 75
     0
 76
     0
 77
     0
 78
     8
170
     0
171
     2
172
     1
173
     0
174
     0
175
     0
176
   256
177
   256
178
     2
  0
DIMSTYLE
  2
AM_ISO$7
 70
     0
  3

  4
"
  5

  6

  7

 40
1.0
 41
2.5
 42
1.0
 43
10.0
 44
1.0
 45
0.0
 46
0.0
 47
0.1
 48
0.1
140
5.0
141
0.0
142
0.0
143
0.0393701
144
1.0
145
0.0
146
0.71
147
1.5
 71
     0
 72
     0
 73
     0
 74
     0
 75
     0
 76
     0
 77
     1
 78
     8
170
     0
171
     2
172
     1
173
     0
174
     0
175
     0
176
   256
177
   256
178
     2
  0
DIMSTYLE
  2
AM_ISO$SF
 70
     0
  3

  4
"
  5

  6

  7

 40
1.0
 41
2.5
 42
1.0
 43
10.0
 44
1.0
 45
0.0
 46
0.0
 47
0.1
 48
0.1
140
3.5
141
0.0
142
0.0
143
0.0393701
144
1.0
145
0.0
146
0.71
147
1.5
 71
     0
 72
     0
 73
     0
 74
     0
 75
     1
 76
     1
 77
     1
 78
     8
170
     0
171
     2
172
     1
173
     0
174
     0
175
     0
176
   256
177
   256
178
     2
  0
DIMSTYLE
  2
AM_ISO$SH
 70
     0
  3

  4
"
  5

  6
GENAXEH
  7

 40
1.0
 41
2.5
 42
1.0
 43
10.0
 44
1.0
 45
0.0
 46
0.0
 47
0.1
 48
0.1
140
3.5
141
0.0
142
0.0
143
0.0393701
144
2.0
145
0.0
146
0.71
147
1.5
 71
     0
 72
     0
 73
     0
 74
     0
 75
     1
 76
     1
 77
     1
 78
     8
170
     0
171
     2
172
     1
173
     1
174
     0
175
     0
176
   256
177
   256
178
     2
  0
DIMSTYLE
  2
TECHNICAL_OSAKA
 70
     0
  3

  4
"
  5
OPEN30
  6

  7

 40
1.0
 41
2.5
 42
1.0
 43
10.0
 44
1.0
 45
0.0
 46
0.0
 47
0.1
 48
0.1
140
2.7999999999999989
141
0.0
142
0.0
143
0.0393701
144
1.0
145
0.0
146
0.71
147
1.5
 71
     0
 72
     0
 73
     0
 74
     0
 75
     0
 76
     0
 77
     3
 78
     8
170
     0
171
     2
172
     1
173
     0
174
     0
175
     0
176
   256
177
   256
178
    40
  0
DIMSTYLE
  2
TECHNICAL_OSAKA$3
 70
     0
  3

  4
"
  5
OPEN30
  6

  7

 40
1.0
 41
2.5
 42
1.0
 43
10.0
 44
1.0
 45
0.0
 46
0.0
 47
0.1
 48
0.1
140
2.7999999999999989
141
0.0
142
0.0
143
0.0393701
144
1.0
145
0.0
146
0.71
147
1.5
 71
     0
 72
     0
 73
     0
 74
     1
 75
     0
 76
     0
 77
     3
 78
     8
170
     0
171
     2
172
     0
173
     0
174
     0
175
     0
176
   256
177
   256
178
    40
  0
DIMSTYLE
  2
TECHNICAL_OSAKA$4
 70
     0
  3

  4
"
  5
OPEN30
  6

  7

 40
1.0
 41
2.5
 42
1.0
 43
10.0
 44
1.0
 45
0.0
 46
0.0
 47
0.1
 48
0.1
140
2.7999999999999989
141
0.0
142
0.0
143
0.0393701
144
1.0
145
0.0
146
0.71
147
1.5
 71
     0
 72
     0
 73
     0
 74
     1
 75
     0
 76
     0
 77
     3
 78
     8
170
     0
171
     2
172
     0
173
     0
174
     0
175
     0
176
   256
177
   256
178
    40
  0
DIMSTYLE
  2
TECHNICAL_OSAKA$6
 70
     0
  3

  4
"
  5
OPEN30
  6

  7

 40
1.0
 41
2.5
 42
1.0
 43
10.0
 44
1.0
 45
0.0
 46
0.0
 47
0.1
 48
0.1
140
2.7999999999999989
141
0.0
142
0.0
143
0.0393701
144
1.0
145
0.0
146
0.71
147
1.5
 71
     0
 72
     0
 73
     0
 74
     0
 75
     0
 76
     0
 77
     0
 78
     8
170
     0
171
     2
172
     1
173
     0
174
     0
175
     0
176
   256
177
   256
178
    40
  0
DIMSTYLE
  2
TECHNICAL_OSAKA$7
 70
     0
  3

  4
"
  5
OPEN30
  6

  7

 40
1.0
 41
2.5
 42
1.0
 43
10.0
 44
1.0
 45
0.0
 46
0.0
 47
0.1
 48
0.1
140
2.7999999999999989
141
0.0
142
0.0
143
0.0393701
144
1.0
145
0.0
146
0.71
147
1.5
 71
     0
 72
     0
 73
     0
 74
     0
 75
     0
 76
     0
 77
     3
 78
     8
170
     0
171
     2
172
     1
173
     0
174
     0
175
     0
176
   256
177
   256
178
    40
  0
DIMSTYLE
  2
TECHNICAL_OSAKA$SF
 70
     0
  3

  4
"
  5
OPEN30
  6
OPEN30
  7
OPEN30
 40
1.0
 41
2.5
 42
1.0
 43
10.0
 44
1.0
 45
0.0
 46
0.0
 47
0.1
 48
0.1
140
3.5
141
0.0
142
0.0
143
0.0393701
144
1.0
145
0.0
146
0.71
147
1.5
 71
     0
 72
     0
 73
     0
 74
     0
 75
     1
 76
     1
 77
     3
 78
     8
170
     0
171
     2
172
     1
173
     0
174
     0
175
     0
176
   256
177
   256
178
    40
  0
DIMSTYLE
  2
TECHNICAL_OSAKA$SH
 70
     0
  3

  4
"
  5
OPEN30
  6
GENAXEH
  7
OPEN30
 40
1.0
 41
2.5
 42
1.0
 43
10.0
 44
1.0
 45
0.0
 46
0.0
 47
0.1
 48
0.1
140
3.5
141
0.0
142
0.0
143
0.0393701
144
2.0
145
0.0
146
0.71
147
1.5
 71
     0
 72
     0
 73
     0
 74
     0
 75
     1
 76
     1
 77
     3
 78
     8
170
     0
171
     2
172
     1
173
     1
174
     0
175
     0
176
   256
177
   256
178
    40
  0
ENDTAB
  0
ENDSEC
  0
SECTION
  2
BLOCKS
  0
BLOCK
  8
0
  2
$MODEL_SPACE
 70
     0
 10
0.0
 20
0.0
 30
0.0
  3
$MODEL_SPACE
  1

  0
ENDBLK
  5
1C
  8
0
  0
BLOCK
 67
     1
  8
0
  2
$PAPER_SPACE
 70
     0
 10
0.0
 20
0.0
 30
0.0
  3
$PAPER_SPACE
  1

  0
ENDBLK
  5
19
 67
     1
  8
0
  0
BLOCK
  8
0
  2
_OPEN
 70
     0
 10
0.0
 20
0.0
 30
0.0
  3
_OPEN
  1

  0
LINE
  5
E8D
  8
0
  6
BYBLOCK
 62
     0
 10
-1.0
 20
0.1666666666666666
 30
0.0
 11
0.0
 21
0.0
 31
0.0
  0
LINE
  5
E8E
  8
0
  6
BYBLOCK
 62
     0
 10
-1.0
 20
-0.1666666666666666
 30
0.0
 11
0.0
 21
0.0
 31
0.0
  0
LINE
  5
E8F
  8
0
  6
BYBLOCK
 62
     0
 10
0.0
 20
0.0
 30
0.0
 11
-1.0
 21
0.0
 31
0.0
  0
ENDBLK
  5
E90
  8
0
  0
BLOCK
  8
0
  2
矢印なし
 70
     0
 10
0.0
 20
0.0
 30
0.0
  3
矢印なし
  1

  0
ENDBLK
  5
6E5
  8
0
  0
BLOCK
  8
0
  2
GENAXEH
 70
     0
 10
0.0
 20
0.0
 30
0.0
  3
GENAXEH
  1

  0
LINE
  5
EC8
  8
0
 10
-1.0
 20
0.0
 30
0.0
 11
1.0
 21
0.0
 31
0.0
  0
ENDBLK
  5
EC9
  8
0
  0
BLOCK
  8
0
  2
_OPEN30
 70
     0
 10
0.0
 20
0.0
 30
0.0
  3
_OPEN30
  1

  0
LINE
  5
F04
  8
0
  6
BYBLOCK
 62
     0
 10
-1.0
 20
0.26794919
 30
0.0
 11
0.0
 21
0.0
 31
0.0
  0
LINE
  5
F05
  8
0
  6
BYBLOCK
 62
     0
 10
0.0
 20
0.0
 30
0.0
 11
-1.0
 21
-0.26794919
 31
0.0
  0
LINE
  5
F06
  8
0
  6
BYBLOCK
 62
     0
 10
0.0
 20
0.0
 30
0.0
 11
-1.0
 21
0.0
 31
0.0
  0
ENDBLK
  5
F07
  8
0
  0
BLOCK
  8
0
  2
*U16
 70
     1
 10
0.0
 20
0.0
 30
0.0
  3
*U16
  1

  0
TEXT
  5
108E
  8
250
 10
17.333333333342068
 20
36.0
 30
0.0
 40
2.799999999999998
  1
40
  0
ENDBLK
  5
1090
  8
0
  0
BLOCK
  8
0
  2
*U17
 70
     1
 10
0.0
 20
0.0
 30
0.0
  3
*U17
  1

  0
TEXT
  5
1092
  8
250
 10
17.873333333341542
 20
29.0
 30
0.0
 40
2.799999999999998
  1
（max.23）
  0
ENDBLK
  5
1094
  8
0
  0
BLOCK
  8
0
  2
*U18
 70
     1
 10
0.0
 20
0.0
 30
0.0
  3
*U18
  1

  0
TEXT
  5
1096
  8
250
 10
58.5
 20
-3.933333333332246
 30
0.0
 40
2.7999999999999989
  1
\U+2205
 50
90.0
  0
TEXT
  5
1097
  8
250
 10
58.5
 20
-1.3999999999989139
 30
0.0
 40
2.799999999999998
  1
23
 50
90.0
  0
ENDBLK
  5
1099
  8
0
  0
BLOCK
  8
0
  2
*U19
 70
     1
 10
0.0
 20
0.0
 30
0.0
  3
*U19
  1

  0
TEXT
  5
109B
  8
250
 10
51.5
 20
-2.599999999999993
 30
0.0
 40
2.7999999999999989
  1
\U+2205
 50
90.0
  0
TEXT
  5
109C
  8
250
 10
51.5
 20
-0.0666666666666611
 30
0.0
 40
2.799999999999998
  1
6
 50
90.0
  0
ENDBLK
  5
109E
  8
0
  0
ENDSEC
  0
SECTION
  2
ENTITIES
  0
INSERT
  5
6E6
  8
245
  2
矢印なし
 10
175.62382696643769
 20
90.551235716905978
 30
0.0
  0
LINE
  5
B6D
  8
240
  6
CONTINUOUS
 10
-24.0
 20
13.462452753759919
 30
0.0
 11
0.0
 21
14.06250549360146
 31
0.0
  0
LINE
  5
B6E
  8
240
  6
CONTINUOUS
 10
0.0
 20
-14.062505499322411
 30
0.0
 11
-24.0
 21
-13.46245267871182
 31
0.0
  0
LINE
  5
B6F
  8
245
  6
CENTER2
 10
-25.0
 20
0.0
 30
0.0
 11
41.0
 21
0.0
 31
0.0
  0
LINE
  5
B70
  8
240
  6
CONTINUOUS
 10
-24.0
 20
-13.46245267871182
 30
0.0
 11
-24.0
 21
13.462452753759919
 31
0.0
  0
LINE
  5
B71
  8
241
  6
CONTINUOUS
 10
-19.800000000000001
 20
-2.5425000000000182
 30
0.0
 11
-19.800000000000001
 21
2.5425000000000182
 31
0.0
  0
LINE
  5
B72
  8
241
  6
CONTINUOUS
 10
-24.0
 20
-2.5425000000000182
 30
0.0
 11
-19.800000000000001
 21
-2.5425000000000182
 31
0.0
  0
LINE
  5
B73
  8
241
  6
CONTINUOUS
 10
-24.0
 20
2.5425000000000182
 30
0.0
 11
-19.800000000000001
 21
2.5425000000000182
 31
0.0
  0
LINE
  5
B74
  8
241
  6
CONTINUOUS
 10
0.0
 20
-14.062505499322411
 30
0.0
 11
0.0
 21
14.06250549360146
 31
0.0
  0
LINE
  5
B75
  8
240
  6
CONTINUOUS
 10
0.0
 20
-20.0
 30
0.0
 11
0.0
 21
-14.062505499322411
 31
0.0
  0
LINE
  5
B76
  8
240
  6
CONTINUOUS
 10
20.0
 20
-20.0
 30
0.0
 11
20.0
 21
-13.49999999999957
 31
0.0
  0
LINE
  5
B77
  8
240
  6
CONTINUOUS
 10
0.0
 20
20.0
 30
0.0
 11
0.0
 21
14.06250549360152
 31
0.0
  0
LINE
  5
B78
  8
250
  6
CONTINUOUS
 10
-14.21116305741373
 20
-15.30479900198344
 30
0.0
 11
-12.92248792332026
 21
-13.739414860668489
 31
0.0
  0
LINE
  5
B79
  8
250
  6
CONTINUOUS
 10
-13.63381278811732
 20
-15.638132335131839
 30
0.0
 11
-12.92248792332026
 21
-13.739414860668489
 31
0.0
  0
LINE
  5
B7A
  8
250
  6
CONTINUOUS
 10
-12.92248792332026
 20
-13.739414860668489
 30
0.0
 11
-13.922487922765519
 21
-15.47146566855764
 31
0.0
  0
LINE
  5
B7B
  8
250
  6
CONTINUOUS
 10
-13.922487922765519
 20
-15.47146566855764
 30
0.0
 11
-17.582293443320271
 21
-21.810434780668452
 31
0.0
1001
ACAD
1000
DSTYLE
1002
{
1070
     6
1000
OPEN
1070
    41
1040
2.0
1070
    42
1040
2.0
1070
    44
1040
2.0
1070
   140
1040
4.0
1070
   343
1005
0
1002
}
  0
TEXT
  5
B7C
  8
250
  6
CONTINUOUS
 10
-25.582293443320282
 20
-20.810434780668452
 30
0.0
 40
2.799999999999998
  1
C4
  7
YOKO
1001
ITEMNAME
1000
LNSP3
  0
LINE
  5
B7D
  8
250
  6
CONTINUOUS
 10
-17.582293443320271
 20
-21.810434780668452
 30
0.0
 11
-27.982293443320319
 21
-21.810434780668452
 31
0.0
1001
ITEMNAME
1000
LNSP2
  0
LINE
  5
B7E
  8
247
  6
CONTINUOUS
 10
3.9999999999999432
 20
-8.75
 30
0.0
 11
4.0
 21
-4.115384615669992
 31
0.0
  0
LINE
  5
B7F
  8
247
  6
CONTINUOUS
 10
1.5
 20
-7.954893499987973
 30
0.0
 11
3.5999999999160082
 21
-8.5570588100573541
 31
0.0
  0
LINE
  5
B80
  8
247
  6
CONTINUOUS
 10
2.496153846113998
 20
-7.325151403519043
 30
0.0
 11
2.496153846113998
 21
-8.2405360188670311
 31
0.0
  0
ARC
  5
B81
  8
247
  6
CONTINUOUS
 10
1.8847190672940981
 20
-7.087263401946811
 30
0.0
 40
0.3876715809326743
 50
72.9978896752922
 51
172.92416621851359
  0
ARC
  5
B82
  8
247
  6
CONTINUOUS
 10
1.805223131028014
 20
-7.3824775568041323
 30
0.0
 40
0.6933047965358772
 50
4.7429368522022113
 51
73.849226273266751
1001
GENIUS_GENOBJ-N-FIL_13
1002
{
1000
OWNER
1000
GEN
1002
}
1001
GENIUS_GENODEF_13
1002
{
1000
HIER
1070
     0
1002
}
1002
{
1000
MANEDIT
1070
     0
1002
}
1002
{
1000
NOSEL
1070
     0
1002
}
1002
{
1000
BEHIND
1070
     0
1002
}
1002
{
1000
OTHER
1070
     0
1002
}
1002
{
1000
REACTOR
1002
}
  0
LINE
  5
B83
  8
247
  6
CONTINUOUS
 10
3.5999999999160082
 20
-7.641674194709366
 30
0.0
 11
3.5999999999160082
 21
-8.5570588100573541
 31
0.0
  0
LINE
  5
B84
  8
247
  6
CONTINUOUS
 10
1.5
 20
-7.954893499987973
 30
0.0
 11
1.5
 21
-7.0395088846399272
 31
0.0
  0
ARC
  5
B85
  8
247
  6
CONTINUOUS
 10
2.8874169627678721
 20
-7.3783064762668573
 30
0.0
 40
0.394857301075386
 50
65.990941652528889
 51
172.26344345906909
  0
ARC
  5
B86
  8
247
  6
CONTINUOUS
 10
2.8912003273325682
 20
-7.7124466104269231
 30
0.0
 40
0.7123241612361686
 50
5.7019851642564632
 51
77.277338436822021
1001
GENIUS_GENOBJ-N-FIL_13
1002
{
1000
OWNER
1000
GEN
1002
}
1001
GENIUS_GENODEF_13
1002
{
1000
HIER
1070
     0
1002
}
1002
{
1000
MANEDIT
1070
     0
1002
}
1002
{
1000
NOSEL
1070
     0
1002
}
1002
{
1000
BEHIND
1070
     0
1002
}
1002
{
1000
OTHER
1070
     0
1002
}
1002
{
1000
REACTOR
1002
}
  0
LINE
  5
B87
  8
247
  6
CONTINUOUS
 10
3.5999999999160082
 20
-6.6839818870633962
 30
0.0
 11
1.5
 21
-6.0818165769939556
 31
0.0
  0
LINE
  5
B88
  8
247
  6
CONTINUOUS
 10
1.5
 20
-4.5856627309079832
 30
0.0
 11
1.5
 21
-4.981678364303546
 31
0.0
  0
LINE
  5
B89
  8
247
  6
CONTINUOUS
 10
3.5999999999160082
 20
-5.6087396539439851
 30
0.0
 11
3.5999999999160082
 21
-5.177970423191935
 31
0.0
  0
ARC
  5
B8A
  8
247
  6
CONTINUOUS
 10
2.9582995950833602
 20
-4.3818165770699684
 30
0.0
 40
1.576855057639547
 50
202.35948814152911
 51
254.99324854284649
  0
ARC
  5
B8B
  8
247
  6
CONTINUOUS
 10
2.0658188585381341
 20
-4.8475113661332312
 30
0.0
 40
0.6234706797009447
 50
94.994589319075317
 51
155.1663289573039
1001
GENIUS_GENOBJ-N-FIL_13
1002
{
1000
OWNER
1000
GEN
1002
}
1001
GENIUS_GENODEF_13
1002
{
1000
HIER
1070
     0
1002
}
1002
{
1000
MANEDIT
1070
     0
1002
}
1002
{
1000
NOSEL
1070
     0
1002
}
1002
{
1000
BEHIND
1070
     0
1002
}
1002
{
1000
OTHER
1070
     0
1002
}
1002
{
1000
REACTOR
1002
}
  0
ARC
  5
B8C
  8
247
  6
CONTINUOUS
 10
2.6621021219694381
 20
-5.4441839510327554
 30
0.0
 40
0.9749472149106983
 50
15.8460965557808
 51
82.325137004169278
  0
ARC
  5
B8D
  8
247
  6
CONTINUOUS
 10
2.8714704019710662
 20
-5.0352116387722381
 30
0.0
 40
0.9271945638692009
 50
249.7136016704969
 51
321.78874565641053
1001
GENIUS_GENOBJ-N-FIL_13
1002
{
1000
OWNER
1000
GEN
1002
}
1001
GENIUS_GENODEF_13
1002
{
1000
HIER
1070
     0
1002
}
1002
{
1000
MANEDIT
1070
     0
1002
}
1002
{
1000
NOSEL
1070
     0
1002
}
1002
{
1000
BEHIND
1070
     0
1002
}
1002
{
1000
OTHER
1070
     0
1002
}
1002
{
1000
REACTOR
1002
}
  0
LINE
  5
B8E
  8
247
  6
CONTINUOUS
 10
2.792307692255974
 20
-4.962585807815965
 30
0.0
 11
2.792307692255974
 21
-4.4779704232199711
 31
0.0
  0
ARC
  5
B8F
  8
247
  6
CONTINUOUS
 10
2.75
 20
-8.75
 30
0.0
 40
1.25
 50
180.0
 51
0.0
  0
LINE
  5
B90
  8
247
  6
CONTINUOUS
 10
1.5
 20
-8.75
 30
0.0
 11
1.5
 21
-8.3038461539139803
 31
0.0
  0
ARC
  5
B91
  8
247
  6
CONTINUOUS
 10
2.75
 20
-4.115384615669992
 30
0.0
 40
1.25
 50
0.0
 51
180.0
  0
LINE
  5
B92
  8
240
  6
CONTINUOUS
 10
20.0
 20
20.0
 30
0.0
 11
0.0
 21
20.0
 31
0.0
  0
LINE
  5
B93
  8
240
  6
CONTINUOUS
 10
20.0
 20
-20.0
 30
0.0
 11
0.0
 21
-20.0
 31
0.0
  0
LINE
  5
B94
  8
241
  6
CONTINUOUS
 10
6.6999999999999851
 20
5.4434495400000156
 30
0.0
 11
6.6999999999999851
 21
19.23457711999998
 31
0.0
  0
LINE
  5
B95
  8
241
  6
CONTINUOUS
 10
9.3000000000000114
 20
5.4434495400000156
 30
0.0
 11
9.3000000000000114
 21
19.23457711999998
 31
0.0
  0
LINE
  5
B96
  8
241
  6
CONTINUOUS
 10
6.6999999999999851
 20
5.4434495400000156
 30
0.0
 11
9.3000000000000114
 21
5.4434495400000156
 31
0.0
  0
LINE
  5
B97
  8
241
  6
CONTINUOUS
 10
6.6999999999999851
 20
19.23457711999998
 30
0.0
 11
9.3000000000000114
 21
19.23457711999998
 31
0.0
  0
ARC
  5
B98
  8
241
  6
CONTINUOUS
 10
19.246864401683411
 20
12.33901333
 30
0.0
 40
14.316864401683389
 50
151.207481346615
 51
208.792518653385
  0
ARC
  5
B99
  8
241
  6
CONTINUOUS
 10
-3.2468644016833501
 20
12.33901333
 30
0.0
 40
14.31686440168337
 50
331.20748134661488
 51
28.792518653385031
  0
LINE
  5
B9A
  8
241
  6
CONTINUOUS
 10
6.6999999999999851
 20
-5.4434495400000156
 30
0.0
 11
6.6999999999999851
 21
-19.23457711999998
 31
0.0
  0
LINE
  5
B9B
  8
241
  6
CONTINUOUS
 10
9.3000000000000114
 20
-5.4434495400000156
 30
0.0
 11
9.3000000000000114
 21
-19.23457711999998
 31
0.0
  0
LINE
  5
B9C
  8
241
  6
CONTINUOUS
 10
6.6999999999999851
 20
-5.4434495400000156
 30
0.0
 11
9.3000000000000114
 21
-5.4434495400000156
 31
0.0
  0
LINE
  5
B9D
  8
241
  6
CONTINUOUS
 10
6.6999999999999851
 20
-19.23457711999998
 30
0.0
 11
9.3000000000000114
 21
-19.23457711999998
 31
0.0
  0
ARC
  5
B9E
  8
241
  6
CONTINUOUS
 10
19.246864401683411
 20
-12.33901333
 30
0.0
 40
14.316864401683389
 50
151.207481346615
 51
208.792518653385
  0
ARC
  5
B9F
  8
241
  6
CONTINUOUS
 10
-3.2468644016833501
 20
-12.33901333
 30
0.0
 40
14.31686440168337
 50
331.20748134661488
 51
28.792518653385031
  0
ARC
  5
BA0
  8
241
  6
CONTINUOUS
 10
-20.845185903844769
 20
0.0
 30
0.0
 40
2.7489488579447801
 50
292.34687274647791
 51
67.653127253522129
  0
ARC
  5
BA1
  8
240
  6
CONTINUOUS
 10
22.0
 20
-13.49999999999957
 30
0.0
 40
2.0
 50
90.000000000006509
 51
180.0
  0
ARC
  5
BA2
  8
240
  6
CONTINUOUS
 10
22.000000000001759
 20
13.500000000001419
 30
0.0
 40
2.0
 50
180.0000000000195
 51
269.999999999995
  0
LINE
  5
BA3
  8
241
  6
CONTINUOUS
 10
38.258330249215533
 20
-10.782512056112241
 30
0.0
 11
38.258330249215533
 21
10.782512056114269
 31
0.0
  0
LINE
  5
BA4
  8
240
  6
CONTINUOUS
 10
40.000000000017472
 20
5.0000000000037801
 30
0.0
 11
40.000000000017643
 21
-4.999999999998292
 31
0.0
  0
LINE
  5
BA5
  8
240
  6
CONTINUOUS
 10
21.999999999999929
 20
-11.499999999999201
 30
0.0
 11
36.723676273257752
 21
-11.499999999998691
 31
0.0
  0
LINE
  5
BA6
  8
245
  6
CENTER2
 10
25.999999999978598
 20
3.5
 30
0.0
 11
25.999999999978598
 21
-3.5
 31
0.0
  0
LINE
  5
BA7
  8
240
  6
CONTINUOUS
 10
40.000000000017643
 20
-4.999999999998292
 30
0.0
 11
38.655527925835941
 21
-10.01763809020377
 31
0.0
  0
LINE
  5
BA9
  8
243
  6
CONTINUOUS
 10
37.750000000053902
 20
-11.199999999998621
 30
0.0
 11
37.760351904227598
 21
-11.2103519041849
 31
0.0
  0
ARC
  5
BAA
  8
240
  6
CONTINUOUS
 10
36.723676273257752
 20
-9.4999999999986926
 30
0.0
 40
2.0
 50
270.0
 51
344.99999999999881
  0
LINE
  5
BAB
  8
240
  6
CONTINUOUS
 10
22.000000000001759
 20
11.500000000000711
 30
0.0
 11
36.723676273257531
 21
11.500000000000851
 31
0.0
  0
LINE
  5
BAC
  8
243
  6
HIDDEN2
 10
19.99999999999849
 20
2.999999999997526
 30
0.0
 11
40.000000000017451
 21
3.0000000000011928
 31
0.0
  0
LINE
  5
BAD
  8
240
  6
CONTINUOUS
 10
40.000000000017472
 20
5.0000000000037801
 30
0.0
 11
38.655527925835713
 21
10.01763809020593
 31
0.0
  0
ARC
  5
BAE
  8
240
  6
CONTINUOUS
 10
36.723676273257531
 20
9.5000000000008473
 30
0.0
 40
2.0
 50
15.000000000001171
 51
90.0
  0
LINE
  5
BAF
  8
241
  6
CONTINUOUS
 10
29.63397459627646
 20
-11.499999999998799
 30
0.0
 11
29.633974596275952
 21
11.500000000000909
 31
0.0
  0
LINE
  5
BB0
  8
241
  6
CONTINUOUS
 10
31.366025403843079
 20
-11.49999999999889
 30
0.0
 11
31.36602540384235
 21
11.500000000000909
 31
0.0
  0
LINE
  5
BB2
  8
243
  6
HIDDEN2
 10
19.99999999999849
 20
-2.999999999997526
 30
0.0
 11
40.000000000017451
 21
-3.0000000000011928
 31
0.0
  0
CIRCLE
  5
C7A
  8
241
  6
CONTINUOUS
 10
25.999999999955602
 20
0.0
 30
0.0
 40
2.5
  0
CIRCLE
  5
C7C
  8
242
  6
CONTINUOUS
 10
25.999999999955602
 20
0.0
 30
0.0
 40
2.1000000000000001
  0
POLYLINE
  5
C7F
  8
241
  6
CONTINUOUS
 66
     1
 10
0.0
 20
0.0
 30
0.0
 70
     1
  0
VERTEX
  5
107F
  8
241
  6
CONTINUOUS
 10
27.249999999955602
 20
0.7216878364870321
 30
0.0
  0
VERTEX
  5
1080
  8
241
  6
CONTINUOUS
 10
25.999999999955602
 20
1.443375672974063
 30
0.0
  0
VERTEX
  5
1081
  8
241
  6
CONTINUOUS
 10
24.749999999955602
 20
0.7216878364870321
 30
0.0
  0
VERTEX
  5
1082
  8
241
  6
CONTINUOUS
 10
24.749999999955602
 20
-0.7216878364870321
 30
0.0
  0
VERTEX
  5
1083
  8
241
  6
CONTINUOUS
 10
25.999999999955602
 20
-1.443375672974063
 30
0.0
  0
VERTEX
  5
1084
  8
241
  6
CONTINUOUS
 10
27.249999999955602
 20
-0.7216878364870354
 30
0.0
  0
SEQEND
  5
1085
  8
241
  6
CONTINUOUS
  0
LINE
  5
CAB
  8
245
  6
CENTER2
 10
34.999999999999723
 20
3.5
 30
0.0
 11
34.999999999999723
 21
-3.5
 31
0.0
  0
CIRCLE
  5
CAC
  8
241
  6
CONTINUOUS
 10
34.999999999976723
 20
0.0
 30
0.0
 40
2.5
  0
CIRCLE
  5
CAD
  8
242
  6
CONTINUOUS
 10
34.999999999976723
 20
0.0
 30
0.0
 40
2.1000000000000001
  0
POLYLINE
  5
CAE
  8
241
  6
CONTINUOUS
 66
     1
 10
0.0
 20
0.0
 30
0.0
 70
     1
  0
VERTEX
  5
1086
  8
241
  6
CONTINUOUS
 10
36.249999999976723
 20
0.7216878364870321
 30
0.0
  0
VERTEX
  5
1087
  8
241
  6
CONTINUOUS
 10
34.999999999976723
 20
1.443375672974063
 30
0.0
  0
VERTEX
  5
1088
  8
241
  6
CONTINUOUS
 10
33.749999999976723
 20
0.7216878364870321
 30
0.0
  0
VERTEX
  5
1089
  8
241
  6
CONTINUOUS
 10
33.749999999976723
 20
-0.7216878364870321
 30
0.0
  0
VERTEX
  5
108A
  8
241
  6
CONTINUOUS
 10
34.999999999976708
 20
-1.443375672974063
 30
0.0
  0
VERTEX
  5
108B
  8
241
  6
CONTINUOUS
 10
36.249999999976708
 20
-0.7216878364870354
 30
0.0
  0
SEQEND
  5
108C
  8
241
  6
CONTINUOUS
  0
TEXT
  5
CC0
  8
241
  6
CONTINUOUS
 10
-24.0
 20
49.0
 30
0.0
 40
5.0
  1
C4-BSL6-40
  7
YOKO
 11
-24.0
 21
49.0
 31
0.0
 73
     1
  0
LINE
  5
CCB
  8
250
  6
CONTINUOUS
 10
0.0
 20
20.5
 30
0.0
 11
0.000000000000001
 21
36.0
 31
0.0
  0
LINE
  5
CCC
  8
250
  6
CONTINUOUS
 10
40.000000000017472
 20
5.5000000000037801
 30
0.0
 11
40.000000000017472
 21
36.0
 31
0.0
  0
LINE
  5
CCD
  8
250
  6
CONTINUOUS
 10
2.0
 20
35.0
 30
0.0
 11
38.000000000017479
 21
35.0
 31
0.0
  0
INSERT
  5
CCE
  8
250
  6
CONTINUOUS
  2
_OPEN
 10
0.0000000000000009
 20
35.0
 30
0.0
 41
2.0
 42
2.0
 43
2.0
 50
180.0
  0
INSERT
  5
CCF
  8
250
  6
CONTINUOUS
  2
_OPEN
 10
40.000000000017472
 20
35.0
 30
0.0
 41
2.0
 42
2.0
 43
2.0
  0
INSERT
  5
CD0
  8
241
  2
*U16
 10
0.0
 20
0.0
 30
0.0
  0
LINE
  5
CD2
  8
250
  6
CONTINUOUS
 10
16.99999999999892
 20
3.9999999999976961
 30
0.0
 11
16.99999999999892
 21
29.0
 31
0.0
  0
LINE
  5
CD3
  8
250
  6
CONTINUOUS
 10
40.000000000017472
 20
5.5000000000037801
 30
0.0
 11
40.000000000017472
 21
29.0
 31
0.0
  0
LINE
  5
CD4
  8
250
  6
CONTINUOUS
 10
18.99999999999892
 20
28.0
 30
0.0
 11
38.000000000017479
 21
28.0
 31
0.0
  0
INSERT
  5
CD5
  8
250
  6
CONTINUOUS
  2
_OPEN
 10
16.99999999999892
 20
28.0
 30
0.0
 41
2.0
 42
2.0
 43
2.0
 50
180.0
  0
INSERT
  5
CD6
  8
250
  6
CONTINUOUS
  2
_OPEN
 10
40.000000000017472
 20
28.0
 30
0.0
 41
2.0
 42
2.0
 43
2.0
  0
INSERT
  5
CD7
  8
241
  2
*U17
 10
0.0
 20
0.0
 30
0.0
  0
LINE
  5
CD8
  8
250
  6
CONTINUOUS
 10
37.223676273257752
 20
-11.499999999998691
 30
0.0
 11
60.5
 21
-11.4999999999987
 31
0.0
  0
LINE
  5
CD9
  8
250
  6
CONTINUOUS
 10
37.22367627325751
 20
11.500000000000851
 30
0.0
 11
60.5
 21
11.50000000000084
 31
0.0
  0
LINE
  5
CDA
  8
250
  6
CONTINUOUS
 10
59.5
 20
-9.4999999999986962
 30
0.0
 11
59.5
 21
9.5000000000008473
 31
0.0
  0
INSERT
  5
CDB
  8
250
  6
CONTINUOUS
  2
_OPEN
 10
59.5
 20
-11.4999999999987
 30
0.0
 41
2.0
 42
2.0
 43
2.0
 50
270.0
  0
INSERT
  5
CDC
  8
250
  6
CONTINUOUS
  2
_OPEN
 10
59.5
 20
11.50000000000084
 30
0.0
 41
2.0
 42
2.0
 43
2.0
 50
90.0
  0
INSERT
  5
CDD
  8
241
  2
*U18
 10
0.0
 20
0.0
 30
0.0
  0
LINE
  5
CDE
  8
250
  6
CONTINUOUS
 10
40.500000000017607
 20
-3.0000000000011928
 30
0.0
 11
53.5
 21
-3.0000000000011959
 31
0.0
  0
LINE
  5
CDF
  8
250
  6
CONTINUOUS
 10
40.500000000017508
 20
3.0000000000011928
 30
0.0
 11
53.5
 21
3.0000000000011888
 31
0.0
  0
LINE
  5
CE0
  8
250
  6
CONTINUOUS
 10
52.5
 20
-1.000000000001197
 30
0.0
 11
52.5
 21
1.000000000001189
 31
0.0
  0
INSERT
  5
CE1
  8
250
  6
CONTINUOUS
  2
_OPEN
 10
52.5
 20
-3.0000000000011959
 30
0.0
 41
2.0
 42
2.0
 43
2.0
 50
270.0
  0
INSERT
  5
CE2
  8
250
  6
CONTINUOUS
  2
_OPEN
 10
52.5
 20
3.0000000000011888
 30
0.0
 41
2.0
 42
2.0
 43
2.0
 50
90.0
  0
INSERT
  5
CE3
  8
241
  2
*U19
 10
0.0
 20
0.0
 30
0.0
  0
LINE
  5
D55
  8
241
  6
CONTINUOUS
 10
19.999999992791231
 20
-13.50000007520975
 30
0.0
 11
19.999999992791231
 21
13.500000000001419
 31
0.0
  0
LINE
  5
D5D
  8
240
  6
CONTINUOUS
 10
20.0
 20
20.0
 30
0.0
 11
20.0
 21
13.500000000001419
 31
0.0
  0
LINE
  5
F98
  8
245
  6
CENTER2
 10
-48.999999999999872
 20
17.642024170851109
 30
0.0
 11
-48.999999999999879
 21
-17.64202417085097
 31
0.0
  0
LINE
  5
F99
  8
245
  6
CENTER2
 10
-66.642024170850931
 20
0.0000000000000711
 30
0.0
 11
-31.357975829148842
 21
0.0000000000000711
 31
0.0
  0
POLYLINE
  8
240
  5
10A2
  66
     1
 10
0.000000
 20
0.000000
 30
0.000000
  70
     8
  0
VERTEX
  8
240
  5
10A3
 10
-42.4500
 20
11.3449
 30
0.000000
  70
    32
  0
VERTEX
  8
240
  5
10A4
 10
-42.3237
 20
11.2714
 30
0.000000
  70
    32
  0
VERTEX
  8
240
  5
10A5
 10
-42.1979
 20
11.1970
 30
0.000000
  70
    32
  0
VERTEX
  8
240
  5
10A6
 10
-42.0726
 20
11.1219
 30
0.000000
  70
    32
  0
VERTEX
  8
240
  5
10A7
 10
-41.9480
 20
11.0459
 30
0.000000
  70
    32
  0
VERTEX
  8
240
  5
10A8
 10
-41.8239
 20
10.9692
 30
0.000000
  70
    32
  0
VERTEX
  8
240
  5
10A9
 10
-41.7004
 20
10.8916
 30
0.000000
  70
    32
  0
VERTEX
  8
240
  5
10AA
 10
-41.5776
 20
10.8133
 30
0.000000
  70
    32
  0
VERTEX
  8
240
  5
10AB
 10
-41.4553
 20
10.7343
 30
0.000000
  70
    32
  0
VERTEX
  8
240
  5
10AC
 10
-41.3337
 20
10.6545
 30
0.000000
  70
    32
  0
VERTEX
  8
240
  5
10AD
 10
-41.2127
 20
10.5739
 30
0.000000
  70
    32
  0
VERTEX
  8
240
  5
10AE
 10
-41.0924
 20
10.4926
 30
0.000000
  70
    32
  0
VERTEX
  8
240
  5
10AF
 10
-40.9727
 20
10.4106
 30
0.000000
  70
    32
  0
VERTEX
  8
240
  5
10B0
 10
-40.8536
 20
10.3278
 30
0.000000
  70
    32
  0
VERTEX
  8
240
  5
10B1
 10
-40.7353
 20
10.2443
 30
0.000000
  70
    32
  0
VERTEX
  8
240
  5
10B2
 10
-40.6176
 20
10.1602
 30
0.000000
  70
    32
  0
VERTEX
  8
240
  5
10B3
 10
-40.5007
 20
10.0753
 30
0.000000
  70
    32
  0
VERTEX
  8
240
  5
10B4
 10
-40.3844
 20
9.98973
 30
0.000000
  70
    32
  0
VERTEX
  8
240
  5
10B5
 10
-40.2689
 20
9.90349
 30
0.000000
  70
    32
  0
VERTEX
  8
240
  5
10B6
 10
-40.1541
 20
9.81658
 30
0.000000
  70
    32
  0
VERTEX
  8
240
  5
10B7
 10
-40.0401
 20
9.72900
 30
0.000000
  70
    32
  0
VERTEX
  8
240
  5
10B8
 10
-39.9268
 20
9.64077
 30
0.000000
  70
    32
  0
VERTEX
  8
240
  5
10B9
 10
-39.8142
 20
9.55188
 30
0.000000
  70
    32
  0
VERTEX
  8
240
  5
10BA
 10
-39.7024
 20
9.46236
 30
0.000000
  70
    32
  0
VERTEX
  8
240
  5
10BB
 10
-39.5914
 20
9.37221
 30
0.000000
  70
    32
  0
VERTEX
  8
240
  5
10BC
 10
-39.4812
 20
9.28144
 30
0.000000
  70
    32
  0
VERTEX
  8
240
  5
10BD
 10
-39.3718
 20
9.19005
 30
0.000000
  70
    32
  0
VERTEX
  8
240
  5
10BE
 10
-39.2632
 20
9.09806
 30
0.000000
  70
    32
  0
VERTEX
  8
240
  5
10BF
 10
-39.1555
 20
9.00546
 30
0.000000
  70
    32
  0
VERTEX
  8
240
  5
10C0
 10
-39.0485
 20
8.91228
 30
0.000000
  70
    32
  0
VERTEX
  8
240
  5
10C1
 10
-38.9424
 20
8.81852
 30
0.000000
  70
    32
  0
VERTEX
  8
240
  5
10C2
 10
-38.8372
 20
8.72418
 30
0.000000
  70
    32
  0
VERTEX
  8
240
  5
10C3
 10
-38.7328
 20
8.62928
 30
0.000000
  70
    32
  0
VERTEX
  8
240
  5
10C4
 10
-38.6293
 20
8.53383
 30
0.000000
  70
    32
  0
VERTEX
  8
240
  5
10C5
 10
-38.5267
 20
8.43782
 30
0.000000
  70
    32
  0
VERTEX
  8
240
  5
10C6
 10
-38.4250
 20
8.34128
 30
0.000000
  70
    32
  0
VERTEX
  8
240
  5
10C7
 10
-38.3242
 20
8.24421
 30
0.000000
  70
    32
  0
VERTEX
  8
240
  5
10C8
 10
-38.2243
 20
8.14661
 30
0.000000
  70
    32
  0
VERTEX
  8
240
  5
10C9
 10
-38.1253
 20
8.04850
 30
0.000000
  70
    32
  0
VERTEX
  8
240
  5
10CA
 10
-38.0273
 20
7.94988
 30
0.000000
  70
    32
  0
VERTEX
  8
240
  5
10CB
 10
-37.9302
 20
7.85076
 30
0.000000
  70
    32
  0
VERTEX
  8
240
  5
10CC
 10
-37.8341
 20
7.75116
 30
0.000000
  70
    32
  0
VERTEX
  8
240
  5
10CD
 10
-37.7389
 20
7.65107
 30
0.000000
  70
    32
  0
VERTEX
  8
240
  5
10CE
 10
-37.6447
 20
7.55051
 30
0.000000
  70
    32
  0
VERTEX
  8
240
  5
10CF
 10
-37.5515
 20
7.44948
 30
0.000000
  70
    32
  0
VERTEX
  8
240
  5
10D0
 10
-37.4593
 20
7.34800
 30
0.000000
  70
    32
  0
VERTEX
  8
240
  5
10D1
 10
-37.3681
 20
7.24607
 30
0.000000
  70
    32
  0
VERTEX
  8
240
  5
10D2
 10
-37.2780
 20
7.14370
 30
0.000000
  70
    32
  0
VERTEX
  8
240
  5
10D3
 10
-37.1888
 20
7.04089
 30
0.000000
  70
    32
  0
VERTEX
  8
240
  5
10D4
 10
-37.1007
 20
6.93767
 30
0.000000
  70
    32
  0
VERTEX
  8
240
  5
10D5
 10
-37.0137
 20
6.83403
 30
0.000000
  70
    32
  0
VERTEX
  8
240
  5
10D6
 10
-36.9277
 20
6.72998
 30
0.000000
  70
    32
  0
VERTEX
  8
240
  5
10D7
 10
-36.8428
 20
6.62553
 30
0.000000
  70
    32
  0
VERTEX
  8
240
  5
10D8
 10
-36.7589
 20
6.52070
 30
0.000000
  70
    32
  0
VERTEX
  8
240
  5
10D9
 10
-36.6762
 20
6.41548
 30
0.000000
  70
    32
  0
VERTEX
  8
240
  5
10DA
 10
-36.5945
 20
6.30989
 30
0.000000
  70
    32
  0
VERTEX
  8
240
  5
10DB
 10
-36.5140
 20
6.20393
 30
0.000000
  70
    32
  0
VERTEX
  8
240
  5
10DC
 10
-36.4346
 20
6.09761
 30
0.000000
  70
    32
  0
VERTEX
  8
240
  5
10DD
 10
-36.3563
 20
5.99095
 30
0.000000
  70
    32
  0
VERTEX
  8
240
  5
10DE
 10
-36.2792
 20
5.88395
 30
0.000000
  70
    32
  0
VERTEX
  8
240
  5
10DF
 10
-36.2032
 20
5.77661
 30
0.000000
  70
    32
  0
VERTEX
  8
240
  5
10E0
 10
-36.1284
 20
5.66895
 30
0.000000
  70
    32
  0
VERTEX
  8
240
  5
10E1
 10
-36.0548
 20
5.56098
 30
0.000000
  70
    32
  0
VERTEX
  8
240
  5
10E2
 10
-35.9823
 20
5.45270
 30
0.000000
  70
    32
  0
VERTEX
  8
240
  5
10E3
 10
-35.9111
 20
5.34412
 30
0.000000
  70
    32
  0
VERTEX
  8
240
  5
10E4
 10
-35.8410
 20
5.23525
 30
0.000000
  70
    32
  0
VERTEX
  8
240
  5
10E5
 10
-35.7722
 20
5.12609
 30
0.000000
  70
    32
  0
VERTEX
  8
240
  5
10E6
 10
-35.7046
 20
5.01666
 30
0.000000
  70
    32
  0
VERTEX
  8
240
  5
10E7
 10
-35.6382
 20
4.90697
 30
0.000000
  70
    32
  0
VERTEX
  8
240
  5
10E8
 10
-35.5731
 20
4.79702
 30
0.000000
  70
    32
  0
VERTEX
  8
240
  5
10E9
 10
-35.5092
 20
4.68682
 30
0.000000
  70
    32
  0
VERTEX
  8
240
  5
10EA
 10
-35.4466
 20
4.57638
 30
0.000000
  70
    32
  0
VERTEX
  8
240
  5
10EB
 10
-35.3853
 20
4.46571
 30
0.000000
  70
    32
  0
VERTEX
  8
240
  5
10EC
 10
-35.3253
 20
4.35481
 30
0.000000
  70
    32
  0
VERTEX
  8
240
  5
10ED
 10
-35.2665
 20
4.24370
 30
0.000000
  70
    32
  0
VERTEX
  8
240
  5
10EE
 10
-35.2091
 20
4.13238
 30
0.000000
  70
    32
  0
VERTEX
  8
240
  5
10EF
 10
-35.1530
 20
4.02086
 30
0.000000
  70
    32
  0
VERTEX
  8
240
  5
10F0
 10
-35.0982
 20
3.90915
 30
0.000000
  70
    32
  0
VERTEX
  8
240
  5
10F1
 10
-35.0448
 20
3.79725
 30
0.000000
  70
    32
  0
VERTEX
  8
240
  5
10F2
 10
-34.9927
 20
3.68518
 30
0.000000
  70
    32
  0
VERTEX
  8
240
  5
10F3
 10
-34.9420
 20
3.57295
 30
0.000000
  70
    32
  0
VERTEX
  8
240
  5
10F4
 10
-34.8926
 20
3.46056
 30
0.000000
  70
    32
  0
VERTEX
  8
240
  5
10F5
 10
-34.8447
 20
3.34802
 30
0.000000
  70
    32
  0
VERTEX
  8
240
  5
10F6
 10
-34.7981
 20
3.23534
 30
0.000000
  70
    32
  0
VERTEX
  8
240
  5
10F7
 10
-34.7529
 20
3.12252
 30
0.000000
  70
    32
  0
VERTEX
  8
240
  5
10F8
 10
-34.7091
 20
3.00958
 30
0.000000
  70
    32
  0
VERTEX
  8
240
  5
10F9
 10
-34.6668
 20
2.89652
 30
0.000000
  70
    32
  0
VERTEX
  8
240
  5
10FA
 10
-34.6259
 20
2.78336
 30
0.000000
  70
    32
  0
VERTEX
  8
240
  5
10FB
 10
-34.5864
 20
2.67010
 30
0.000000
  70
    32
  0
VERTEX
  8
240
  5
10FC
 10
-34.5484
 20
2.55674
 30
0.000000
  70
    32
  0
VERTEX
  8
240
  5
10FD
 10
-34.5119
 20
2.44330
 30
0.000000
  70
    32
  0
VERTEX
  8
240
  5
10FE
 10
-34.4768
 20
2.32979
 30
0.000000
  70
    32
  0
VERTEX
  8
240
  5
10FF
 10
-34.4432
 20
2.21621
 30
0.000000
  70
    32
  0
VERTEX
  8
240
  5
1100
 10
-34.4111
 20
2.10257
 30
0.000000
  70
    32
  0
VERTEX
  8
240
  5
1101
 10
-34.3805
 20
1.98888
 30
0.000000
  70
    32
  0
VERTEX
  8
240
  5
1102
 10
-34.3515
 20
1.87515
 30
0.000000
  70
    32
  0
VERTEX
  8
240
  5
1103
 10
-34.3239
 20
1.76139
 30
0.000000
  70
    32
  0
VERTEX
  8
240
  5
1104
 10
-34.2979
 20
1.64760
 30
0.000000
  70
    32
  0
VERTEX
  8
240
  5
1105
 10
-34.2735
 20
1.53380
 30
0.000000
  70
    32
  0
VERTEX
  8
240
  5
1106
 10
-34.2506
 20
1.41998
 30
0.000000
  70
    32
  0
VERTEX
  8
240
  5
1107
 10
-34.2292
 20
1.30617
 30
0.000000
  70
    32
  0
VERTEX
  8
240
  5
1108
 10
-34.2095
 20
1.19237
 30
0.000000
  70
    32
  0
VERTEX
  8
240
  5
1109
 10
-34.1913
 20
1.07858
 30
0.000000
  70
    32
  0
VERTEX
  8
240
  5
110A
 10
-34.1748
 20
0.964815
 30
0.000000
  70
    32
  0
VERTEX
  8
240
  5
110B
 10
-34.1598
 20
0.851085
 30
0.000000
  70
    32
  0
VERTEX
  8
240
  5
110C
 10
-34.1465
 20
0.737396
 30
0.000000
  70
    32
  0
VERTEX
  8
240
  5
110D
 10
-34.1348
 20
0.623757
 30
0.000000
  70
    32
  0
VERTEX
  8
240
  5
110E
 10
-34.1247
 20
0.510176
 30
0.000000
  70
    32
  0
VERTEX
  8
240
  5
110F
 10
-34.1163
 20
0.396661
 30
0.000000
  70
    32
  0
VERTEX
  8
240
  5
1110
 10
-34.1095
 20
0.283220
 30
0.000000
  70
    32
  0
VERTEX
  8
240
  5
1111
 10
-34.1045
 20
0.169863
 30
0.000000
  70
    32
  0
VERTEX
  8
240
  5
1112
 10
-34.1011
 20
0.0565964
 30
0.000000
  70
    32
  0
VERTEX
  8
240
  5
1113
 10
-34.0994
 20
-0.0565706
 30
0.000000
  70
    32
  0
VERTEX
  8
240
  5
1114
 10
-34.0993
 20
-0.169633
 30
0.000000
  70
    32
  0
VERTEX
  8
240
  5
1115
 10
-34.1010
 20
-0.282587
 30
0.000000
  70
    32
  0
VERTEX
  8
240
  5
1116
 10
-34.1044
 20
-0.395431
 30
0.000000
  70
    32
  0
VERTEX
  8
240
  5
1117
 10
-34.1094
 20
-0.508161
 30
0.000000
  70
    32
  0
VERTEX
  8
240
  5
1118
 10
-34.1160
 20
-0.620776
 30
0.000000
  70
    32
  0
VERTEX
  8
240
  5
1119
 10
-34.1244
 20
-0.733272
 30
0.000000
  70
    32
  0
VERTEX
  8
240
  5
111A
 10
-34.1343
 20
-0.845647
 30
0.000000
  70
    32
  0
VERTEX
  8
240
  5
111B
 10
-34.1459
 20
-0.957898
 30
0.000000
  70
    32
  0
VERTEX
  8
240
  5
111C
 10
-34.1591
 20
-1.07002
 30
0.000000
  70
    32
  0
VERTEX
  8
240
  5
111D
 10
-34.1740
 20
-1.18202
 30
0.000000
  70
    32
  0
VERTEX
  8
240
  5
111E
 10
-34.1904
 20
-1.29388
 30
0.000000
  70
    32
  0
VERTEX
  8
240
  5
111F
 10
-34.2084
 20
-1.40561
 30
0.000000
  70
    32
  0
VERTEX
  8
240
  5
1120
 10
-34.2281
 20
-1.51720
 30
0.000000
  70
    32
  0
VERTEX
  8
240
  5
1121
 10
-34.2493
 20
-1.62864
 30
0.000000
  70
    32
  0
VERTEX
  8
240
  5
1122
 10
-34.2720
 20
-1.73995
 30
0.000000
  70
    32
  0
VERTEX
  8
240
  5
1123
 10
-34.2964
 20
-1.85111
 30
0.000000
  70
    32
  0
VERTEX
  8
240
  5
1124
 10
-34.3223
 20
-1.96212
 30
0.000000
  70
    32
  0
VERTEX
  8
240
  5
1125
 10
-34.3497
 20
-2.07298
 30
0.000000
  70
    32
  0
VERTEX
  8
240
  5
1126
 10
-34.3787
 20
-2.18369
 30
0.000000
  70
    32
  0
VERTEX
  8
240
  5
1127
 10
-34.4092
 20
-2.29424
 30
0.000000
  70
    32
  0
VERTEX
  8
240
  5
1128
 10
-34.4412
 20
-2.40463
 30
0.000000
  70
    32
  0
VERTEX
  8
240
  5
1129
 10
-34.4747
 20
-2.51486
 30
0.000000
  70
    32
  0
VERTEX
  8
240
  5
112A
 10
-34.5098
 20
-2.62492
 30
0.000000
  70
    32
  0
VERTEX
  8
240
  5
112B
 10
-34.5463
 20
-2.73482
 30
0.000000
  70
    32
  0
VERTEX
  8
240
  5
112C
 10
-34.5843
 20
-2.84454
 30
0.000000
  70
    32
  0
VERTEX
  8
240
  5
112D
 10
-34.6238
 20
-2.95409
 30
0.000000
  70
    32
  0
VERTEX
  8
240
  5
112E
 10
-34.6647
 20
-3.06347
 30
0.000000
  70
    32
  0
VERTEX
  8
240
  5
112F
 10
-34.7071
 20
-3.17267
 30
0.000000
  70
    32
  0
VERTEX
  8
240
  5
1130
 10
-34.7510
 20
-3.28168
 30
0.000000
  70
    32
  0
VERTEX
  8
240
  5
1131
 10
-34.7963
 20
-3.39052
 30
0.000000
  70
    32
  0
VERTEX
  8
240
  5
1132
 10
-34.8430
 20
-3.49916
 30
0.000000
  70
    32
  0
VERTEX
  8
240
  5
1133
 10
-34.8912
 20
-3.60762
 30
0.000000
  70
    32
  0
VERTEX
  8
240
  5
1134
 10
-34.9407
 20
-3.71588
 30
0.000000
  70
    32
  0
VERTEX
  8
240
  5
1135
 10
-34.9917
 20
-3.82395
 30
0.000000
  70
    32
  0
VERTEX
  8
240
  5
1136
 10
-35.0441
 20
-3.93183
 30
0.000000
  70
    32
  0
VERTEX
  8
240
  5
1137
 10
-35.0978
 20
-4.03950
 30
0.000000
  70
    32
  0
VERTEX
  8
240
  5
1138
 10
-35.1530
 20
-4.14697
 30
0.000000
  70
    32
  0
VERTEX
  8
240
  5
1139
 10
-35.2095
 20
-4.25423
 30
0.000000
  70
    32
  0
VERTEX
  8
240
  5
113A
 10
-35.2674
 20
-4.36128
 30
0.000000
  70
    32
  0
VERTEX
  8
240
  5
113B
 10
-35.3266
 20
-4.46813
 30
0.000000
  70
    32
  0
VERTEX
  8
240
  5
113C
 10
-35.3871
 20
-4.57476
 30
0.000000
  70
    32
  0
VERTEX
  8
240
  5
113D
 10
-35.4491
 20
-4.68117
 30
0.000000
  70
    32
  0
VERTEX
  8
240
  5
113E
 10
-35.5123
 20
-4.78736
 30
0.000000
  70
    32
  0
VERTEX
  8
240
  5
113F
 10
-35.5768
 20
-4.89333
 30
0.000000
  70
    32
  0
VERTEX
  8
240
  5
1140
 10
-35.6427
 20
-4.99908
 30
0.000000
  70
    32
  0
VERTEX
  8
240
  5
1141
 10
-35.7099
 20
-5.10460
 30
0.000000
  70
    32
  0
VERTEX
  8
240
  5
1142
 10
-35.7783
 20
-5.20989
 30
0.000000
  70
    32
  0
VERTEX
  8
240
  5
1143
 10
-35.8481
 20
-5.31495
 30
0.000000
  70
    32
  0
VERTEX
  8
240
  5
1144
 10
-35.9191
 20
-5.41977
 30
0.000000
  70
    32
  0
VERTEX
  8
240
  5
1145
 10
-35.9914
 20
-5.52435
 30
0.000000
  70
    32
  0
VERTEX
  8
240
  5
1146
 10
-36.0649
 20
-5.62869
 30
0.000000
  70
    32
  0
VERTEX
  8
240
  5
1147
 10
-36.1397
 20
-5.73279
 30
0.000000
  70
    32
  0
VERTEX
  8
240
  5
1148
 10
-36.2157
 20
-5.83664
 30
0.000000
  70
    32
  0
VERTEX
  8
240
  5
1149
 10
-36.2930
 20
-5.94024
 30
0.000000
  70
    32
  0
VERTEX
  8
240
  5
114A
 10
-36.3715
 20
-6.04359
 30
0.000000
  70
    32
  0
VERTEX
  8
240
  5
114B
 10
-36.4512
 20
-6.14668
 30
0.000000
  70
    32
  0
VERTEX
  8
240
  5
114C
 10
-36.5321
 20
-6.24952
 30
0.000000
  70
    32
  0
VERTEX
  8
240
  5
114D
 10
-36.6142
 20
-6.35209
 30
0.000000
  70
    32
  0
VERTEX
  8
240
  5
114E
 10
-36.6975
 20
-6.45441
 30
0.000000
  70
    32
  0
VERTEX
  8
240
  5
114F
 10
-36.7819
 20
-6.55646
 30
0.000000
  70
    32
  0
VERTEX
  8
240
  5
1150
 10
-36.8676
 20
-6.65824
 30
0.000000
  70
    32
  0
VERTEX
  8
240
  5
1151
 10
-36.9544
 20
-6.75975
 30
0.000000
  70
    32
  0
VERTEX
  8
240
  5
1152
 10
-37.0423
 20
-6.86098
 30
0.000000
  70
    32
  0
VERTEX
  8
240
  5
1153
 10
-37.1314
 20
-6.96194
 30
0.000000
  70
    32
  0
VERTEX
  8
240
  5
1154
 10
-37.2217
 20
-7.06262
 30
0.000000
  70
    32
  0
VERTEX
  8
240
  5
1155
 10
-37.3130
 20
-7.16302
 30
0.000000
  70
    32
  0
VERTEX
  8
240
  5
1156
 10
-37.4055
 20
-7.26313
 30
0.000000
  70
    32
  0
VERTEX
  8
240
  5
1157
 10
-37.4991
 20
-7.36295
 30
0.000000
  70
    32
  0
VERTEX
  8
240
  5
1158
 10
-37.5938
 20
-7.46249
 30
0.000000
  70
    32
  0
VERTEX
  8
240
  5
1159
 10
-37.6896
 20
-7.56173
 30
0.000000
  70
    32
  0
VERTEX
  8
240
  5
115A
 10
-37.7865
 20
-7.66068
 30
0.000000
  70
    32
  0
VERTEX
  8
240
  5
115B
 10
-37.8844
 20
-7.75933
 30
0.000000
  70
    32
  0
VERTEX
  8
240
  5
115C
 10
-37.9834
 20
-7.85767
 30
0.000000
  70
    32
  0
VERTEX
  8
240
  5
115D
 10
-38.0835
 20
-7.95572
 30
0.000000
  70
    32
  0
VERTEX
  8
240
  5
115E
 10
-38.1846
 20
-8.05345
 30
0.000000
  70
    32
  0
VERTEX
  8
240
  5
115F
 10
-38.2868
 20
-8.15088
 30
0.000000
  70
    32
  0
VERTEX
  8
240
  5
1160
 10
-38.3899
 20
-8.24800
 30
0.000000
  70
    32
  0
VERTEX
  8
240
  5
1161
 10
-38.4942
 20
-8.34480
 30
0.000000
  70
    32
  0
VERTEX
  8
240
  5
1162
 10
-38.5994
 20
-8.44128
 30
0.000000
  70
    32
  0
VERTEX
  8
240
  5
1163
 10
-38.7056
 20
-8.53745
 30
0.000000
  70
    32
  0
VERTEX
  8
240
  5
1164
 10
-38.8128
 20
-8.63329
 30
0.000000
  70
    32
  0
VERTEX
  8
240
  5
1165
 10
-38.9211
 20
-8.72881
 30
0.000000
  70
    32
  0
VERTEX
  8
240
  5
1166
 10
-39.0303
 20
-8.82399
 30
0.000000
  70
    32
  0
VERTEX
  8
240
  5
1167
 10
-39.1404
 20
-8.91885
 30
0.000000
  70
    32
  0
VERTEX
  8
240
  5
1168
 10
-39.2516
 20
-9.01337
 30
0.000000
  70
    32
  0
VERTEX
  8
240
  5
1169
 10
-39.3636
 20
-9.10756
 30
0.000000
  70
    32
  0
VERTEX
  8
240
  5
116A
 10
-39.4767
 20
-9.20141
 30
0.000000
  70
    32
  0
VERTEX
  8
240
  5
116B
 10
-39.5906
 20
-9.29491
 30
0.000000
  70
    32
  0
VERTEX
  8
240
  5
116C
 10
-39.7055
 20
-9.38807
 30
0.000000
  70
    32
  0
VERTEX
  8
240
  5
116D
 10
-39.8213
 20
-9.48089
 30
0.000000
  70
    32
  0
VERTEX
  8
240
  5
116E
 10
-39.9380
 20
-9.57335
 30
0.000000
  70
    32
  0
VERTEX
  8
240
  5
116F
 10
-40.0557
 20
-9.66546
 30
0.000000
  70
    32
  0
VERTEX
  8
240
  5
1170
 10
-40.1742
 20
-9.75722
 30
0.000000
  70
    32
  0
VERTEX
  8
240
  5
1171
 10
-40.2936
 20
-9.84862
 30
0.000000
  70
    32
  0
VERTEX
  8
240
  5
1172
 10
-40.4138
 20
-9.93965
 30
0.000000
  70
    32
  0
VERTEX
  8
240
  5
1173
 10
-40.5350
 20
-10.0303
 30
0.000000
  70
    32
  0
VERTEX
  8
240
  5
1174
 10
-40.6570
 20
-10.1206
 30
0.000000
  70
    32
  0
VERTEX
  8
240
  5
1175
 10
-40.7798
 20
-10.2106
 30
0.000000
  70
    32
  0
VERTEX
  8
240
  5
1176
 10
-40.9035
 20
-10.3001
 30
0.000000
  70
    32
  0
VERTEX
  8
240
  5
1177
 10
-41.0280
 20
-10.3893
 30
0.000000
  70
    32
  0
VERTEX
  8
240
  5
1178
 10
-41.1533
 20
-10.4781
 30
0.000000
  70
    32
  0
VERTEX
  8
240
  5
1179
 10
-41.2795
 20
-10.5666
 30
0.000000
  70
    32
  0
VERTEX
  8
240
  5
117A
 10
-41.4064
 20
-10.6546
 30
0.000000
  70
    32
  0
VERTEX
  8
240
  5
117B
 10
-41.5342
 20
-10.7423
 30
0.000000
  70
    32
  0
VERTEX
  8
240
  5
117C
 10
-41.6627
 20
-10.8296
 30
0.000000
  70
    32
  0
VERTEX
  8
240
  5
117D
 10
-41.7920
 20
-10.9165
 30
0.000000
  70
    32
  0
VERTEX
  8
240
  5
117E
 10
-41.9221
 20
-11.0029
 30
0.000000
  70
    32
  0
VERTEX
  8
240
  5
117F
 10
-42.0530
 20
-11.0890
 30
0.000000
  70
    32
  0
VERTEX
  8
240
  5
1180
 10
-42.1846
 20
-11.1747
 30
0.000000
  70
    32
  0
VERTEX
  8
240
  5
1181
 10
-42.3169
 20
-11.2600
 30
0.000000
  70
    32
  0
VERTEX
  8
240
  5
1182
 10
-42.4500
 20
-11.3449
 30
0.000000
  70
    32
  0
SEQEND
  8
240
  5
1183
  0
POLYLINE
  8
240
  5
1184
  66
     1
 10
0.000000
 20
0.000000
 30
0.000000
  70
     8
  0
VERTEX
  8
240
  5
1185
 10
-62.1000
 20
-1.69448e-009
 30
0.000000
  70
    32
  0
VERTEX
  8
240
  5
1186
 10
-62.0995
 20
0.146189
 30
0.000000
  70
    32
  0
VERTEX
  8
240
  5
1187
 10
-62.0980
 20
0.292306
 30
0.000000
  70
    32
  0
VERTEX
  8
240
  5
1188
 10
-62.0955
 20
0.438337
 30
0.000000
  70
    32
  0
VERTEX
  8
240
  5
1189
 10
-62.0921
 20
0.584269
 30
0.000000
  70
    32
  0
VERTEX
  8
240
  5
118A
 10
-62.0876
 20
0.730089
 30
0.000000
  70
    32
  0
VERTEX
  8
240
  5
118B
 10
-62.0822
 20
0.875784
 30
0.000000
  70
    32
  0
VERTEX
  8
240
  5
118C
 10
-62.0758
 20
1.02134
 30
0.000000
  70
    32
  0
VERTEX
  8
240
  5
118D
 10
-62.0685
 20
1.16675
 30
0.000000
  70
    32
  0
VERTEX
  8
240
  5
118E
 10
-62.0602
 20
1.31199
 30
0.000000
  70
    32
  0
VERTEX
  8
240
  5
118F
 10
-62.0509
 20
1.45705
 30
0.000000
  70
    32
  0
VERTEX
  8
240
  5
1190
 10
-62.0407
 20
1.60192
 30
0.000000
  70
    32
  0
VERTEX
  8
240
  5
1191
 10
-62.0295
 20
1.74659
 30
0.000000
  70
    32
  0
VERTEX
  8
240
  5
1192
 10
-62.0173
 20
1.89104
 30
0.000000
  70
    32
  0
VERTEX
  8
240
  5
1193
 10
-62.0042
 20
2.03527
 30
0.000000
  70
    32
  0
VERTEX
  8
240
  5
1194
 10
-61.9901
 20
2.17925
 30
0.000000
  70
    32
  0
VERTEX
  8
240
  5
1195
 10
-61.9751
 20
2.32297
 30
0.000000
  70
    32
  0
VERTEX
  8
240
  5
1196
 10
-61.9591
 20
2.46642
 30
0.000000
  70
    32
  0
VERTEX
  8
240
  5
1197
 10
-61.9422
 20
2.60959
 30
0.000000
  70
    32
  0
VERTEX
  8
240
  5
1198
 10
-61.9243
 20
2.75247
 30
0.000000
  70
    32
  0
VERTEX
  8
240
  5
1199
 10
-61.9055
 20
2.89504
 30
0.000000
  70
    32
  0
VERTEX
  8
240
  5
119A
 10
-61.8858
 20
3.03728
 30
0.000000
  70
    32
  0
VERTEX
  8
240
  5
119B
 10
-61.8651
 20
3.17919
 30
0.000000
  70
    32
  0
VERTEX
  8
240
  5
119C
 10
-61.8434
 20
3.32075
 30
0.000000
  70
    32
  0
VERTEX
  8
240
  5
119D
 10
-61.8209
 20
3.46195
 30
0.000000
  70
    32
  0
VERTEX
  8
240
  5
119E
 10
-61.7973
 20
3.60278
 30
0.000000
  70
    32
  0
VERTEX
  8
240
  5
119F
 10
-61.7729
 20
3.74322
 30
0.000000
  70
    32
  0
VERTEX
  8
240
  5
11A0
 10
-61.7475
 20
3.88326
 30
0.000000
  70
    32
  0
VERTEX
  8
240
  5
11A1
 10
-61.7212
 20
4.02288
 30
0.000000
  70
    32
  0
VERTEX
  8
240
  5
11A2
 10
-61.6940
 20
4.16208
 30
0.000000
  70
    32
  0
VERTEX
  8
240
  5
11A3
 10
-61.6658
 20
4.30084
 30
0.000000
  70
    32
  0
VERTEX
  8
240
  5
11A4
 10
-61.6368
 20
4.43915
 30
0.000000
  70
    32
  0
VERTEX
  8
240
  5
11A5
 10
-61.6068
 20
4.57698
 30
0.000000
  70
    32
  0
VERTEX
  8
240
  5
11A6
 10
-61.5758
 20
4.71434
 30
0.000000
  70
    32
  0
VERTEX
  8
240
  5
11A7
 10
-61.5440
 20
4.85121
 30
0.000000
  70
    32
  0
VERTEX
  8
240
  5
11A8
 10
-61.5113
 20
4.98758
 30
0.000000
  70
    32
  0
VERTEX
  8
240
  5
11A9
 10
-61.4776
 20
5.12342
 30
0.000000
  70
    32
  0
VERTEX
  8
240
  5
11AA
 10
-61.4430
 20
5.25873
 30
0.000000
  70
    32
  0
VERTEX
  8
240
  5
11AB
 10
-61.4075
 20
5.39350
 30
0.000000
  70
    32
  0
VERTEX
  8
240
  5
11AC
 10
-61.3712
 20
5.52771
 30
0.000000
  70
    32
  0
VERTEX
  8
240
  5
11AD
 10
-61.3339
 20
5.66135
 30
0.000000
  70
    32
  0
VERTEX
  8
240
  5
11AE
 10
-61.2957
 20
5.79440
 30
0.000000
  70
    32
  0
VERTEX
  8
240
  5
11AF
 10
-61.2566
 20
5.92686
 30
0.000000
  70
    32
  0
VERTEX
  8
240
  5
11B0
 10
-61.2166
 20
6.05871
 30
0.000000
  70
    32
  0
VERTEX
  8
240
  5
11B1
 10
-61.1757
 20
6.18993
 30
0.000000
  70
    32
  0
VERTEX
  8
240
  5
11B2
 10
-61.1339
 20
6.32052
 30
0.000000
  70
    32
  0
VERTEX
  8
240
  5
11B3
 10
-61.0912
 20
6.45046
 30
0.000000
  70
    32
  0
VERTEX
  8
240
  5
11B4
 10
-61.0476
 20
6.57973
 30
0.000000
  70
    32
  0
VERTEX
  8
240
  5
11B5
 10
-61.0032
 20
6.70833
 30
0.000000
  70
    32
  0
VERTEX
  8
240
  5
11B6
 10
-60.9578
 20
6.83624
 30
0.000000
  70
    32
  0
VERTEX
  8
240
  5
11B7
 10
-60.9116
 20
6.96345
 30
0.000000
  70
    32
  0
VERTEX
  8
240
  5
11B8
 10
-60.8645
 20
7.08994
 30
0.000000
  70
    32
  0
VERTEX
  8
240
  5
11B9
 10
-60.8165
 20
7.21570
 30
0.000000
  70
    32
  0
VERTEX
  8
240
  5
11BA
 10
-60.7676
 20
7.34073
 30
0.000000
  70
    32
  0
VERTEX
  8
240
  5
11BB
 10
-60.7179
 20
7.46499
 30
0.000000
  70
    32
  0
VERTEX
  8
240
  5
11BC
 10
-60.6672
 20
7.58849
 30
0.000000
  70
    32
  0
VERTEX
  8
240
  5
11BD
 10
-60.6158
 20
7.71121
 30
0.000000
  70
    32
  0
VERTEX
  8
240
  5
11BE
 10
-60.5634
 20
7.83314
 30
0.000000
  70
    32
  0
VERTEX
  8
240
  5
11BF
 10
-60.5101
 20
7.95426
 30
0.000000
  70
    32
  0
VERTEX
  8
240
  5
11C0
 10
-60.4560
 20
8.07455
 30
0.000000
  70
    32
  0
VERTEX
  8
240
  5
11C1
 10
-60.4011
 20
8.19402
 30
0.000000
  70
    32
  0
VERTEX
  8
240
  5
11C2
 10
-60.3452
 20
8.31264
 30
0.000000
  70
    32
  0
VERTEX
  8
240
  5
11C3
 10
-60.2886
 20
8.43040
 30
0.000000
  70
    32
  0
VERTEX
  8
240
  5
11C4
 10
-60.2310
 20
8.54728
 30
0.000000
  70
    32
  0
VERTEX
  8
240
  5
11C5
 10
-60.1726
 20
8.66328
 30
0.000000
  70
    32
  0
VERTEX
  8
240
  5
11C6
 10
-60.1133
 20
8.77839
 30
0.000000
  70
    32
  0
VERTEX
  8
240
  5
11C7
 10
-60.0532
 20
8.89258
 30
0.000000
  70
    32
  0
VERTEX
  8
240
  5
11C8
 10
-59.9923
 20
9.00584
 30
0.000000
  70
    32
  0
VERTEX
  8
240
  5
11C9
 10
-59.9305
 20
9.11817
 30
0.000000
  70
    32
  0
VERTEX
  8
240
  5
11CA
 10
-59.8678
 20
9.22954
 30
0.000000
  70
    32
  0
VERTEX
  8
240
  5
11CB
 10
-59.8043
 20
9.33995
 30
0.000000
  70
    32
  0
VERTEX
  8
240
  5
11CC
 10
-59.7400
 20
9.44939
 30
0.000000
  70
    32
  0
VERTEX
  8
240
  5
11CD
 10
-59.6748
 20
9.55783
 30
0.000000
  70
    32
  0
VERTEX
  8
240
  5
11CE
 10
-59.6087
 20
9.66527
 30
0.000000
  70
    32
  0
VERTEX
  8
240
  5
11CF
 10
-59.5419
 20
9.77169
 30
0.000000
  70
    32
  0
VERTEX
  8
240
  5
11D0
 10
-59.4742
 20
9.87708
 30
0.000000
  70
    32
  0
VERTEX
  8
240
  5
11D1
 10
-59.4057
 20
9.98143
 30
0.000000
  70
    32
  0
VERTEX
  8
240
  5
11D2
 10
-59.3363
 20
10.0847
 30
0.000000
  70
    32
  0
VERTEX
  8
240
  5
11D3
 10
-59.2661
 20
10.1869
 30
0.000000
  70
    32
  0
VERTEX
  8
240
  5
11D4
 10
-59.1951
 20
10.2881
 30
0.000000
  70
    32
  0
VERTEX
  8
240
  5
11D5
 10
-59.1233
 20
10.3881
 30
0.000000
  70
    32
  0
VERTEX
  8
240
  5
11D6
 10
-59.0506
 20
10.4871
 30
0.000000
  70
    32
  0
VERTEX
  8
240
  5
11D7
 10
-58.9771
 20
10.5849
 30
0.000000
  70
    32
  0
VERTEX
  8
240
  5
11D8
 10
-58.9028
 20
10.6816
 30
0.000000
  70
    32
  0
VERTEX
  8
240
  5
11D9
 10
-58.8277
 20
10.7771
 30
0.000000
  70
    32
  0
VERTEX
  8
240
  5
11DA
 10
-58.7518
 20
10.8715
 30
0.000000
  70
    32
  0
VERTEX
  8
240
  5
11DB
 10
-58.6751
 20
10.9647
 30
0.000000
  70
    32
  0
VERTEX
  8
240
  5
11DC
 10
-58.5975
 20
11.0567
 30
0.000000
  70
    32
  0
VERTEX
  8
240
  5
11DD
 10
-58.5192
 20
11.1475
 30
0.000000
  70
    32
  0
VERTEX
  8
240
  5
11DE
 10
-58.4400
 20
11.2371
 30
0.000000
  70
    32
  0
VERTEX
  8
240
  5
11DF
 10
-58.3600
 20
11.3254
 30
0.000000
  70
    32
  0
VERTEX
  8
240
  5
11E0
 10
-58.2793
 20
11.4126
 30
0.000000
  70
    32
  0
VERTEX
  8
240
  5
11E1
 10
-58.1977
 20
11.4984
 30
0.000000
  70
    32
  0
VERTEX
  8
240
  5
11E2
 10
-58.1153
 20
11.5830
 30
0.000000
  70
    32
  0
VERTEX
  8
240
  5
11E3
 10
-58.0321
 20
11.6664
 30
0.000000
  70
    32
  0
VERTEX
  8
240
  5
11E4
 10
-57.9482
 20
11.7484
 30
0.000000
  70
    32
  0
VERTEX
  8
240
  5
11E5
 10
-57.8634
 20
11.8291
 30
0.000000
  70
    32
  0
VERTEX
  8
240
  5
11E6
 10
-57.7779
 20
11.9086
 30
0.000000
  70
    32
  0
VERTEX
  8
240
  5
11E7
 10
-57.6916
 20
11.9866
 30
0.000000
  70
    32
  0
VERTEX
  8
240
  5
11E8
 10
-57.6045
 20
12.0634
 30
0.000000
  70
    32
  0
VERTEX
  8
240
  5
11E9
 10
-57.5166
 20
12.1388
 30
0.000000
  70
    32
  0
VERTEX
  8
240
  5
11EA
 10
-57.4279
 20
12.2128
 30
0.000000
  70
    32
  0
VERTEX
  8
240
  5
11EB
 10
-57.3384
 20
12.2854
 30
0.000000
  70
    32
  0
VERTEX
  8
240
  5
11EC
 10
-57.2482
 20
12.3566
 30
0.000000
  70
    32
  0
VERTEX
  8
240
  5
11ED
 10
-57.1572
 20
12.4264
 30
0.000000
  70
    32
  0
VERTEX
  8
240
  5
11EE
 10
-57.0654
 20
12.4948
 30
0.000000
  70
    32
  0
VERTEX
  8
240
  5
11EF
 10
-56.9728
 20
12.5618
 30
0.000000
  70
    32
  0
VERTEX
  8
240
  5
11F0
 10
-56.8795
 20
12.6273
 30
0.000000
  70
    32
  0
VERTEX
  8
240
  5
11F1
 10
-56.7854
 20
12.6913
 30
0.000000
  70
    32
  0
VERTEX
  8
240
  5
11F2
 10
-56.6905
 20
12.7539
 30
0.000000
  70
    32
  0
VERTEX
  8
240
  5
11F3
 10
-56.5949
 20
12.8150
 30
0.000000
  70
    32
  0
VERTEX
  8
240
  5
11F4
 10
-56.4985
 20
12.8746
 30
0.000000
  70
    32
  0
VERTEX
  8
240
  5
11F5
 10
-56.4013
 20
12.9326
 30
0.000000
  70
    32
  0
VERTEX
  8
240
  5
11F6
 10
-56.3034
 20
12.9892
 30
0.000000
  70
    32
  0
VERTEX
  8
240
  5
11F7
 10
-56.2048
 20
13.0442
 30
0.000000
  70
    32
  0
VERTEX
  8
240
  5
11F8
 10
-56.1054
 20
13.0977
 30
0.000000
  70
    32
  0
VERTEX
  8
240
  5
11F9
 10
-56.0052
 20
13.1497
 30
0.000000
  70
    32
  0
VERTEX
  8
240
  5
11FA
 10
-55.9044
 20
13.2003
 30
0.000000
  70
    32
  0
VERTEX
  8
240
  5
11FB
 10
-55.8028
 20
13.2493
 30
0.000000
  70
    32
  0
VERTEX
  8
240
  5
11FC
 10
-55.7005
 20
13.2969
 30
0.000000
  70
    32
  0
VERTEX
  8
240
  5
11FD
 10
-55.5975
 20
13.3430
 30
0.000000
  70
    32
  0
VERTEX
  8
240
  5
11FE
 10
-55.4938
 20
13.3876
 30
0.000000
  70
    32
  0
VERTEX
  8
240
  5
11FF
 10
-55.3894
 20
13.4307
 30
0.000000
  70
    32
  0
VERTEX
  8
240
  5
1200
 10
-55.2843
 20
13.4724
 30
0.000000
  70
    32
  0
VERTEX
  8
240
  5
1201
 10
-55.1785
 20
13.5127
 30
0.000000
  70
    32
  0
VERTEX
  8
240
  5
1202
 10
-55.0720
 20
13.5515
 30
0.000000
  70
    32
  0
VERTEX
  8
240
  5
1203
 10
-54.9649
 20
13.5888
 30
0.000000
  70
    32
  0
VERTEX
  8
240
  5
1204
 10
-54.8571
 20
13.6248
 30
0.000000
  70
    32
  0
VERTEX
  8
240
  5
1205
 10
-54.7487
 20
13.6593
 30
0.000000
  70
    32
  0
VERTEX
  8
240
  5
1206
 10
-54.6396
 20
13.6924
 30
0.000000
  70
    32
  0
VERTEX
  8
240
  5
1207
 10
-54.5299
 20
13.7240
 30
0.000000
  70
    32
  0
VERTEX
  8
240
  5
1208
 10
-54.4195
 20
13.7543
 30
0.000000
  70
    32
  0
VERTEX
  8
240
  5
1209
 10
-54.3085
 20
13.7831
 30
0.000000
  70
    32
  0
VERTEX
  8
240
  5
120A
 10
-54.1969
 20
13.8106
 30
0.000000
  70
    32
  0
VERTEX
  8
240
  5
120B
 10
-54.0847
 20
13.8367
 30
0.000000
  70
    32
  0
VERTEX
  8
240
  5
120C
 10
-53.9719
 20
13.8614
 30
0.000000
  70
    32
  0
VERTEX
  8
240
  5
120D
 10
-53.8584
 20
13.8847
 30
0.000000
  70
    32
  0
VERTEX
  8
240
  5
120E
 10
-53.7444
 20
13.9066
 30
0.000000
  70
    32
  0
VERTEX
  8
240
  5
120F
 10
-53.6298
 20
13.9272
 30
0.000000
  70
    32
  0
VERTEX
  8
240
  5
1210
 10
-53.5146
 20
13.9465
 30
0.000000
  70
    32
  0
VERTEX
  8
240
  5
1211
 10
-53.3988
 20
13.9643
 30
0.000000
  70
    32
  0
VERTEX
  8
240
  5
1212
 10
-53.2825
 20
13.9809
 30
0.000000
  70
    32
  0
VERTEX
  8
240
  5
1213
 10
-53.1656
 20
13.9960
 30
0.000000
  70
    32
  0
VERTEX
  8
240
  5
1214
 10
-53.0481
 20
14.0099
 30
0.000000
  70
    32
  0
VERTEX
  8
240
  5
1215
 10
-52.9301
 20
14.0224
 30
0.000000
  70
    32
  0
VERTEX
  8
240
  5
1216
 10
-52.8116
 20
14.0336
 30
0.000000
  70
    32
  0
VERTEX
  8
240
  5
1217
 10
-52.6925
 20
14.0435
 30
0.000000
  70
    32
  0
VERTEX
  8
240
  5
1218
 10
-52.5729
 20
14.0521
 30
0.000000
  70
    32
  0
VERTEX
  8
240
  5
1219
 10
-52.4528
 20
14.0594
 30
0.000000
  70
    32
  0
VERTEX
  8
240
  5
121A
 10
-52.3321
 20
14.0654
 30
0.000000
  70
    32
  0
VERTEX
  8
240
  5
121B
 10
-52.2110
 20
14.0701
 30
0.000000
  70
    32
  0
VERTEX
  8
240
  5
121C
 10
-52.0893
 20
14.0735
 30
0.000000
  70
    32
  0
VERTEX
  8
240
  5
121D
 10
-51.9672
 20
14.0756
 30
0.000000
  70
    32
  0
VERTEX
  8
240
  5
121E
 10
-51.8446
 20
14.0765
 30
0.000000
  70
    32
  0
VERTEX
  8
240
  5
121F
 10
-51.7215
 20
14.0760
 30
0.000000
  70
    32
  0
VERTEX
  8
240
  5
1220
 10
-51.5979
 20
14.0744
 30
0.000000
  70
    32
  0
VERTEX
  8
240
  5
1221
 10
-51.4738
 20
14.0715
 30
0.000000
  70
    32
  0
VERTEX
  8
240
  5
1222
 10
-51.3493
 20
14.0673
 30
0.000000
  70
    32
  0
VERTEX
  8
240
  5
1223
 10
-51.2244
 20
14.0619
 30
0.000000
  70
    32
  0
VERTEX
  8
240
  5
1224
 10
-51.0989
 20
14.0553
 30
0.000000
  70
    32
  0
VERTEX
  8
240
  5
1225
 10
-50.9731
 20
14.0474
 30
0.000000
  70
    32
  0
VERTEX
  8
240
  5
1226
 10
-50.8468
 20
14.0383
 30
0.000000
  70
    32
  0
VERTEX
  8
240
  5
1227
 10
-50.7201
 20
14.0280
 30
0.000000
  70
    32
  0
VERTEX
  8
240
  5
1228
 10
-50.5930
 20
14.0165
 30
0.000000
  70
    32
  0
VERTEX
  8
240
  5
1229
 10
-50.4654
 20
14.0037
 30
0.000000
  70
    32
  0
VERTEX
  8
240
  5
122A
 10
-50.3375
 20
13.9898
 30
0.000000
  70
    32
  0
VERTEX
  8
240
  5
122B
 10
-50.2091
 20
13.9747
 30
0.000000
  70
    32
  0
VERTEX
  8
240
  5
122C
 10
-50.0804
 20
13.9584
 30
0.000000
  70
    32
  0
VERTEX
  8
240
  5
122D
 10
-49.9512
 20
13.9409
 30
0.000000
  70
    32
  0
VERTEX
  8
240
  5
122E
 10
-49.8217
 20
13.9223
 30
0.000000
  70
    32
  0
VERTEX
  8
240
  5
122F
 10
-49.6918
 20
13.9025
 30
0.000000
  70
    32
  0
VERTEX
  8
240
  5
1230
 10
-49.5616
 20
13.8815
 30
0.000000
  70
    32
  0
VERTEX
  8
240
  5
1231
 10
-49.4310
 20
13.8594
 30
0.000000
  70
    32
  0
VERTEX
  8
240
  5
1232
 10
-49.3000
 20
13.8361
 30
0.000000
  70
    32
  0
VERTEX
  8
240
  5
1233
 10
-49.1687
 20
13.8117
 30
0.000000
  70
    32
  0
VERTEX
  8
240
  5
1234
 10
-49.0370
 20
13.7861
 30
0.000000
  70
    32
  0
VERTEX
  8
240
  5
1235
 10
-48.9051
 20
13.7594
 30
0.000000
  70
    32
  0
VERTEX
  8
240
  5
1236
 10
-48.7728
 20
13.7316
 30
0.000000
  70
    32
  0
VERTEX
  8
240
  5
1237
 10
-48.6401
 20
13.7027
 30
0.000000
  70
    32
  0
VERTEX
  8
240
  5
1238
 10
-48.5072
 20
13.6727
 30
0.000000
  70
    32
  0
VERTEX
  8
240
  5
1239
 10
-48.3739
 20
13.6415
 30
0.000000
  70
    32
  0
VERTEX
  8
240
  5
123A
 10
-48.2404
 20
13.6093
 30
0.000000
  70
    32
  0
VERTEX
  8
240
  5
123B
 10
-48.1066
 20
13.5760
 30
0.000000
  70
    32
  0
VERTEX
  8
240
  5
123C
 10
-47.9724
 20
13.5416
 30
0.000000
  70
    32
  0
VERTEX
  8
240
  5
123D
 10
-47.8380
 20
13.5061
 30
0.000000
  70
    32
  0
VERTEX
  8
240
  5
123E
 10
-47.7033
 20
13.4695
 30
0.000000
  70
    32
  0
VERTEX
  8
240
  5
123F
 10
-47.5684
 20
13.4318
 30
0.000000
  70
    32
  0
VERTEX
  8
240
  5
1240
 10
-47.4332
 20
13.3931
 30
0.000000
  70
    32
  0
VERTEX
  8
240
  5
1241
 10
-47.2977
 20
13.3534
 30
0.000000
  70
    32
  0
VERTEX
  8
240
  5
1242
 10
-47.1620
 20
13.3126
 30
0.000000
  70
    32
  0
VERTEX
  8
240
  5
1243
 10
-47.0261
 20
13.2707
 30
0.000000
  70
    32
  0
VERTEX
  8
240
  5
1244
 10
-46.8899
 20
13.2278
 30
0.000000
  70
    32
  0
VERTEX
  8
240
  5
1245
 10
-46.7535
 20
13.1839
 30
0.000000
  70
    32
  0
VERTEX
  8
240
  5
1246
 10
-46.6169
 20
13.1390
 30
0.000000
  70
    32
  0
VERTEX
  8
240
  5
1247
 10
-46.4801
 20
13.0930
 30
0.000000
  70
    32
  0
VERTEX
  8
240
  5
1248
 10
-46.3431
 20
13.0460
 30
0.000000
  70
    32
  0
VERTEX
  8
240
  5
1249
 10
-46.2058
 20
12.9981
 30
0.000000
  70
    32
  0
VERTEX
  8
240
  5
124A
 10
-46.0684
 20
12.9491
 30
0.000000
  70
    32
  0
VERTEX
  8
240
  5
124B
 10
-45.9308
 20
12.8991
 30
0.000000
  70
    32
  0
VERTEX
  8
240
  5
124C
 10
-45.7930
 20
12.8482
 30
0.000000
  70
    32
  0
VERTEX
  8
240
  5
124D
 10
-45.6551
 20
12.7962
 30
0.000000
  70
    32
  0
VERTEX
  8
240
  5
124E
 10
-45.5169
 20
12.7433
 30
0.000000
  70
    32
  0
VERTEX
  8
240
  5
124F
 10
-45.3787
 20
12.6894
 30
0.000000
  70
    32
  0
VERTEX
  8
240
  5
1250
 10
-45.2402
 20
12.6346
 30
0.000000
  70
    32
  0
VERTEX
  8
240
  5
1251
 10
-45.1016
 20
12.5788
 30
0.000000
  70
    32
  0
VERTEX
  8
240
  5
1252
 10
-44.9629
 20
12.5220
 30
0.000000
  70
    32
  0
VERTEX
  8
240
  5
1253
 10
-44.8241
 20
12.4643
 30
0.000000
  70
    32
  0
VERTEX
  8
240
  5
1254
 10
-44.6851
 20
12.4057
 30
0.000000
  70
    32
  0
VERTEX
  8
240
  5
1255
 10
-44.5460
 20
12.3461
 30
0.000000
  70
    32
  0
VERTEX
  8
240
  5
1256
 10
-44.4068
 20
12.2856
 30
0.000000
  70
    32
  0
VERTEX
  8
240
  5
1257
 10
-44.2675
 20
12.2242
 30
0.000000
  70
    32
  0
VERTEX
  8
240
  5
1258
 10
-44.1281
 20
12.1619
 30
0.000000
  70
    32
  0
VERTEX
  8
240
  5
1259
 10
-43.9886
 20
12.0986
 30
0.000000
  70
    32
  0
VERTEX
  8
240
  5
125A
 10
-43.8490
 20
12.0345
 30
0.000000
  70
    32
  0
VERTEX
  8
240
  5
125B
 10
-43.7093
 20
11.9695
 30
0.000000
  70
    32
  0
VERTEX
  8
240
  5
125C
 10
-43.5696
 20
11.9035
 30
0.000000
  70
    32
  0
VERTEX
  8
240
  5
125D
 10
-43.4298
 20
11.8367
 30
0.000000
  70
    32
  0
VERTEX
  8
240
  5
125E
 10
-43.2900
 20
11.7691
 30
0.000000
  70
    32
  0
VERTEX
  8
240
  5
125F
 10
-43.1501
 20
11.7005
 30
0.000000
  70
    32
  0
VERTEX
  8
240
  5
1260
 10
-43.0101
 20
11.6311
 30
0.000000
  70
    32
  0
VERTEX
  8
240
  5
1261
 10
-42.8701
 20
11.5608
 30
0.000000
  70
    32
  0
VERTEX
  8
240
  5
1262
 10
-42.7301
 20
11.4897
 30
0.000000
  70
    32
  0
VERTEX
  8
240
  5
1263
 10
-42.5901
 20
11.4177
 30
0.000000
  70
    32
  0
VERTEX
  8
240
  5
1264
 10
-42.4500
 20
11.3449
 30
0.000000
  70
    32
  0
SEQEND
  8
240
  5
1265
  0
POLYLINE
  8
240
  5
1266
  66
     1
 10
0.000000
 20
0.000000
 30
0.000000
  70
     8
  0
VERTEX
  8
240
  5
1267
 10
-42.4500
 20
-11.3449
 30
0.000000
  70
    32
  0
VERTEX
  8
240
  5
1268
 10
-42.5769
 20
-11.4176
 30
0.000000
  70
    32
  0
VERTEX
  8
240
  5
1269
 10
-42.7042
 20
-11.4893
 30
0.000000
  70
    32
  0
VERTEX
  8
240
  5
126A
 10
-42.8319
 20
-11.5602
 30
0.000000
  70
    32
  0
VERTEX
  8
240
  5
126B
 10
-42.9600
 20
-11.6302
 30
0.000000
  70
    32
  0
VERTEX
  8
240
  5
126C
 10
-43.0885
 20
-11.6993
 30
0.000000
  70
    32
  0
VERTEX
  8
240
  5
126D
 10
-43.2173
 20
-11.7674
 30
0.000000
  70
    32
  0
VERTEX
  8
240
  5
126E
 10
-43.3466
 20
-11.8347
 30
0.000000
  70
    32
  0
VERTEX
  8
240
  5
126F
 10
-43.4762
 20
-11.9010
 30
0.000000
  70
    32
  0
VERTEX
  8
240
  5
1270
 10
-43.6061
 20
-11.9665
 30
0.000000
  70
    32
  0
VERTEX
  8
240
  5
1271
 10
-43.7364
 20
-12.0310
 30
0.000000
  70
    32
  0
VERTEX
  8
240
  5
1272
 10
-43.8670
 20
-12.0945
 30
0.000000
  70
    32
  0
VERTEX
  8
240
  5
1273
 10
-43.9979
 20
-12.1572
 30
0.000000
  70
    32
  0
VERTEX
  8
240
  5
1274
 10
-44.1290
 20
-12.2189
 30
0.000000
  70
    32
  0
VERTEX
  8
240
  5
1275
 10
-44.2605
 20
-12.2796
 30
0.000000
  70
    32
  0
VERTEX
  8
240
  5
1276
 10
-44.3922
 20
-12.3394
 30
0.000000
  70
    32
  0
VERTEX
  8
240
  5
1277
 10
-44.5242
 20
-12.3983
 30
0.000000
  70
    32
  0
VERTEX
  8
240
  5
1278
 10
-44.6564
 20
-12.4562
 30
0.000000
  70
    32
  0
VERTEX
  8
240
  5
1279
 10
-44.7889
 20
-12.5131
 30
0.000000
  70
    32
  0
VERTEX
  8
240
  5
127A
 10
-44.9215
 20
-12.5690
 30
0.000000
  70
    32
  0
VERTEX
  8
240
  5
127B
 10
-45.0544
 20
-12.6240
 30
0.000000
  70
    32
  0
VERTEX
  8
240
  5
127C
 10
-45.1875
 20
-12.6780
 30
0.000000
  70
    32
  0
VERTEX
  8
240
  5
127D
 10
-45.3207
 20
-12.7311
 30
0.000000
  70
    32
  0
VERTEX
  8
240
  5
127E
 10
-45.4541
 20
-12.7831
 30
0.000000
  70
    32
  0
VERTEX
  8
240
  5
127F
 10
-45.5877
 20
-12.8342
 30
0.000000
  70
    32
  0
VERTEX
  8
240
  5
1280
 10
-45.7214
 20
-12.8842
 30
0.000000
  70
    32
  0
VERTEX
  8
240
  5
1281
 10
-45.8553
 20
-12.9333
 30
0.000000
  70
    32
  0
VERTEX
  8
240
  5
1282
 10
-45.9892
 20
-12.9813
 30
0.000000
  70
    32
  0
VERTEX
  8
240
  5
1283
 10
-46.1233
 20
-13.0283
 30
0.000000
  70
    32
  0
VERTEX
  8
240
  5
1284
 10
-46.2575
 20
-13.0744
 30
0.000000
  70
    32
  0
VERTEX
  8
240
  5
1285
 10
-46.3917
 20
-13.1194
 30
0.000000
  70
    32
  0
VERTEX
  8
240
  5
1286
 10
-46.5260
 20
-13.1633
 30
0.000000
  70
    32
  0
VERTEX
  8
240
  5
1287
 10
-46.6604
 20
-13.2063
 30
0.000000
  70
    32
  0
VERTEX
  8
240
  5
1288
 10
-46.7948
 20
-13.2482
 30
0.000000
  70
    32
  0
VERTEX
  8
240
  5
1289
 10
-46.9293
 20
-13.2890
 30
0.000000
  70
    32
  0
VERTEX
  8
240
  5
128A
 10
-47.0637
 20
-13.3289
 30
0.000000
  70
    32
  0
VERTEX
  8
240
  5
128B
 10
-47.1982
 20
-13.3676
 30
0.000000
  70
    32
  0
VERTEX
  8
240
  5
128C
 10
-47.3327
 20
-13.4053
 30
0.000000
  70
    32
  0
VERTEX
  8
240
  5
128D
 10
-47.4671
 20
-13.4420
 30
0.000000
  70
    32
  0
VERTEX
  8
240
  5
128E
 10
-47.6016
 20
-13.4776
 30
0.000000
  70
    32
  0
VERTEX
  8
240
  5
128F
 10
-47.7359
 20
-13.5121
 30
0.000000
  70
    32
  0
VERTEX
  8
240
  5
1290
 10
-47.8703
 20
-13.5456
 30
0.000000
  70
    32
  0
VERTEX
  8
240
  5
1291
 10
-48.0045
 20
-13.5779
 30
0.000000
  70
    32
  0
VERTEX
  8
240
  5
1292
 10
-48.1387
 20
-13.6092
 30
0.000000
  70
    32
  0
VERTEX
  8
240
  5
1293
 10
-48.2728
 20
-13.6394
 30
0.000000
  70
    32
  0
VERTEX
  8
240
  5
1294
 10
-48.4068
 20
-13.6685
 30
0.000000
  70
    32
  0
VERTEX
  8
240
  5
1295
 10
-48.5407
 20
-13.6965
 30
0.000000
  70
    32
  0
VERTEX
  8
240
  5
1296
 10
-48.6744
 20
-13.7234
 30
0.000000
  70
    32
  0
VERTEX
  8
240
  5
1297
 10
-48.8080
 20
-13.7492
 30
0.000000
  70
    32
  0
VERTEX
  8
240
  5
1298
 10
-48.9414
 20
-13.7739
 30
0.000000
  70
    32
  0
VERTEX
  8
240
  5
1299
 10
-49.0747
 20
-13.7975
 30
0.000000
  70
    32
  0
VERTEX
  8
240
  5
129A
 10
-49.2078
 20
-13.8199
 30
0.000000
  70
    32
  0
VERTEX
  8
240
  5
129B
 10
-49.3407
 20
-13.8412
 30
0.000000
  70
    32
  0
VERTEX
  8
240
  5
129C
 10
-49.4734
 20
-13.8614
 30
0.000000
  70
    32
  0
VERTEX
  8
240
  5
129D
 10
-49.6059
 20
-13.8805
 30
0.000000
  70
    32
  0
VERTEX
  8
240
  5
129E
 10
-49.7382
 20
-13.8984
 30
0.000000
  70
    32
  0
VERTEX
  8
240
  5
129F
 10
-49.8702
 20
-13.9151
 30
0.000000
  70
    32
  0
VERTEX
  8
240
  5
12A0
 10
-50.0020
 20
-13.9308
 30
0.000000
  70
    32
  0
VERTEX
  8
240
  5
12A1
 10
-50.1335
 20
-13.9452
 30
0.000000
  70
    32
  0
VERTEX
  8
240
  5
12A2
 10
-50.2647
 20
-13.9585
 30
0.000000
  70
    32
  0
VERTEX
  8
240
  5
12A3
 10
-50.3957
 20
-13.9706
 30
0.000000
  70
    32
  0
VERTEX
  8
240
  5
12A4
 10
-50.5263
 20
-13.9816
 30
0.000000
  70
    32
  0
VERTEX
  8
240
  5
12A5
 10
-50.6567
 20
-13.9914
 30
0.000000
  70
    32
  0
VERTEX
  8
240
  5
12A6
 10
-50.7867
 20
-14.0000
 30
0.000000
  70
    32
  0
VERTEX
  8
240
  5
12A7
 10
-50.9163
 20
-14.0074
 30
0.000000
  70
    32
  0
VERTEX
  8
240
  5
12A8
 10
-51.0456
 20
-14.0136
 30
0.000000
  70
    32
  0
VERTEX
  8
240
  5
12A9
 10
-51.1746
 20
-14.0187
 30
0.000000
  70
    32
  0
VERTEX
  8
240
  5
12AA
 10
-51.3032
 20
-14.0225
 30
0.000000
  70
    32
  0
VERTEX
  8
240
  5
12AB
 10
-51.4313
 20
-14.0251
 30
0.000000
  70
    32
  0
VERTEX
  8
240
  5
12AC
 10
-51.5591
 20
-14.0266
 30
0.000000
  70
    32
  0
VERTEX
  8
240
  5
12AD
 10
-51.6865
 20
-14.0268
 30
0.000000
  70
    32
  0
VERTEX
  8
240
  5
12AE
 10
-51.8134
 20
-14.0258
 30
0.000000
  70
    32
  0
VERTEX
  8
240
  5
12AF
 10
-51.9399
 20
-14.0235
 30
0.000000
  70
    32
  0
VERTEX
  8
240
  5
12B0
 10
-52.0660
 20
-14.0201
 30
0.000000
  70
    32
  0
VERTEX
  8
240
  5
12B1
 10
-52.1916
 20
-14.0154
 30
0.000000
  70
    32
  0
VERTEX
  8
240
  5
12B2
 10
-52.3167
 20
-14.0095
 30
0.000000
  70
    32
  0
VERTEX
  8
240
  5
12B3
 10
-52.4413
 20
-14.0023
 30
0.000000
  70
    32
  0
VERTEX
  8
240
  5
12B4
 10
-52.5655
 20
-13.9939
 30
0.000000
  70
    32
  0
VERTEX
  8
240
  5
12B5
 10
-52.6891
 20
-13.9842
 30
0.000000
  70
    32
  0
VERTEX
  8
240
  5
12B6
 10
-52.8122
 20
-13.9733
 30
0.000000
  70
    32
  0
VERTEX
  8
240
  5
12B7
 10
-52.9347
 20
-13.9611
 30
0.000000
  70
    32
  0
VERTEX
  8
240
  5
12B8
 10
-53.0568
 20
-13.9476
 30
0.000000
  70
    32
  0
VERTEX
  8
240
  5
12B9
 10
-53.1782
 20
-13.9329
 30
0.000000
  70
    32
  0
VERTEX
  8
240
  5
12BA
 10
-53.2991
 20
-13.9169
 30
0.000000
  70
    32
  0
VERTEX
  8
240
  5
12BB
 10
-53.4194
 20
-13.8996
 30
0.000000
  70
    32
  0
VERTEX
  8
240
  5
12BC
 10
-53.5391
 20
-13.8810
 30
0.000000
  70
    32
  0
VERTEX
  8
240
  5
12BD
 10
-53.6581
 20
-13.8612
 30
0.000000
  70
    32
  0
VERTEX
  8
240
  5
12BE
 10
-53.7766
 20
-13.8400
 30
0.000000
  70
    32
  0
VERTEX
  8
240
  5
12BF
 10
-53.8944
 20
-13.8176
 30
0.000000
  70
    32
  0
VERTEX
  8
240
  5
12C0
 10
-54.0116
 20
-13.7938
 30
0.000000
  70
    32
  0
VERTEX
  8
240
  5
12C1
 10
-54.1281
 20
-13.7687
 30
0.000000
  70
    32
  0
VERTEX
  8
240
  5
12C2
 10
-54.2439
 20
-13.7424
 30
0.000000
  70
    32
  0
VERTEX
  8
240
  5
12C3
 10
-54.3591
 20
-13.7146
 30
0.000000
  70
    32
  0
VERTEX
  8
240
  5
12C4
 10
-54.4736
 20
-13.6856
 30
0.000000
  70
    32
  0
VERTEX
  8
240
  5
12C5
 10
-54.5873
 20
-13.6553
 30
0.000000
  70
    32
  0
VERTEX
  8
240
  5
12C6
 10
-54.7003
 20
-13.6236
 30
0.000000
  70
    32
  0
VERTEX
  8
240
  5
12C7
 10
-54.8126
 20
-13.5905
 30
0.000000
  70
    32
  0
VERTEX
  8
240
  5
12C8
 10
-54.9242
 20
-13.5562
 30
0.000000
  70
    32
  0
VERTEX
  8
240
  5
12C9
 10
-55.0350
 20
-13.5204
 30
0.000000
  70
    32
  0
VERTEX
  8
240
  5
12CA
 10
-55.1450
 20
-13.4834
 30
0.000000
  70
    32
  0
VERTEX
  8
240
  5
12CB
 10
-55.2542
 20
-13.4449
 30
0.000000
  70
    32
  0
VERTEX
  8
240
  5
12CC
 10
-55.3626
 20
-13.4051
 30
0.000000
  70
    32
  0
VERTEX
  8
240
  5
12CD
 10
-55.4703
 20
-13.3640
 30
0.000000
  70
    32
  0
VERTEX
  8
240
  5
12CE
 10
-55.5771
 20
-13.3214
 30
0.000000
  70
    32
  0
VERTEX
  8
240
  5
12CF
 10
-55.6830
 20
-13.2775
 30
0.000000
  70
    32
  0
VERTEX
  8
240
  5
12D0
 10
-55.7882
 20
-13.2322
 30
0.000000
  70
    32
  0
VERTEX
  8
240
  5
12D1
 10
-55.8924
 20
-13.1855
 30
0.000000
  70
    32
  0
VERTEX
  8
240
  5
12D2
 10
-55.9958
 20
-13.1375
 30
0.000000
  70
    32
  0
VERTEX
  8
240
  5
12D3
 10
-56.0983
 20
-13.0880
 30
0.000000
  70
    32
  0
VERTEX
  8
240
  5
12D4
 10
-56.2000
 20
-13.0371
 30
0.000000
  70
    32
  0
VERTEX
  8
240
  5
12D5
 10
-56.3007
 20
-12.9848
 30
0.000000
  70
    32
  0
VERTEX
  8
240
  5
12D6
 10
-56.4005
 20
-12.9312
 30
0.000000
  70
    32
  0
VERTEX
  8
240
  5
12D7
 10
-56.4993
 20
-12.8760
 30
0.000000
  70
    32
  0
VERTEX
  8
240
  5
12D8
 10
-56.5972
 20
-12.8195
 30
0.000000
  70
    32
  0
VERTEX
  8
240
  5
12D9
 10
-56.6942
 20
-12.7616
 30
0.000000
  70
    32
  0
VERTEX
  8
240
  5
12DA
 10
-56.7903
 20
-12.7023
 30
0.000000
  70
    32
  0
VERTEX
  8
240
  5
12DB
 10
-56.8854
 20
-12.6416
 30
0.000000
  70
    32
  0
VERTEX
  8
240
  5
12DC
 10
-56.9796
 20
-12.5795
 30
0.000000
  70
    32
  0
VERTEX
  8
240
  5
12DD
 10
-57.0729
 20
-12.5160
 30
0.000000
  70
    32
  0
VERTEX
  8
240
  5
12DE
 10
-57.1652
 20
-12.4512
 30
0.000000
  70
    32
  0
VERTEX
  8
240
  5
12DF
 10
-57.2566
 20
-12.3851
 30
0.000000
  70
    32
  0
VERTEX
  8
240
  5
12E0
 10
-57.3471
 20
-12.3176
 30
0.000000
  70
    32
  0
VERTEX
  8
240
  5
12E1
 10
-57.4367
 20
-12.2487
 30
0.000000
  70
    32
  0
VERTEX
  8
240
  5
12E2
 10
-57.5253
 20
-12.1785
 30
0.000000
  70
    32
  0
VERTEX
  8
240
  5
12E3
 10
-57.6131
 20
-12.1071
 30
0.000000
  70
    32
  0
VERTEX
  8
240
  5
12E4
 10
-57.6999
 20
-12.0343
 30
0.000000
  70
    32
  0
VERTEX
  8
240
  5
12E5
 10
-57.7858
 20
-11.9602
 30
0.000000
  70
    32
  0
VERTEX
  8
240
  5
12E6
 10
-57.8708
 20
-11.8848
 30
0.000000
  70
    32
  0
VERTEX
  8
240
  5
12E7
 10
-57.9549
 20
-11.8082
 30
0.000000
  70
    32
  0
VERTEX
  8
240
  5
12E8
 10
-58.0381
 20
-11.7302
 30
0.000000
  70
    32
  0
VERTEX
  8
240
  5
12E9
 10
-58.1204
 20
-11.6510
 30
0.000000
  70
    32
  0
VERTEX
  8
240
  5
12EA
 10
-58.2018
 20
-11.5706
 30
0.000000
  70
    32
  0
VERTEX
  8
240
  5
12EB
 10
-58.2823
 20
-11.4889
 30
0.000000
  70
    32
  0
VERTEX
  8
240
  5
12EC
 10
-58.3619
 20
-11.4060
 30
0.000000
  70
    32
  0
VERTEX
  8
240
  5
12ED
 10
-58.4406
 20
-11.3218
 30
0.000000
  70
    32
  0
VERTEX
  8
240
  5
12EE
 10
-58.5184
 20
-11.2365
 30
0.000000
  70
    32
  0
VERTEX
  8
240
  5
12EF
 10
-58.5953
 20
-11.1499
 30
0.000000
  70
    32
  0
VERTEX
  8
240
  5
12F0
 10
-58.6713
 20
-11.0621
 30
0.000000
  70
    32
  0
VERTEX
  8
240
  5
12F1
 10
-58.7464
 20
-10.9731
 30
0.000000
  70
    32
  0
VERTEX
  8
240
  5
12F2
 10
-58.8207
 20
-10.8830
 30
0.000000
  70
    32
  0
VERTEX
  8
240
  5
12F3
 10
-58.8940
 20
-10.7917
 30
0.000000
  70
    32
  0
VERTEX
  8
240
  5
12F4
 10
-58.9665
 20
-10.6992
 30
0.000000
  70
    32
  0
VERTEX
  8
240
  5
12F5
 10
-59.0381
 20
-10.6055
 30
0.000000
  70
    32
  0
VERTEX
  8
240
  5
12F6
 10
-59.1089
 20
-10.5107
 30
0.000000
  70
    32
  0
VERTEX
  8
240
  5
12F7
 10
-59.1787
 20
-10.4148
 30
0.000000
  70
    32
  0
VERTEX
  8
240
  5
12F8
 10
-59.2477
 20
-10.3177
 30
0.000000
  70
    32
  0
VERTEX
  8
240
  5
12F9
 10
-59.3158
 20
-10.2196
 30
0.000000
  70
    32
  0
VERTEX
  8
240
  5
12FA
 10
-59.3830
 20
-10.1203
 30
0.000000
  70
    32
  0
VERTEX
  8
240
  5
12FB
 10
-59.4494
 20
-10.0199
 30
0.000000
  70
    32
  0
VERTEX
  8
240
  5
12FC
 10
-59.5149
 20
-9.91840
 30
0.000000
  70
    32
  0
VERTEX
  8
240
  5
12FD
 10
-59.5795
 20
-9.81583
 30
0.000000
  70
    32
  0
VERTEX
  8
240
  5
12FE
 10
-59.6433
 20
-9.71218
 30
0.000000
  70
    32
  0
VERTEX
  8
240
  5
12FF
 10
-59.7062
 20
-9.60747
 30
0.000000
  70
    32
  0
VERTEX
  8
240
  5
1300
 10
-59.7683
 20
-9.50170
 30
0.000000
  70
    32
  0
VERTEX
  8
240
  5
1301
 10
-59.8295
 20
-9.39488
 30
0.000000
  70
    32
  0
VERTEX
  8
240
  5
1302
 10
-59.8898
 20
-9.28702
 30
0.000000
  70
    32
  0
VERTEX
  8
240
  5
1303
 10
-59.9493
 20
-9.17813
 30
0.000000
  70
    32
  0
VERTEX
  8
240
  5
1304
 10
-60.0080
 20
-9.06822
 30
0.000000
  70
    32
  0
VERTEX
  8
240
  5
1305
 10
-60.0658
 20
-8.95729
 30
0.000000
  70
    32
  0
VERTEX
  8
240
  5
1306
 10
-60.1227
 20
-8.84536
 30
0.000000
  70
    32
  0
VERTEX
  8
240
  5
1307
 10
-60.1788
 20
-8.73244
 30
0.000000
  70
    32
  0
VERTEX
  8
240
  5
1308
 10
-60.2341
 20
-8.61852
 30
0.000000
  70
    32
  0
VERTEX
  8
240
  5
1309
 10
-60.2885
 20
-8.50364
 30
0.000000
  70
    32
  0
VERTEX
  8
240
  5
130A
 10
-60.3421
 20
-8.38778
 30
0.000000
  70
    32
  0
VERTEX
  8
240
  5
130B
 10
-60.3949
 20
-8.27096
 30
0.000000
  70
    32
  0
VERTEX
  8
240
  5
130C
 10
-60.4468
 20
-8.15319
 30
0.000000
  70
    32
  0
VERTEX
  8
240
  5
130D
 10
-60.4979
 20
-8.03448
 30
0.000000
  70
    32
  0
VERTEX
  8
240
  5
130E
 10
-60.5482
 20
-7.91483
 30
0.000000
  70
    32
  0
VERTEX
  8
240
  5
130F
 10
-60.5976
 20
-7.79427
 30
0.000000
  70
    32
  0
VERTEX
  8
240
  5
1310
 10
-60.6462
 20
-7.67278
 30
0.000000
  70
    32
  0
VERTEX
  8
240
  5
1311
 10
-60.6940
 20
-7.55039
 30
0.000000
  70
    32
  0
VERTEX
  8
240
  5
1312
 10
-60.7409
 20
-7.42710
 30
0.000000
  70
    32
  0
VERTEX
  8
240
  5
1313
 10
-60.7871
 20
-7.30293
 30
0.000000
  70
    32
  0
VERTEX
  8
240
  5
1314
 10
-60.8324
 20
-7.17787
 30
0.000000
  70
    32
  0
VERTEX
  8
240
  5
1315
 10
-60.8769
 20
-7.05194
 30
0.000000
  70
    32
  0
VERTEX
  8
240
  5
1316
 10
-60.9206
 20
-6.92515
 30
0.000000
  70
    32
  0
VERTEX
  8
240
  5
1317
 10
-60.9635
 20
-6.79751
 30
0.000000
  70
    32
  0
VERTEX
  8
240
  5
1318
 10
-61.0056
 20
-6.66902
 30
0.000000
  70
    32
  0
VERTEX
  8
240
  5
1319
 10
-61.0468
 20
-6.53970
 30
0.000000
  70
    32
  0
VERTEX
  8
240
  5
131A
 10
-61.0873
 20
-6.40955
 30
0.000000
  70
    32
  0
VERTEX
  8
240
  5
131B
 10
-61.1270
 20
-6.27859
 30
0.000000
  70
    32
  0
VERTEX
  8
240
  5
131C
 10
-61.1658
 20
-6.14681
 30
0.000000
  70
    32
  0
VERTEX
  8
240
  5
131D
 10
-61.2039
 20
-6.01424
 30
0.000000
  70
    32
  0
VERTEX
  8
240
  5
131E
 10
-61.2411
 20
-5.88087
 30
0.000000
  70
    32
  0
VERTEX
  8
240
  5
131F
 10
-61.2776
 20
-5.74673
 30
0.000000
  70
    32
  0
VERTEX
  8
240
  5
1320
 10
-61.3132
 20
-5.61181
 30
0.000000
  70
    32
  0
VERTEX
  8
240
  5
1321
 10
-61.3481
 20
-5.47612
 30
0.000000
  70
    32
  0
VERTEX
  8
240
  5
1322
 10
-61.3822
 20
-5.33968
 30
0.000000
  70
    32
  0
VERTEX
  8
240
  5
1323
 10
-61.4155
 20
-5.20250
 30
0.000000
  70
    32
  0
VERTEX
  8
240
  5
1324
 10
-61.4480
 20
-5.06458
 30
0.000000
  70
    32
  0
VERTEX
  8
240
  5
1325
 10
-61.4797
 20
-4.92592
 30
0.000000
  70
    32
  0
VERTEX
  8
240
  5
1326
 10
-61.5107
 20
-4.78655
 30
0.000000
  70
    32
  0
VERTEX
  8
240
  5
1327
 10
-61.5408
 20
-4.64647
 30
0.000000
  70
    32
  0
VERTEX
  8
240
  5
1328
 10
-61.5702
 20
-4.50569
 30
0.000000
  70
    32
  0
VERTEX
  8
240
  5
1329
 10
-61.5988
 20
-4.36421
 30
0.000000
  70
    32
  0
VERTEX
  8
240
  5
132A
 10
-61.6267
 20
-4.22205
 30
0.000000
  70
    32
  0
VERTEX
  8
240
  5
132B
 10
-61.6537
 20
-4.07922
 30
0.000000
  70
    32
  0
VERTEX
  8
240
  5
132C
 10
-61.6800
 20
-3.93572
 30
0.000000
  70
    32
  0
VERTEX
  8
240
  5
132D
 10
-61.7056
 20
-3.79156
 30
0.000000
  70
    32
  0
VERTEX
  8
240
  5
132E
 10
-61.7303
 20
-3.64675
 30
0.000000
  70
    32
  0
VERTEX
  8
240
  5
132F
 10
-61.7543
 20
-3.50130
 30
0.000000
  70
    32
  0
VERTEX
  8
240
  5
1330
 10
-61.7776
 20
-3.35523
 30
0.000000
  70
    32
  0
VERTEX
  8
240
  5
1331
 10
-61.8000
 20
-3.20853
 30
0.000000
  70
    32
  0
VERTEX
  8
240
  5
1332
 10
-61.8217
 20
-3.06122
 30
0.000000
  70
    32
  0
VERTEX
  8
240
  5
1333
 10
-61.8427
 20
-2.91330
 30
0.000000
  70
    32
  0
VERTEX
  8
240
  5
1334
 10
-61.8629
 20
-2.76479
 30
0.000000
  70
    32
  0
VERTEX
  8
240
  5
1335
 10
-61.8824
 20
-2.61569
 30
0.000000
  70
    32
  0
VERTEX
  8
240
  5
1336
 10
-61.9011
 20
-2.46602
 30
0.000000
  70
    32
  0
VERTEX
  8
240
  5
1337
 10
-61.9190
 20
-2.31578
 30
0.000000
  70
    32
  0
VERTEX
  8
240
  5
1338
 10
-61.9362
 20
-2.16498
 30
0.000000
  70
    32
  0
VERTEX
  8
240
  5
1339
 10
-61.9527
 20
-2.01362
 30
0.000000
  70
    32
  0
VERTEX
  8
240
  5
133A
 10
-61.9684
 20
-1.86173
 30
0.000000
  70
    32
  0
VERTEX
  8
240
  5
133B
 10
-61.9834
 20
-1.70930
 30
0.000000
  70
    32
  0
VERTEX
  8
240
  5
133C
 10
-61.9977
 20
-1.55635
 30
0.000000
  70
    32
  0
VERTEX
  8
240
  5
133D
 10
-62.0112
 20
-1.40289
 30
0.000000
  70
    32
  0
VERTEX
  8
240
  5
133E
 10
-62.0240
 20
-1.24892
 30
0.000000
  70
    32
  0
VERTEX
  8
240
  5
133F
 10
-62.0360
 20
-1.09445
 30
0.000000
  70
    32
  0
VERTEX
  8
240
  5
1340
 10
-62.0473
 20
-0.939493
 30
0.000000
  70
    32
  0
VERTEX
  8
240
  5
1341
 10
-62.0579
 20
-0.784057
 30
0.000000
  70
    32
  0
VERTEX
  8
240
  5
1342
 10
-62.0678
 20
-0.628151
 30
0.000000
  70
    32
  0
VERTEX
  8
240
  5
1343
 10
-62.0769
 20
-0.471783
 30
0.000000
  70
    32
  0
VERTEX
  8
240
  5
1344
 10
-62.0853
 20
-0.314963
 30
0.000000
  70
    32
  0
VERTEX
  8
240
  5
1345
 10
-62.0930
 20
-0.157699
 30
0.000000
  70
    32
  0
VERTEX
  8
240
  5
1346
 10
-62.1000
 20
1.37956e-009
 30
0.000000
  70
    32
  0
SEQEND
  8
240
  5
1347
  0
CIRCLE
  5
FC7
  8
241
  6
CONTINUOUS
 10
-48.999999999999943
 20
0.0000000000000711
 30
0.0
 40
6.2999999999999821
  0
CIRCLE
  5
FC8
  8
242
  6
CONTINUOUS
 10
-48.999999999999943
 20
0.0000000000000711
 30
0.0
 40
7.0
  0
ARC
  5
FCB
  8
241
  6
CONTINUOUS
 10
-63.999999999999943
 20
0.0000000000000711
 30
0.0
 40
4.0
 50
303.68130686566451
 51
57.096903795047481
  0
ARC
  5
FCC
  8
241
  6
CONTINUOUS
 10
-32.189999999999849
 20
0.0000000000000711
 30
0.0
 40
4.0
 50
129.75569266280161
 51
231.35348123898629
  0
CIRCLE
  5
FEA
  8
241
  6
CONTINUOUS
 10
-48.999999999999943
 20
0.0000000000000711
 30
0.0
 40
9.0
  0
VIEWPORT
  5
22
 67
     1
  8
0
 10
261.51769911504419
 20
148.5
 30
0.0
 40
523.0353982300885
 41
297.0
 68
     1
 69
     1
1001
ACAD
1000
MVIEW
1002
{
1070
    16
1010
0.0
1020
0.0
1030
0.0
1010
0.0
1020
0.0
1030
1.0
1040
0.0
1040
297.0
1040
261.51769911504419
1040
148.5
1040
50.0
1040
0.0
1040
0.0
1070
     0
1070
   100
1070
     1
1070
     1
1070
     0
1070
     0
1070
     0
1070
     0
1040
0.0
1040
0.0
1040
0.0
1040
1.0
1040
1.0
1040
10.0
1040
10.0
1070
     0
1002
{
1002
}
1002
}
1001
GENIUS_GENOBJ-N-SDF_13
1002
{
1000
OWNER
1000
GEN
1002
}
1001
GENIUS_GENODEF_13
1002
{
1000
HIER
1070
     0
1002
}
1002
{
1000
MANEDIT
1070
     0
1002
}
1002
{
1000
NOSEL
1070
     0
1002
}
1002
{
1000
BEHIND
1070
     0
1002
}
1002
{
1000
OTHER
1070
     0
1002
}
1002
{
1000
REACTOR
1002
}
1001
GENIUS_GENSCREG_15
1000
PF
1040
1.0
1000
DF
1040
1.0
1000
MIN
1011
0.0
1021
0.0
1031
0.0
1021
0.0
1031
0.0
1000
MAX
1011
523.0353982300885
1021
0.0
1031
0.0
1021
297.0
1031
0.0
1000
FLAGS
1070
     4
  0
ENDSEC
  0
EOF
