  0
SECTION
  2
HEADER
  9
$ACADVER
  1
AC1009
  9
$INSBASE
 10
0.0
 20
0.0
 30
0.0
  9
$EXTMIN
 10
-66.642024170850931
 20
-21.810434780668452
 30
0.0
  9
$EXTMAX
 10
64.0
 20
54.0
 30
0.0
  9
$LIMMIN
 10
0.0
 20
0.0
  9
$LIMMAX
 10
297.0
 20
210.0
  9
$ORTHOMODE
 70
     0
  9
$REGENMODE
 70
     1
  9
$FILLMODE
 70
     1
  9
$QTEXTMODE
 70
     0
  9
$MIRRTEXT
 70
     1
  9
$DRAGMODE
 70
     2
  9
$LTSCALE
 40
10.0
  9
$OSMODE
 70
    39
  9
$ATTMODE
 70
     1
  9
$TEXTSIZE
 40
3.0
  9
$TRACEWID
 40
1.0
  9
$TEXTSTYLE
  7
YOKO
  9
$CLAYER
  8
240
  9
$CELTYPE
  6
BYLAYER
  9
$CECOLOR
 62
   256
  9
$DIMSCALE
 40
1.0
  9
$DIMASZ
 40
2.0
  9
$DIMEXO
 40
0.5
  9
$DIMDLI
 40
2.5
  9
$DIMRND
 40
0.0
  9
$DIMDLE
 40
0.0
  9
$DIMEXE
 40
1.0
  9
$DIMTP
 40
0.0
  9
$DIMTM
 40
0.0
  9
$DIMTXT
 40
2.799999999999998
  9
$DIMCEN
 40
0.0
  9
$DIMTSZ
 40
0.0
  9
$DIMTOL
 70
     0
  9
$DIMLIM
 70
     0
  9
$DIMTIH
 70
     0
  9
$DIMTOH
 70
     0
  9
$DIMSE1
 70
     0
  9
$DIMSE2
 70
     0
  9
$DIMTAD
 70
     3
  9
$DIMZIN
 70
     8
  9
$DIMBLK
  1

  9
$DIMASO
 70
     1
  9
$DIMSHO
 70
     1
  9
$DIMPOST
  1

  9
$DIMAPOST
  1

  9
$DIMALT
 70
     0
  9
$DIMALTD
 70
     2
  9
$DIMALTF
 40
25.399999999999999
  9
$DIMLFAC
 40
1.0
  9
$DIMTOFL
 70
     1
  9
$DIMTVP
 40
0.0
  9
$DIMTIX
 70
     1
  9
$DIMSOXD
 70
     0
  9
$DIMSAH
 70
     1
  9
$DIMBLK1
  1
OPEN
  9
$DIMBLK2
  1
OPEN
  9
$DIMSTYLE
  2
BIGT
  9
$DIMCLRD
 70
     3
  9
$DIMCLRE
 70
     3
  9
$DIMCLRT
 70
    40
  9
$DIMTFAC
 40
1.0
  9
$DIMGAP
 40
1.0
  9
$LUNITS
 70
     2
  9
$LUPREC
 70
     3
  9
$SKETCHINC
 40
1.0
  9
$FILLETRAD
 40
0.0
  9
$AUNITS
 70
     0
  9
$AUPREC
 70
     3
  9
$MENU
  1
.
  9
$ELEVATION
 40
0.0
  9
$PELEVATION
 40
0.0
  9
$THICKNESS
 40
0.0
  9
$LIMCHECK
 70
     0
  9
$BLIPMODE
 70
     0
  9
$CHAMFERA
 40
10.0
  9
$CHAMFERB
 40
10.0
  9
$SKPOLY
 70
     0
  9
$TDCREATE
 40
2458250.3577490631
  9
$TDUPDATE
 40
2459607.4238449768
  9
$TDINDWG
 40
0.061926412
  9
$TDUSRTIMER
 40
0.0619262269
  9
$USRTIMER
 70
     1
  9
$ANGBASE
 50
0.0
  9
$ANGDIR
 70
     0
  9
$PDMODE
 70
    35
  9
$PDSIZE
 40
-5.0
  9
$PLINEWID
 40
0.0
  9
$COORDS
 70
     1
  9
$SPLFRAME
 70
     0
  9
$SPLINETYPE
 70
     6
  9
$SPLINESEGS
 70
     8
  9
$ATTDIA
 70
     1
  9
$ATTREQ
 70
     1
  9
$HANDLING
 70
     1
  9
$HANDSEED
  5
1A25
  9
$SURFTAB1
 70
     6
  9
$SURFTAB2
 70
     6
  9
$SURFTYPE
 70
     6
  9
$SURFU
 70
     6
  9
$SURFV
 70
     6
  9
$UCSNAME
  2

  9
$UCSORG
 10
0.0
 20
0.0
 30
0.0
  9
$UCSXDIR
 10
1.0
 20
0.0
 30
0.0
  9
$UCSYDIR
 10
0.0
 20
1.0
 30
0.0
  9
$PUCSNAME
  2

  9
$PUCSORG
 10
0.0
 20
0.0
 30
0.0
  9
$PUCSXDIR
 10
1.0
 20
0.0
 30
0.0
  9
$PUCSYDIR
 10
0.0
 20
1.0
 30
0.0
  9
$USERI1
 70
     1
  9
$USERI2
 70
     0
  9
$USERI3
 70
     0
  9
$USERI4
 70
     0
  9
$USERI5
 70
     0
  9
$USERR1
 40
0.0
  9
$USERR2
 40
0.0
  9
$USERR3
 40
0.0
  9
$USERR4
 40
0.0
  9
$USERR5
 40
0.0
  9
$WORLDVIEW
 70
     1
  9
$SHADEDGE
 70
     3
  9
$SHADEDIF
 70
    70
  9
$TILEMODE
 70
     1
  9
$MAXACTVP
 70
    16
  9
$PLIMCHECK
 70
     0
  9
$PEXTMIN
 10
1.0000000000000000E+020
 20
1.0000000000000000E+020
 30
1.0000000000000000E+020
  9
$PEXTMAX
 10
-1.0000000000000000E+020
 20
-1.0000000000000000E+020
 30
-1.0000000000000000E+020
  9
$PLIMMIN
 10
0.0
 20
0.0
  9
$PLIMMAX
 10
420.0
 20
297.0
  9
$UNITMODE
 70
     0
  9
$VISRETAIN
 70
     0
  9
$PLINEGEN
 70
     0
  9
$PSLTSCALE
 70
     1
  0
ENDSEC
  0
SECTION
  2
TABLES
  0
TABLE
  2
VPORT
 70
     1
  0
VPORT
  2
*ACTIVE
 70
     0
 10
0.0
 20
0.0
 11
1.0
 21
1.0
 12
1.31363302799771
 22
12.125800173232721
 13
0.0
 23
0.0
 14
7.0
 24
7.0
 15
7.0
 25
7.0
 16
0.0
 26
0.0
 36
1.0
 17
0.0
 27
0.0
 37
0.0
 40
99.160204491863368
 41
1.488859764089121
 42
50.0
 43
0.0
 44
0.0
 50
0.0
 51
0.0
 71
     0
 72
 20000
 73
     1
 74
     0
 75
     0
 76
     0
 77
     0
 78
     0
  0
ENDTAB
  0
TABLE
  2
LTYPE
 70
    16
  0
LTYPE
  2
CONTINUOUS
 70
     0
  3
Solid line
 72
    65
 73
     0
 40
0.0
  0
LTYPE
  2
CENTER2
 70
     0
  3
___ _ ___ _ ___ _ ___ _ ___ _ ___ _ ___ _ ___ _
 72
    65
 73
     4
 40
1.125
 49
0.75
 49
-0.125
 49
0.125
 49
-0.125
  0
LTYPE
  2
HIDDEN2
 70
     0
  3
_ _ _ _ _ _ _ _ _ _ _ _ _ _ _ _ _ _ _ _ _ _ _ _
 72
    65
 73
     2
 40
0.1875
 49
0.125
 49
-0.0625
  0
LTYPE
  2
HIDDEN
 70
     0
  3
Hidden __ __ __ __ __ __ __ __ __ __ __ __ __ _
 72
    65
 73
     2
 40
9.5249999999999986
 49
6.3499999999999988
 49
-3.1749999999999989
  0
LTYPE
  2
PHANTOM2
 70
     0
  3
___ _ _ ___ _ _ ___ _ _ ___ _ _ ___ _ _ ___ _ _
 72
    65
 73
     6
 40
1.25
 49
0.625
 49
-0.125
 49
0.125
 49
-0.125
 49
0.125
 49
-0.125
  0
LTYPE
  2
CENTER
 70
     0
  3
____ _ ____ _ ____ _ ____ _ ____ _ ____ _ ____ 
 72
    65
 73
     4
 40
2.0
 49
1.25
 49
-0.25
 49
0.25
 49
-0.25
  0
LTYPE
  2
AMCONSTR
 70
     0
  3
_______________________
 72
    65
 73
     2
 40
9999.0
 49
9999.0
 49
0.0
  0
LTYPE
  2
AM_ISO02W050
 70
     0
  3
__ __ __ __ __ __ __ __ __ __ __ __ __ __ __
 72
    65
 73
     2
 40
7.5
 49
6.0
 49
-1.5
  0
LTYPE
  2
ACJISTGB
 70
     0
  3
__ . . __ . .
 72
    65
 73
     6
 40
9.0
 49
4.0
 49
-1.0
 49
1.0
 49
-1.0
 49
1.0
 49
-1.0
  0
LTYPE
  2
ACJISTGL
 70
     0
  3
_ _ _ _ _
 72
    65
 73
     2
 40
3.0
 49
2.0
 49
-1.0
  0
LTYPE
  2
ACISOWELD
 70
     0
  3
_ _ _ _ _
 72
    65
 73
     2
 40
2.0
 49
2.0
 49
-1.0
  0
LTYPE
  2
ACISOTGB
 70
     0
  3
__ . . __ . .
 72
    65
 73
     6
 40
9.0
 49
4.0
 49
-1.0
 49
1.0
 49
-1.0
 49
1.0
 49
-1.0
  0
LTYPE
  2
ACISOTGL
 70
     0
  3
_ _ _ _ _
 72
    65
 73
     2
 40
3.0
 49
2.0
 49
-1.0
  0
LTYPE
  2
AMZIGZAG2
 70
     0
  3
/\/-/\/-/\/-/\/-/\/-/\/
 72
    65
 73
     2
 40
0.4401
 49
0.0001
 49
-0.4400000000000001
  0
LTYPE
  2
ACANSTGB
 70
     0
  3
__ . . __ . .
 72
    65
 73
     6
 40
0.35433070866
 49
0.15748031496
 49
-0.03937007874
 49
0.03937007874
 49
-0.03937007874
 49
0.03937007874
 49
-0.03937007874
  0
LTYPE
  2
ACANSTGL
 70
     0
  3
_ _ _ _ _
 72
    65
 73
     2
 40
0.11811023622
 49
0.07874015748
 49
-0.03937007874
  0
ENDTAB
  0
TABLE
  2
LAYER
 70
    10
  0
LAYER
  2
0
 70
     0
 62
     7
  6
CONTINUOUS
  0
LAYER
  2
240
 70
     0
 62
     4
  6
CONTINUOUS
  0
LAYER
  2
241
 70
     0
 62
   211
  6
CONTINUOUS
  0
LAYER
  2
242
 70
     0
 62
     3
  6
CONTINUOUS
  0
LAYER
  2
243
 70
     0
 62
   211
  6
HIDDEN2
  0
LAYER
  2
245
 70
     0
 62
     2
  6
CENTER2
  0
LAYER
  2
247
 70
     0
 62
    60
  6
CONTINUOUS
  0
LAYER
  2
250
 70
     0
 62
     3
  6
CONTINUOUS
  0
LAYER
  2
DEFPOINTS
 70
     0
 62
     7
  6
CONTINUOUS
  0
ENDTAB
  0
TABLE
  2
STYLE
 70
     8
  0
STYLE
  2
STANDARD
 70
     0
 40
0.0
 41
1.0
 50
0.0
 71
     0
 42
3.0
  3
romans.shx
  4
BIGFONT.SHX
  0
STYLE
  2
YOKO
 70
     0
 40
0.0
 41
1.0
 50
0.0
 71
     0
 42
3.0
  3
romans.shx
  4
extfont.shx
  0
STYLE
  2
ACJISTS
 70
     0
 40
1.0
 41
1.0
 50
0.0
 71
     0
 42
3.0
  3
amgdt.shx
  4
extfont.shx
  0
STYLE
  2
ACJISGDT
 70
     0
 40
0.0
 41
1.0
 50
0.0
 71
     0
 42
3.0
  3
amgdt.shx
  4
extfont.shx
  0
STYLE
  2
ACISOTS
 70
     0
 40
1.0
 41
1.0
 50
0.0
 71
     0
 42
3.0
  3
amgdt.shx
  4
extfont.shx
  0
STYLE
  2
ACISOGDT
 70
     0
 40
0.0
 41
1.0
 50
0.0
 71
     0
 42
3.0
  3
amgdt.shx
  4
extfont.shx
  0
STYLE
  2

 70
     1
 40
0.0
 41
1.0
 50
0.0
 71
     0
 42
3.0
  3
genltshp.shx
  4

  0
STYLE
  2
ACANSGDT
 70
     0
 40
0.0
 41
1.0
 50
0.0
 71
     0
 42
3.0
  3
amgdt.shx
  4

  0
ENDTAB
  0
TABLE
  2
VIEW
 70
     0
  0
ENDTAB
  0
TABLE
  2
UCS
 70
     0
  0
ENDTAB
  0
TABLE
  2
APPID
 70
    41
  0
APPID
  2
ACAD
 70
     0
  0
APPID
  2
GLOBAL
 70
     0
  0
APPID
  2
DETAIL
 70
     0
  0
APPID
  2
GRPNAME
 70
     0
  0
APPID
  2
GPARA
 70
     0
  0
APPID
  2
DCO15
 70
     0
  0
APPID
  2
ITEMNAME
 70
     0
  0
APPID
  2
GRADE_0
 70
     0
  0
APPID
  2
ACAD_DSTYLE_DIMJAG
 70
     0
  0
APPID
  2
ACAD_DSTYLE_DIMTALN
 70
     0
  0
APPID
  2
ACAD_NAV_VCDISPLAY
 70
     0
  0
APPID
  2
ACAD_MLEADERVER
 70
     0
  0
APPID
  2
ACAD_DSTYLE_DIMBREAK
 70
     0
  0
APPID
  2
GENIUS_GENODEF_13
 70
     0
  0
APPID
  2
GENIUS_GENOBJ-N-FIL_13
 70
     0
  0
APPID
  2
ACAD_EXEMPT_FROM_CAD_STANDARDS
 70
     0
  0
APPID
  2
ACAD_PSEXT
 70
     0
  0
APPID
  2
MCAD_NO_VIS
 70
     0
  0
APPID
  2
ACAD_TEMP_GRAPHIC
 70
     0
  0
APPID
  2
ACATTRIBSERVICES
 70
     0
  0
APPID
  2
GENIUS_GENSCREG_15
 70
     0
  0
APPID
  2
GENIUS_GENOBJ-N-SDF_13
 70
     0
  0
APPID
  2
GENIUS_GENREC_14
 70
     0
  0
APPID
  2
GENIUS_GENOBJ-N-REC_13
 70
     0
  0
APPID
  2
GENIUS_GENDIMSH_14
 70
     0
  0
APPID
  2
GENIUS_GENOBJ-N-DIM_13
 70
     0
  0
APPID
  2
GENIUS_GENDIM_13
 70
     0
  0
APPID
  2
GENIUS_GENDTOL_13
 70
     0
  0
APPID
  2
GENIUS_GENOLIS_13
 70
     0
  0
APPID
  2
GENIUS_GENOENT_13
 70
     0
  0
APPID
  2
GENIUS_GENOBJ-F-FEM_13
 70
     0
  0
APPID
  2
GENIUS_GENOREF_13
 70
     0
  0
APPID
  2
GENIUS_GEFFEM_13
 70
     0
  0
APPID
  2
GENIUS_GEFFEMP_13
 70
     0
  0
APPID
  2
AD_DRAW
 70
     0
  0
APPID
  2
DESIGNERASSEMBLIES
 70
     0
  0
APPID
  2
ACADM_DIM_EDIT
 70
     0
  0
APPID
  2
AMDT_DM_ADJ
 70
     0
  0
APPID
  2
GENIUS_GENFIL_13
 70
     0
  0
APPID
  2
GENIUS_GENOBJ-N-CHA_13
 70
     0
  0
APPID
  2
ACAECLAYERSTANDARD
 70
     0
  0
ENDTAB
  0
TABLE
  2
DIMSTYLE
 70
    29
  0
DIMSTYLE
  2
BIGT
 70
     0
  3

  4

  5
OPEN
  6

  7

 40
1.0
 41
2.2299999999999991
 42
0.5
 43
7.0
 44
1.0
 45
0.0
 46
0.0
 47
0.0
 48
0.01
140
2.7999999999999989
141
0.0
142
0.0
143
25.399999999999999
144
1.0
145
0.0
146
1.0
147
1.0
 71
     0
 72
     0
 73
     0
 74
     0
 75
     0
 76
     0
 77
     3
 78
     9
170
     0
171
     2
172
     1
173
     0
174
     1
175
     0
176
   256
177
   256
178
    40
  0
DIMSTYLE
  2
BIGT$0
 70
     0
  3

  4

  5
OPEN
  6

  7

 40
1.0
 41
2.2299999999999991
 42
0.5
 43
7.0
 44
1.0
 45
0.0
 46
0.0
 47
0.0
 48
0.01
140
2.7999999999999989
141
0.0
142
0.0
143
25.399999999999999
144
1.0
145
0.0
146
1.0
147
1.0
 71
     0
 72
     0
 73
     0
 74
     0
 75
     0
 76
     0
 77
     3
 78
     9
170
     0
171
     2
172
     1
173
     0
174
     1
175
     0
176
   256
177
   256
178
    40
  0
DIMSTYLE
  2
BIGT$2
 70
     0
  3

  4

  5
OPEN
  6

  7

 40
1.0
 41
2.2299999999999991
 42
0.5
 43
7.0
 44
1.0
 45
0.0
 46
0.0
 47
0.0
 48
0.01
140
2.7999999999999989
141
0.0
142
0.0
143
25.399999999999999
144
1.0
145
0.0
146
1.0
147
1.0
 71
     0
 72
     0
 73
     0
 74
     0
 75
     0
 76
     0
 77
     3
 78
     9
170
     0
171
     2
172
     1
173
     0
174
     0
175
     0
176
   256
177
   256
178
    40
  0
DIMSTYLE
  2
BIGT$3
 70
     0
  3

  4

  5
OPEN
  6

  7

 40
1.0
 41
2.2299999999999991
 42
0.5
 43
2.5
 44
1.0
 45
0.0
 46
0.0
 47
0.0
 48
0.01
140
2.7999999999999989
141
0.0
142
0.0
143
25.399999999999999
144
1.0
145
0.0
146
1.0
147
1.0
 71
     0
 72
     0
 73
     0
 74
     0
 75
     0
 76
     0
 77
     3
 78
     9
170
     0
171
     2
172
     1
173
     0
174
     0
175
     0
176
   256
177
   256
178
    40
  0
DIMSTYLE
  2
BIGT$4
 70
     0
  3

  4

  5
OPEN
  6

  7

 40
1.0
 41
2.2299999999999991
 42
0.5
 43
2.5
 44
1.0
 45
0.0
 46
0.0
 47
0.0
 48
0.01
140
2.7999999999999989
141
0.0
142
0.0
143
25.399999999999999
144
1.0
145
0.0
146
1.0
147
1.0
 71
     0
 72
     0
 73
     0
 74
     0
 75
     0
 76
     0
 77
     3
 78
     9
170
     0
171
     2
172
     1
173
     0
174
     0
175
     0
176
   256
177
   256
178
    40
  0
DIMSTYLE
  2
BIGT$6
 70
     0
  3

  4

  5
OPEN
  6

  7

 40
1.0
 41
2.2299999999999991
 42
0.5
 43
2.5
 44
1.0
 45
0.0
 46
0.0
 47
0.0
 48
0.01
140
2.7999999999999989
141
0.0
142
0.0
143
25.399999999999999
144
1.0
145
0.0
146
1.0
147
1.0
 71
     0
 72
     0
 73
     0
 74
     0
 75
     0
 76
     0
 77
     3
 78
     9
170
     0
171
     2
172
     1
173
     0
174
     0
175
     0
176
   256
177
   256
178
    40
  0
DIMSTYLE
  2
BIGT$7
 70
     0
  3

  4

  5
OPEN
  6

  7

 40
0.0
 41
2.2299999999999991
 42
0.5
 43
7.0
 44
1.0
 45
0.0
 46
0.0
 47
0.0
 48
0.01
140
2.7999999999999989
141
0.0
142
0.0
143
25.399999999999999
144
1.0
145
0.0
146
1.0
147
1.0
 71
     0
 72
     0
 73
     0
 74
     0
 75
     0
 76
     0
 77
     3
 78
     9
170
     0
171
     2
172
     0
173
     0
174
     0
175
     0
176
   256
177
   256
178
    40
  0
DIMSTYLE
  2
BIGT$SF
 70
     0
  3

  4

  5
OPEN
  6

  7

 40
1.0
 41
2.2299999999999991
 42
0.5
 43
7.0
 44
1.0
 45
0.0
 46
0.0
 47
0.0
 48
0.0
140
2.7999999999999989
141
0.0
142
0.0
143
25.399999999999999
144
1.0
145
0.0
146
1.0
147
1.0
 71
     0
 72
     0
 73
     0
 74
     0
 75
     0
 76
     0
 77
     3
 78
     9
170
     0
171
     2
172
     1
173
     0
174
     0
175
     0
176
   256
177
   256
178
    40
  0
DIMSTYLE
  2
BIGT$SH
 70
     0
  3

  4

  5
OPEN
  6

  7

 40
1.0
 41
2.2299999999999991
 42
0.5
 43
7.0
 44
1.0
 45
0.0
 46
0.0
 47
0.0
 48
0.0
140
2.7999999999999989
141
0.0
142
0.0
143
25.399999999999999
144
1.0
145
0.0
146
1.0
147
1.0
 71
     0
 72
     0
 73
     0
 74
     0
 75
     0
 76
     0
 77
     3
 78
     9
170
     0
171
     2
172
     1
173
     0
174
     0
175
     0
176
   256
177
   256
178
    40
  0
DIMSTYLE
  2
AM_ISO
 70
     0
  3

  4
"
  5

  6

  7

 40
1.0
 41
2.5
 42
1.0
 43
10.0
 44
1.0
 45
0.0
 46
0.0
 47
0.1
 48
0.1
140
3.5
141
0.0
142
0.0
143
0.0393701
144
1.0
145
0.0
146
0.71
147
1.5
 71
     0
 72
     0
 73
     0
 74
     0
 75
     0
 76
     0
 77
     1
 78
     8
170
     0
171
     2
172
     1
173
     0
174
     0
175
     0
176
   256
177
   256
178
     2
  0
DIMSTYLE
  2
AM_ISO$3
 70
     0
  3

  4
"
  5

  6

  7

 40
1.0
 41
2.5
 42
1.0
 43
10.0
 44
1.0
 45
0.0
 46
0.0
 47
0.1
 48
0.1
140
3.5
141
0.0
142
0.0
143
0.0393701
144
1.0
145
0.0
146
0.71
147
1.5
 71
     0
 72
     0
 73
     0
 74
     1
 75
     0
 76
     0
 77
     1
 78
     8
170
     0
171
     2
172
     0
173
     0
174
     0
175
     0
176
   256
177
   256
178
     2
  0
DIMSTYLE
  2
AM_ISO$4
 70
     0
  3

  4
"
  5

  6

  7

 40
1.0
 41
2.5
 42
1.0
 43
10.0
 44
1.0
 45
0.0
 46
0.0
 47
0.1
 48
0.1
140
3.5
141
0.0
142
0.0
143
0.0393701
144
1.0
145
0.0
146
0.71
147
1.5
 71
     0
 72
     0
 73
     0
 74
     1
 75
     0
 76
     0
 77
     1
 78
     8
170
     0
171
     2
172
     0
173
     0
174
     0
175
     0
176
   256
177
   256
178
     2
  0
DIMSTYLE
  2
AM_ISO$6
 70
     0
  3

  4
"
  5

  6

  7

 40
1.0
 41
2.5
 42
1.0
 43
10.0
 44
1.0
 45
0.0
 46
0.0
 47
0.1
 48
0.1
140
3.5
141
0.0
142
0.0
143
0.0393701
144
1.0
145
0.0
146
0.71
147
1.5
 71
     0
 72
     0
 73
     0
 74
     0
 75
     0
 76
     0
 77
     0
 78
     8
170
     0
171
     2
172
     1
173
     0
174
     0
175
     0
176
   256
177
   256
178
     2
  0
DIMSTYLE
  2
AM_ISO$7
 70
     0
  3

  4
"
  5

  6

  7

 40
1.0
 41
2.5
 42
1.0
 43
10.0
 44
1.0
 45
0.0
 46
0.0
 47
0.1
 48
0.1
140
5.0
141
0.0
142
0.0
143
0.0393701
144
1.0
145
0.0
146
0.71
147
1.5
 71
     0
 72
     0
 73
     0
 74
     0
 75
     0
 76
     0
 77
     1
 78
     8
170
     0
171
     2
172
     1
173
     0
174
     0
175
     0
176
   256
177
   256
178
     2
  0
DIMSTYLE
  2
AM_ISO$SF
 70
     0
  3

  4
"
  5

  6

  7

 40
1.0
 41
2.5
 42
1.0
 43
10.0
 44
1.0
 45
0.0
 46
0.0
 47
0.1
 48
0.1
140
3.5
141
0.0
142
0.0
143
0.0393701
144
1.0
145
0.0
146
0.71
147
1.5
 71
     0
 72
     0
 73
     0
 74
     0
 75
     1
 76
     1
 77
     1
 78
     8
170
     0
171
     2
172
     1
173
     0
174
     0
175
     0
176
   256
177
   256
178
     2
  0
DIMSTYLE
  2
AM_ISO$SH
 70
     0
  3

  4
"
  5

  6
GENAXEH
  7

 40
1.0
 41
2.5
 42
1.0
 43
10.0
 44
1.0
 45
0.0
 46
0.0
 47
0.1
 48
0.1
140
3.5
141
0.0
142
0.0
143
0.0393701
144
2.0
145
0.0
146
0.71
147
1.5
 71
     0
 72
     0
 73
     0
 74
     0
 75
     1
 76
     1
 77
     1
 78
     8
170
     0
171
     2
172
     1
173
     1
174
     0
175
     0
176
   256
177
   256
178
     2
  0
DIMSTYLE
  2
TECHNICAL_OSAKA
 70
     0
  3

  4
"
  5
OPEN30
  6

  7

 40
1.0
 41
2.5
 42
1.0
 43
10.0
 44
1.0
 45
0.0
 46
0.0
 47
0.1
 48
0.1
140
2.7999999999999989
141
0.0
142
0.0
143
0.0393701
144
1.0
145
0.0
146
0.71
147
1.5
 71
     0
 72
     0
 73
     0
 74
     0
 75
     0
 76
     0
 77
     3
 78
     8
170
     0
171
     2
172
     1
173
     0
174
     0
175
     0
176
   256
177
   256
178
    40
  0
DIMSTYLE
  2
TECHNICAL_OSAKA$3
 70
     0
  3

  4
"
  5
OPEN30
  6

  7

 40
1.0
 41
2.5
 42
1.0
 43
10.0
 44
1.0
 45
0.0
 46
0.0
 47
0.1
 48
0.1
140
2.7999999999999989
141
0.0
142
0.0
143
0.0393701
144
1.0
145
0.0
146
0.71
147
1.5
 71
     0
 72
     0
 73
     0
 74
     1
 75
     0
 76
     0
 77
     3
 78
     8
170
     0
171
     2
172
     0
173
     0
174
     0
175
     0
176
   256
177
   256
178
    40
  0
DIMSTYLE
  2
TECHNICAL_OSAKA$4
 70
     0
  3

  4
"
  5
OPEN30
  6

  7

 40
1.0
 41
2.5
 42
1.0
 43
10.0
 44
1.0
 45
0.0
 46
0.0
 47
0.1
 48
0.1
140
2.7999999999999989
141
0.0
142
0.0
143
0.0393701
144
1.0
145
0.0
146
0.71
147
1.5
 71
     0
 72
     0
 73
     0
 74
     1
 75
     0
 76
     0
 77
     3
 78
     8
170
     0
171
     2
172
     0
173
     0
174
     0
175
     0
176
   256
177
   256
178
    40
  0
DIMSTYLE
  2
TECHNICAL_OSAKA$6
 70
     0
  3

  4
"
  5
OPEN30
  6

  7

 40
1.0
 41
2.5
 42
1.0
 43
10.0
 44
1.0
 45
0.0
 46
0.0
 47
0.1
 48
0.1
140
2.7999999999999989
141
0.0
142
0.0
143
0.0393701
144
1.0
145
0.0
146
0.71
147
1.5
 71
     0
 72
     0
 73
     0
 74
     0
 75
     0
 76
     0
 77
     0
 78
     8
170
     0
171
     2
172
     1
173
     0
174
     0
175
     0
176
   256
177
   256
178
    40
  0
DIMSTYLE
  2
TECHNICAL_OSAKA$7
 70
     0
  3

  4
"
  5
OPEN30
  6

  7

 40
1.0
 41
2.5
 42
1.0
 43
10.0
 44
1.0
 45
0.0
 46
0.0
 47
0.1
 48
0.1
140
2.7999999999999989
141
0.0
142
0.0
143
0.0393701
144
1.0
145
0.0
146
0.71
147
1.5
 71
     0
 72
     0
 73
     0
 74
     0
 75
     0
 76
     0
 77
     3
 78
     8
170
     0
171
     2
172
     1
173
     0
174
     0
175
     0
176
   256
177
   256
178
    40
  0
DIMSTYLE
  2
TECHNICAL_OSAKA$SF
 70
     0
  3

  4
"
  5
OPEN30
  6
OPEN30
  7
OPEN30
 40
1.0
 41
2.5
 42
1.0
 43
10.0
 44
1.0
 45
0.0
 46
0.0
 47
0.1
 48
0.1
140
3.5
141
0.0
142
0.0
143
0.0393701
144
1.0
145
0.0
146
0.71
147
1.5
 71
     0
 72
     0
 73
     0
 74
     0
 75
     1
 76
     1
 77
     3
 78
     8
170
     0
171
     2
172
     1
173
     0
174
     0
175
     0
176
   256
177
   256
178
    40
  0
DIMSTYLE
  2
TECHNICAL_OSAKA$SH
 70
     0
  3

  4
"
  5
OPEN30
  6
GENAXEH
  7
OPEN30
 40
1.0
 41
2.5
 42
1.0
 43
10.0
 44
1.0
 45
0.0
 46
0.0
 47
0.1
 48
0.1
140
3.5
141
0.0
142
0.0
143
0.0393701
144
2.0
145
0.0
146
0.71
147
1.5
 71
     0
 72
     0
 73
     0
 74
     0
 75
     1
 76
     1
 77
     3
 78
     8
170
     0
171
     2
172
     1
173
     1
174
     0
175
     0
176
   256
177
   256
178
    40
  0
DIMSTYLE
  2
AM_ANSI
 70
     0
  3

  4
mm
  5

  6

  7

 40
1.0
 41
0.12
 42
0.05
 43
0.5
 44
0.1
 45
0.0
 46
0.0
 47
0.1
 48
0.1
140
0.12
141
0.0
142
0.0
143
25.399999999999999
144
1.0
145
0.0
146
0.71
147
0.06
 71
     0
 72
     0
 73
     1
 74
     1
 75
     0
 76
     0
 77
     0
 78
     7
170
     0
171
     2
172
     0
173
     0
174
     0
175
     0
176
   256
177
   256
178
     2
  0
DIMSTYLE
  2
AM_ANSI$3
 70
     0
  3

  4
mm
  5

  6

  7

 40
1.0
 41
0.12
 42
0.05
 43
0.5
 44
0.1
 45
0.0
 46
0.0
 47
0.1
 48
0.1
140
0.12
141
0.0
142
0.0
143
25.399999999999999
144
1.0
145
0.0
146
0.71
147
0.06
 71
     0
 72
     0
 73
     1
 74
     1
 75
     0
 76
     0
 77
     0
 78
     7
170
     0
171
     2
172
     0
173
     0
174
     0
175
     0
176
   256
177
   256
178
     2
  0
DIMSTYLE
  2
AM_ANSI$4
 70
     0
  3

  4
mm
  5

  6

  7

 40
1.0
 41
0.12
 42
0.05
 43
0.5
 44
0.1
 45
0.0
 46
0.0
 47
0.1
 48
0.1
140
0.12
141
0.0
142
0.0
143
25.399999999999999
144
1.0
145
0.0
146
0.71
147
0.06
 71
     0
 72
     0
 73
     1
 74
     1
 75
     0
 76
     0
 77
     0
 78
     7
170
     0
171
     2
172
     0
173
     0
174
     0
175
     0
176
   256
177
   256
178
     2
  0
DIMSTYLE
  2
AM_ANSI$7
 70
     0
  3

  4
mm
  5

  6

  7

 40
1.0
 41
0.12
 42
0.05
 43
0.5
 44
0.1
 45
0.0
 46
0.0
 47
0.1
 48
0.1
140
0.12
141
0.0
142
0.0
143
25.399999999999999
144
1.0
145
0.0
146
0.71
147
0.06
 71
     0
 72
     0
 73
     1
 74
     1
 75
     0
 76
     0
 77
     0
 78
     7
170
     0
171
     2
172
     0
173
     0
174
     0
175
     0
176
   256
177
   256
178
     2
  0
DIMSTYLE
  2
AM_ANSI$SF
 70
     0
  3

  4
mm
  5

  6

  7

 40
1.0
 41
0.12
 42
0.05
 43
0.5
 44
0.1
 45
0.0
 46
0.0
 47
0.1
 48
0.1
140
0.12
141
0.0
142
0.0
143
25.399999999999999
144
1.0
145
0.0
146
0.71
147
0.06
 71
     0
 72
     0
 73
     1
 74
     1
 75
     1
 76
     1
 77
     0
 78
     7
170
     0
171
     2
172
     0
173
     0
174
     0
175
     0
176
   256
177
   256
178
     2
  0
DIMSTYLE
  2
AM_ANSI$SH
 70
     0
  3

  4
mm
  5

  6
GENAXEH
  7

 40
1.0
 41
0.12
 42
0.05
 43
0.5
 44
0.1
 45
0.0
 46
0.0
 47
0.1
 48
0.1
140
0.12
141
0.0
142
0.0
143
25.399999999999999
144
1.0
145
0.0
146
0.71
147
0.06
 71
     0
 72
     0
 73
     1
 74
     1
 75
     1
 76
     1
 77
     0
 78
     7
170
     0
171
     2
172
     0
173
     1
174
     0
175
     0
176
   256
177
   256
178
     2
  0
ENDTAB
  0
ENDSEC
  0
SECTION
  2
BLOCKS
  0
BLOCK
  8
0
  2
$MODEL_SPACE
 70
     0
 10
0.0
 20
0.0
 30
0.0
  3
$MODEL_SPACE
  1

  0
ENDBLK
  5
1C
  8
0
  0
BLOCK
 67
     1
  8
0
  2
$PAPER_SPACE
 70
     0
 10
0.0
 20
0.0
 30
0.0
  3
$PAPER_SPACE
  1

  0
ENDBLK
  5
19
 67
     1
  8
0
  0
BLOCK
  8
0
  2
_OPEN
 70
     0
 10
0.0
 20
0.0
 30
0.0
  3
_OPEN
  1

  0
LINE
  5
132A
  8
0
  6
BYBLOCK
 62
     0
 10
-1.0
 20
0.1666666666666666
 30
0.0
 11
0.0
 21
0.0
 31
0.0
  0
LINE
  5
132B
  8
0
  6
BYBLOCK
 62
     0
 10
-1.0
 20
-0.1666666666666666
 30
0.0
 11
0.0
 21
0.0
 31
0.0
  0
LINE
  5
132C
  8
0
  6
BYBLOCK
 62
     0
 10
0.0
 20
0.0
 30
0.0
 11
-1.0
 21
0.0
 31
0.0
  0
ENDBLK
  5
132D
  8
0
  0
BLOCK
  8
0
  2
矢印なし
 70
     0
 10
0.0
 20
0.0
 30
0.0
  3
矢印なし
  1

  0
ENDBLK
  5
6E5
  8
0
  0
BLOCK
  8
0
  2
GENAXEH
 70
     0
 10
0.0
 20
0.0
 30
0.0
  3
GENAXEH
  1

  0
LINE
  5
1365
  8
0
 10
-1.0
 20
0.0
 30
0.0
 11
1.0
 21
0.0
 31
0.0
  0
ENDBLK
  5
1366
  8
0
  0
BLOCK
  8
0
  2
_OPEN30
 70
     0
 10
0.0
 20
0.0
 30
0.0
  3
_OPEN30
  1

  0
LINE
  5
13A1
  8
0
  6
BYBLOCK
 62
     0
 10
-1.0
 20
0.26794919
 30
0.0
 11
0.0
 21
0.0
 31
0.0
  0
LINE
  5
13A2
  8
0
  6
BYBLOCK
 62
     0
 10
0.0
 20
0.0
 30
0.0
 11
-1.0
 21
-0.26794919
 31
0.0
  0
LINE
  5
13A3
  8
0
  6
BYBLOCK
 62
     0
 10
0.0
 20
0.0
 30
0.0
 11
-1.0
 21
0.0
 31
0.0
  0
ENDBLK
  5
13A4
  8
0
  0
BLOCK
  8
0
  2
*U9
 70
     1
 10
0.0
 20
0.0
 30
0.0
  3
*U9
  1

  0
TEXT
  5
1A14
  8
250
 10
19.833333327896899
 20
36.0
 30
0.0
 40
2.799999999999998
  1
45
  0
ENDBLK
  5
1A16
  8
0
  0
BLOCK
  8
0
  2
*U10
 70
     1
 10
0.0
 20
0.0
 30
0.0
  3
*U10
  1

  0
TEXT
  5
1A18
  8
250
 10
20.373333322461448
 20
29.0
 30
0.0
 40
2.799999999999998
  1
（max.28）
  0
ENDBLK
  5
1A1A
  8
0
  0
BLOCK
  8
0
  2
*U11
 70
     1
 10
0.0
 20
0.0
 30
0.0
  3
*U11
  1

  0
TEXT
  5
1A1C
  8
250
 10
62.0
 20
-3.999999999999992
 30
0.0
 40
2.7999999999999989
  1
\U+2205
 50
90.0
  0
TEXT
  5
1A1D
  8
250
 10
62.0
 20
-1.466666666666659
 30
0.0
 40
2.799999999999998
  1
34
 50
90.0
  0
ENDBLK
  5
1A1F
  8
0
  0
BLOCK
  8
0
  2
*U12
 70
     1
 10
0.0
 20
0.0
 30
0.0
  3
*U12
  1

  0
TEXT
  5
1A21
  8
250
 10
55.0
 20
-3.933333333333326
 30
0.0
 40
2.7999999999999989
  1
\U+2205
 50
90.0
  0
TEXT
  5
1A22
  8
250
 10
55.0
 20
-1.399999999999993
 30
0.0
 40
2.799999999999998
  1
12
 50
90.0
  0
ENDBLK
  5
1A24
  8
0
  0
ENDSEC
  0
SECTION
  2
ENTITIES
  0
INSERT
  5
6E6
  8
245
  2
矢印なし
 10
175.62382696643769
 20
90.551235716905978
 30
0.0
  0
LINE
  5
B6D
  8
240
  6
CONTINUOUS
 10
-24.0
 20
13.462452753759919
 30
0.0
 11
0.0
 21
14.06250549360146
 31
0.0
  0
LINE
  5
B6E
  8
240
  6
CONTINUOUS
 10
0.0
 20
-14.062505499322411
 30
0.0
 11
-24.0
 21
-13.46245267871182
 31
0.0
  0
LINE
  5
B6F
  8
245
  6
CENTER2
 10
-25.0
 20
0.0
 30
0.0
 11
46.0
 21
0.0
 31
0.0
  0
LINE
  5
B70
  8
240
  6
CONTINUOUS
 10
-24.0
 20
-13.46245267871182
 30
0.0
 11
-24.0
 21
13.462452753759919
 31
0.0
  0
LINE
  5
B71
  8
241
  6
CONTINUOUS
 10
-19.800000000000001
 20
-2.5425000000000182
 30
0.0
 11
-19.800000000000001
 21
2.5425000000000182
 31
0.0
  0
LINE
  5
B72
  8
241
  6
CONTINUOUS
 10
-24.0
 20
-2.5425000000000182
 30
0.0
 11
-19.800000000000001
 21
-2.5425000000000182
 31
0.0
  0
LINE
  5
B73
  8
241
  6
CONTINUOUS
 10
-24.0
 20
2.5425000000000182
 30
0.0
 11
-19.800000000000001
 21
2.5425000000000182
 31
0.0
  0
LINE
  5
B74
  8
241
  6
CONTINUOUS
 10
0.0
 20
-14.062505499322411
 30
0.0
 11
0.0
 21
14.06250549360146
 31
0.0
  0
LINE
  5
B75
  8
240
  6
CONTINUOUS
 10
0.0
 20
-20.0
 30
0.0
 11
0.0
 21
-14.062505499322411
 31
0.0
  0
LINE
  5
B76
  8
240
  6
CONTINUOUS
 10
20.0
 20
-20.0
 30
0.0
 11
20.0
 21
-18.000000000006619
 31
0.0
  0
LINE
  5
B77
  8
240
  6
CONTINUOUS
 10
0.0
 20
20.0
 30
0.0
 11
0.0
 21
14.06250549360152
 31
0.0
  0
LINE
  5
B78
  8
250
  6
CONTINUOUS
 10
-14.21116305741373
 20
-15.30479900198344
 30
0.0
 11
-12.92248792332026
 21
-13.739414860668489
 31
0.0
  0
LINE
  5
B79
  8
250
  6
CONTINUOUS
 10
-13.63381278811732
 20
-15.638132335131839
 30
0.0
 11
-12.92248792332026
 21
-13.739414860668489
 31
0.0
  0
LINE
  5
B7A
  8
250
  6
CONTINUOUS
 10
-12.92248792332026
 20
-13.739414860668489
 30
0.0
 11
-13.922487922765519
 21
-15.47146566855764
 31
0.0
  0
LINE
  5
B7B
  8
250
  6
CONTINUOUS
 10
-13.922487922765519
 20
-15.47146566855764
 30
0.0
 11
-17.582293443320271
 21
-21.810434780668452
 31
0.0
1001
ACAD
1000
DSTYLE
1002
{
1070
     6
1000
OPEN
1070
    41
1040
2.0
1070
    42
1040
2.0
1070
    44
1040
2.0
1070
   140
1040
4.0
1070
   343
1005
0
1002
}
  0
TEXT
  5
B7C
  8
250
  6
CONTINUOUS
 10
-25.582293443320282
 20
-20.810434780668452
 30
0.0
 40
2.799999999999998
  1
C4
  7
YOKO
1001
ITEMNAME
1000
LNSP3
  0
LINE
  5
B7D
  8
250
  6
CONTINUOUS
 10
-17.582293443320271
 20
-21.810434780668452
 30
0.0
 11
-27.982293443320319
 21
-21.810434780668452
 31
0.0
1001
ITEMNAME
1000
LNSP2
  0
LINE
  5
B7E
  8
247
  6
CONTINUOUS
 10
3.9999999999999432
 20
-8.75
 30
0.0
 11
4.0
 21
-4.115384615669992
 31
0.0
  0
LINE
  5
B7F
  8
247
  6
CONTINUOUS
 10
1.5
 20
-7.954893499987973
 30
0.0
 11
3.5999999999160082
 21
-8.5570588100573541
 31
0.0
  0
LINE
  5
B80
  8
247
  6
CONTINUOUS
 10
2.496153846113998
 20
-7.325151403519043
 30
0.0
 11
2.496153846113998
 21
-8.2405360188670311
 31
0.0
  0
ARC
  5
B81
  8
247
  6
CONTINUOUS
 10
1.8847190672940981
 20
-7.087263401946811
 30
0.0
 40
0.3876715809326743
 50
72.9978896752922
 51
172.92416621851359
  0
ARC
  5
B82
  8
247
  6
CONTINUOUS
 10
1.805223131028014
 20
-7.3824775568041323
 30
0.0
 40
0.6933047965358772
 50
4.7429368522022113
 51
73.849226273266751
1001
GENIUS_GENOBJ-N-FIL_13
1002
{
1000
OWNER
1000
GEN
1002
}
1001
GENIUS_GENODEF_13
1002
{
1000
HIER
1070
     0
1002
}
1002
{
1000
MANEDIT
1070
     0
1002
}
1002
{
1000
NOSEL
1070
     0
1002
}
1002
{
1000
BEHIND
1070
     0
1002
}
1002
{
1000
OTHER
1070
     0
1002
}
1002
{
1000
REACTOR
1002
}
  0
LINE
  5
B83
  8
247
  6
CONTINUOUS
 10
3.5999999999160082
 20
-7.641674194709366
 30
0.0
 11
3.5999999999160082
 21
-8.5570588100573541
 31
0.0
  0
LINE
  5
B84
  8
247
  6
CONTINUOUS
 10
1.5
 20
-7.954893499987973
 30
0.0
 11
1.5
 21
-7.0395088846399272
 31
0.0
  0
ARC
  5
B85
  8
247
  6
CONTINUOUS
 10
2.8874169627678721
 20
-7.3783064762668573
 30
0.0
 40
0.394857301075386
 50
65.990941652528889
 51
172.26344345906909
  0
ARC
  5
B86
  8
247
  6
CONTINUOUS
 10
2.8912003273325682
 20
-7.7124466104269231
 30
0.0
 40
0.7123241612361686
 50
5.7019851642564632
 51
77.277338436822021
1001
GENIUS_GENOBJ-N-FIL_13
1002
{
1000
OWNER
1000
GEN
1002
}
1001
GENIUS_GENODEF_13
1002
{
1000
HIER
1070
     0
1002
}
1002
{
1000
MANEDIT
1070
     0
1002
}
1002
{
1000
NOSEL
1070
     0
1002
}
1002
{
1000
BEHIND
1070
     0
1002
}
1002
{
1000
OTHER
1070
     0
1002
}
1002
{
1000
REACTOR
1002
}
  0
LINE
  5
B87
  8
247
  6
CONTINUOUS
 10
3.5999999999160082
 20
-6.6839818870633962
 30
0.0
 11
1.5
 21
-6.0818165769939556
 31
0.0
  0
LINE
  5
B88
  8
247
  6
CONTINUOUS
 10
1.5
 20
-4.5856627309079832
 30
0.0
 11
1.5
 21
-4.981678364303546
 31
0.0
  0
LINE
  5
B89
  8
247
  6
CONTINUOUS
 10
3.5999999999160082
 20
-5.6087396539439851
 30
0.0
 11
3.5999999999160082
 21
-5.177970423191935
 31
0.0
  0
ARC
  5
B8A
  8
247
  6
CONTINUOUS
 10
2.9582995950833602
 20
-4.3818165770699684
 30
0.0
 40
1.576855057639547
 50
202.35948814152911
 51
254.99324854284649
  0
ARC
  5
B8B
  8
247
  6
CONTINUOUS
 10
2.0658188585381341
 20
-4.8475113661332312
 30
0.0
 40
0.6234706797009447
 50
94.994589319075317
 51
155.1663289573039
1001
GENIUS_GENOBJ-N-FIL_13
1002
{
1000
OWNER
1000
GEN
1002
}
1001
GENIUS_GENODEF_13
1002
{
1000
HIER
1070
     0
1002
}
1002
{
1000
MANEDIT
1070
     0
1002
}
1002
{
1000
NOSEL
1070
     0
1002
}
1002
{
1000
BEHIND
1070
     0
1002
}
1002
{
1000
OTHER
1070
     0
1002
}
1002
{
1000
REACTOR
1002
}
  0
ARC
  5
B8C
  8
247
  6
CONTINUOUS
 10
2.6621021219694381
 20
-5.4441839510327554
 30
0.0
 40
0.9749472149106983
 50
15.8460965557808
 51
82.325137004169278
  0
ARC
  5
B8D
  8
247
  6
CONTINUOUS
 10
2.8714704019710662
 20
-5.0352116387722381
 30
0.0
 40
0.9271945638692009
 50
249.7136016704969
 51
321.78874565641053
1001
GENIUS_GENOBJ-N-FIL_13
1002
{
1000
OWNER
1000
GEN
1002
}
1001
GENIUS_GENODEF_13
1002
{
1000
HIER
1070
     0
1002
}
1002
{
1000
MANEDIT
1070
     0
1002
}
1002
{
1000
NOSEL
1070
     0
1002
}
1002
{
1000
BEHIND
1070
     0
1002
}
1002
{
1000
OTHER
1070
     0
1002
}
1002
{
1000
REACTOR
1002
}
  0
LINE
  5
B8E
  8
247
  6
CONTINUOUS
 10
2.792307692255974
 20
-4.962585807815965
 30
0.0
 11
2.792307692255974
 21
-4.4779704232199711
 31
0.0
  0
ARC
  5
B8F
  8
247
  6
CONTINUOUS
 10
2.75
 20
-8.75
 30
0.0
 40
1.25
 50
180.0
 51
0.0
  0
LINE
  5
B90
  8
247
  6
CONTINUOUS
 10
1.5
 20
-8.75
 30
0.0
 11
1.5
 21
-8.3038461539139803
 31
0.0
  0
ARC
  5
B91
  8
247
  6
CONTINUOUS
 10
2.75
 20
-4.115384615669992
 30
0.0
 40
1.25
 50
0.0
 51
180.0
  0
LINE
  5
B92
  8
240
  6
CONTINUOUS
 10
20.0
 20
20.0
 30
0.0
 11
0.0
 21
20.0
 31
0.0
  0
LINE
  5
B93
  8
240
  6
CONTINUOUS
 10
20.0
 20
-20.0
 30
0.0
 11
0.0
 21
-20.0
 31
0.0
  0
LINE
  5
B94
  8
241
  6
CONTINUOUS
 10
6.6999999999999851
 20
5.4434495400000156
 30
0.0
 11
6.6999999999999851
 21
19.23457711999998
 31
0.0
  0
LINE
  5
B95
  8
241
  6
CONTINUOUS
 10
9.3000000000000114
 20
5.4434495400000156
 30
0.0
 11
9.3000000000000114
 21
19.23457711999998
 31
0.0
  0
LINE
  5
B96
  8
241
  6
CONTINUOUS
 10
6.6999999999999851
 20
5.4434495400000156
 30
0.0
 11
9.3000000000000114
 21
5.4434495400000156
 31
0.0
  0
LINE
  5
B97
  8
241
  6
CONTINUOUS
 10
6.6999999999999851
 20
19.23457711999998
 30
0.0
 11
9.3000000000000114
 21
19.23457711999998
 31
0.0
  0
ARC
  5
B98
  8
241
  6
CONTINUOUS
 10
19.246864401683411
 20
12.33901333
 30
0.0
 40
14.316864401683389
 50
151.207481346615
 51
208.792518653385
  0
ARC
  5
B99
  8
241
  6
CONTINUOUS
 10
-3.2468644016833501
 20
12.33901333
 30
0.0
 40
14.31686440168337
 50
331.20748134661488
 51
28.792518653385031
  0
LINE
  5
B9A
  8
241
  6
CONTINUOUS
 10
6.6999999999999851
 20
-5.4434495400000156
 30
0.0
 11
6.6999999999999851
 21
-19.23457711999998
 31
0.0
  0
LINE
  5
B9B
  8
241
  6
CONTINUOUS
 10
9.3000000000000114
 20
-5.4434495400000156
 30
0.0
 11
9.3000000000000114
 21
-19.23457711999998
 31
0.0
  0
LINE
  5
B9C
  8
241
  6
CONTINUOUS
 10
6.6999999999999851
 20
-5.4434495400000156
 30
0.0
 11
9.3000000000000114
 21
-5.4434495400000156
 31
0.0
  0
LINE
  5
B9D
  8
241
  6
CONTINUOUS
 10
6.6999999999999851
 20
-19.23457711999998
 30
0.0
 11
9.3000000000000114
 21
-19.23457711999998
 31
0.0
  0
ARC
  5
B9E
  8
241
  6
CONTINUOUS
 10
19.246864401683411
 20
-12.33901333
 30
0.0
 40
14.316864401683389
 50
151.207481346615
 51
208.792518653385
  0
ARC
  5
B9F
  8
241
  6
CONTINUOUS
 10
-3.2468644016833501
 20
-12.33901333
 30
0.0
 40
14.31686440168337
 50
331.20748134661488
 51
28.792518653385031
  0
ARC
  5
BA0
  8
241
  6
CONTINUOUS
 10
-20.845185903844769
 20
0.0
 30
0.0
 40
2.7489488579447801
 50
292.34687274647791
 51
67.653127253522129
  0
TEXT
  5
CC0
  8
241
  6
CONTINUOUS
 10
-24.0
 20
49.0
 30
0.0
 40
5.0
  1
C4-BSL12-45
  7
YOKO
 11
-24.0
 21
49.0
 31
0.0
 73
     1
  0
LINE
  5
DEB
  8
240
  6
CONTINUOUS
 10
20.0
 20
20.0
 30
0.0
 11
20.0
 21
18.000000000006619
 31
0.0
  0
LINE
  5
DF3
  8
241
  6
CONTINUOUS
 10
19.999999989129599
 20
18.000000000006619
 30
0.0
 11
19.999999989129599
 21
-18.000000000006619
 31
0.0
  0
ARC
  5
119D
  8
240
  6
CONTINUOUS
 10
20.999999989128749
 20
-18.000000000006619
 30
0.0
 40
1.0
 50
90.000000000019526
 51
180.0
  0
LINE
  5
119E
  8
243
  6
HIDDEN2
 10
19.99999998912801
 20
6.0000000000001696
 30
0.0
 11
44.999999989127119
 21
6.0000000000028919
 31
0.0
  0
LINE
  5
11A0
  8
240
  6
CONTINUOUS
 10
44.999999989126991
 20
-7.9999999999996296
 30
0.0
 11
44.999999989127133
 21
7.9999999999991083
 31
0.0
  0
LINE
  5
11A1
  8
240
  6
CONTINUOUS
 10
44.999999989126991
 20
-7.9999999999996296
 30
0.0
 11
42.985654933867181
 21
-15.51763809020502
 31
0.0
  0
LINE
  5
11A2
  8
241
  6
CONTINUOUS
 10
42.5884572572471
 20
-16.28251205611333
 30
0.0
 11
42.5884572572471
 21
16.28251205611339
 31
0.0
  0
ARC
  5
11A3
  8
240
  6
CONTINUOUS
 10
41.053803281289099
 20
-14.99999999999997
 30
0.0
 40
2.0
 50
270.0
 51
344.99999999999881
  0
LINE
  5
11A5
  8
241
  6
CONTINUOUS
 10
30.133974585350931
 20
-17.000000000003681
 30
0.0
 11
30.13397458534547
 21
17.000000000003439
 31
0.0
  0
LINE
  5
11A6
  8
241
  6
CONTINUOUS
 10
31.866025392916949
 20
-17.000000000002899
 30
0.0
 11
31.866025392915478
 21
17.000000000002888
 31
0.0
  0
LINE
  5
11A7
  8
240
  6
CONTINUOUS
 10
20.99999998912844
 20
-17.000000000006349
 30
0.0
 11
41.053803281289753
 21
-16.999999999999972
 31
0.0
  0
LINE
  5
11A8
  8
245
  6
CENTER2
 10
24.999999989124039
 20
5.0
 30
0.0
 11
24.999999989124031
 21
-5.0
 31
0.0
  0
ARC
  5
11AC
  8
240
  6
CONTINUOUS
 10
20.999999989128749
 20
18.000000000006619
 30
0.0
 40
1.0
 50
180.0
 51
269.99999999998039
  0
LINE
  5
11AD
  8
240
  6
CONTINUOUS
 10
44.999999989127133
 20
7.9999999999991083
 30
0.0
 11
42.985654933867181
 21
15.51763809020502
 31
0.0
  0
ARC
  5
11AE
  8
240
  6
CONTINUOUS
 10
41.053803281289099
 20
14.99999999999997
 30
0.0
 40
2.0
 50
15.00000000000121
 51
90.000000000000057
  0
LINE
  5
11AF
  8
240
  6
CONTINUOUS
 10
20.99999998912844
 20
17.000000000006349
 30
0.0
 11
41.053803281289753
 21
16.999999999999972
 31
0.0
  0
LINE
  5
11BF
  8
243
  6
HIDDEN2
 10
19.99999998912801
 20
-6.0000000000001696
 30
0.0
 11
44.999999989127119
 21
-6.0000000000028919
 31
0.0
  0
CIRCLE
  5
1209
  8
242
  6
CONTINUOUS
 10
24.999999989124031
 20
0.0
 30
0.0
 40
3.5
  0
CIRCLE
  5
120B
  8
241
  6
CONTINUOUS
 10
24.999999989124031
 20
0.0
 30
0.0
 40
4.0
  0
POLYLINE
  5
120C
  8
241
  6
CONTINUOUS
 66
     1
 10
0.0
 20
0.0
 30
0.0
 70
     1
  0
VERTEX
  5
1A05
  8
241
  6
CONTINUOUS
 10
22.999999989124031
 20
-1.154700538379251
 30
0.0
  0
VERTEX
  5
1A06
  8
241
  6
CONTINUOUS
 10
24.999999989124031
 20
-2.3094010767585011
 30
0.0
  0
VERTEX
  5
1A07
  8
241
  6
CONTINUOUS
 10
26.999999989124031
 20
-1.154700538379251
 30
0.0
  0
VERTEX
  5
1A08
  8
241
  6
CONTINUOUS
 10
26.999999989124031
 20
1.1547005383792479
 30
0.0
  0
VERTEX
  5
1A09
  8
241
  6
CONTINUOUS
 10
24.999999989124039
 20
2.3094010767585011
 30
0.0
  0
VERTEX
  5
1A0A
  8
241
  6
CONTINUOUS
 10
22.999999989124039
 20
1.154700538379255
 30
0.0
  0
SEQEND
  5
1A0B
  8
241
  6
CONTINUOUS
  0
LINE
  5
122D
  8
245
  6
CENTER2
 10
36.999999989120681
 20
5.0
 30
0.0
 11
36.999999989120681
 21
-5.0
 31
0.0
  0
CIRCLE
  5
122E
  8
242
  6
CONTINUOUS
 10
36.999999989120681
 20
0.0
 30
0.0
 40
3.5
  0
CIRCLE
  5
122F
  8
241
  6
CONTINUOUS
 10
36.999999989120681
 20
0.0
 30
0.0
 40
4.0
  0
POLYLINE
  5
1230
  8
241
  6
CONTINUOUS
 66
     1
 10
0.0
 20
0.0
 30
0.0
 70
     1
  0
VERTEX
  5
1A0C
  8
241
  6
CONTINUOUS
 10
34.999999989120681
 20
-1.154700538379251
 30
0.0
  0
VERTEX
  5
1A0D
  8
241
  6
CONTINUOUS
 10
36.999999989120681
 20
-2.3094010767585011
 30
0.0
  0
VERTEX
  5
1A0E
  8
241
  6
CONTINUOUS
 10
38.999999989120681
 20
-1.154700538379251
 30
0.0
  0
VERTEX
  5
1A0F
  8
241
  6
CONTINUOUS
 10
38.999999989120681
 20
1.1547005383792479
 30
0.0
  0
VERTEX
  5
1A10
  8
241
  6
CONTINUOUS
 10
36.999999989120681
 20
2.3094010767585011
 30
0.0
  0
VERTEX
  5
1A11
  8
241
  6
CONTINUOUS
 10
34.999999989120681
 20
1.154700538379255
 30
0.0
  0
SEQEND
  5
1A12
  8
241
  6
CONTINUOUS
  0
LINE
  5
124C
  8
250
  6
CONTINUOUS
 10
0.0
 20
20.5
 30
0.0
 11
0.000000000000001
 21
36.0
 31
0.0
  0
LINE
  5
124D
  8
250
  6
CONTINUOUS
 10
44.999999989127133
 20
8.4999999999991065
 30
0.0
 11
44.999999989127133
 21
36.0
 31
0.0
  0
LINE
  5
124E
  8
250
  6
CONTINUOUS
 10
2.0
 20
35.0
 30
0.0
 11
42.999999989127133
 21
35.0
 31
0.0
  0
INSERT
  5
124F
  8
250
  6
CONTINUOUS
  2
_OPEN
 10
0.0000000000000009
 20
35.0
 30
0.0
 41
2.0
 42
2.0
 43
2.0
 50
180.0
  0
INSERT
  5
1250
  8
250
  6
CONTINUOUS
  2
_OPEN
 10
44.999999989127133
 20
35.0
 30
0.0
 41
2.0
 42
2.0
 43
2.0
  0
INSERT
  5
1251
  8
240
  2
*U9
 10
0.0
 20
0.0
 30
0.0
  0
LINE
  5
1252
  8
250
  6
CONTINUOUS
 10
16.99999998912909
 20
6.8000000000000123
 30
0.0
 11
16.99999998912909
 21
29.0
 31
0.0
  0
LINE
  5
1253
  8
250
  6
CONTINUOUS
 10
44.999999989127133
 20
8.4999999999991065
 30
0.0
 11
44.999999989127133
 21
29.0
 31
0.0
  0
LINE
  5
1254
  8
250
  6
CONTINUOUS
 10
18.99999998912909
 20
28.0
 30
0.0
 11
42.999999989127133
 21
28.0
 31
0.0
  0
INSERT
  5
1255
  8
250
  6
CONTINUOUS
  2
_OPEN
 10
16.99999998912909
 20
28.0
 30
0.0
 41
2.0
 42
2.0
 43
2.0
 50
180.0
  0
INSERT
  5
1256
  8
250
  6
CONTINUOUS
  2
_OPEN
 10
44.999999989127133
 20
28.0
 30
0.0
 41
2.0
 42
2.0
 43
2.0
  0
INSERT
  5
1257
  8
240
  2
*U10
 10
0.0
 20
0.0
 30
0.0
  0
LINE
  5
1258
  8
250
  6
CONTINUOUS
 10
41.55380328128976
 20
-16.999999999999972
 30
0.0
 11
63.999999999999993
 21
-16.999999999999972
 31
0.0
  0
LINE
  5
1259
  8
250
  6
CONTINUOUS
 10
41.553803281289092
 20
16.999999999999972
 30
0.0
 11
64.0
 21
16.999999999999972
 31
0.0
  0
LINE
  5
125A
  8
250
  6
CONTINUOUS
 10
63.0
 20
-14.99999999999997
 30
0.0
 11
63.0
 21
14.99999999999997
 31
0.0
  0
INSERT
  5
125B
  8
250
  6
CONTINUOUS
  2
_OPEN
 10
62.999999999999993
 20
-16.999999999999972
 30
0.0
 41
2.0
 42
2.0
 43
2.0
 50
270.0
  0
INSERT
  5
125C
  8
250
  6
CONTINUOUS
  2
_OPEN
 10
63.0
 20
16.999999999999972
 30
0.0
 41
2.0
 42
2.0
 43
2.0
 50
90.0
  0
INSERT
  5
125D
  8
240
  2
*U11
 10
0.0
 20
0.0
 30
0.0
  0
LINE
  5
125E
  8
250
  6
CONTINUOUS
 10
45.499999989127119
 20
-6.0000000000028919
 30
0.0
 11
57.0
 21
-6.0000000000028981
 31
0.0
  0
LINE
  5
125F
  8
250
  6
CONTINUOUS
 10
45.499999989127119
 20
6.0000000000028919
 30
0.0
 11
57.0
 21
6.000000000002891
 31
0.0
  0
LINE
  5
1260
  8
250
  6
CONTINUOUS
 10
56.0
 20
-4.0000000000028981
 30
0.0
 11
56.0
 21
4.000000000002891
 31
0.0
  0
INSERT
  5
1261
  8
250
  6
CONTINUOUS
  2
_OPEN
 10
56.0
 20
-6.0000000000028981
 30
0.0
 41
2.0
 42
2.0
 43
2.0
 50
270.0
  0
INSERT
  5
1262
  8
250
  6
CONTINUOUS
  2
_OPEN
 10
56.0
 20
6.000000000002891
 30
0.0
 41
2.0
 42
2.0
 43
2.0
 50
90.0
  0
INSERT
  5
1263
  8
240
  2
*U12
 10
0.0
 20
0.0
 30
0.0
  0
LINE
  5
1700
  8
245
  6
CENTER2
 10
-48.999999999999872
 20
17.642024170851109
 30
0.0
 11
-48.999999999999879
 21
-17.642024170850959
 31
0.0
  0
LINE
  5
1701
  8
245
  6
CENTER2
 10
-66.642024170850931
 20
0.0000000000000729
 30
0.0
 11
-31.357975829148842
 21
0.0000000000000729
 31
0.0
  0
CIRCLE
  5
1702
  8
241
  6
CONTINUOUS
 10
-48.999999999999943
 20
0.0000000000000729
 30
0.0
 40
6.2999999999999821
  0
CIRCLE
  5
1703
  8
242
  6
CONTINUOUS
 10
-48.999999999999943
 20
0.0000000000000729
 30
0.0
 40
7.0
  0
ARC
  5
1704
  8
241
  6
CONTINUOUS
 10
-63.999999999999943
 20
0.0000000000000729
 30
0.0
 40
4.0
 50
303.68130686566451
 51
57.096903795047503
  0
ARC
  5
1705
  8
241
  6
CONTINUOUS
 10
-32.189999999999863
 20
0.0000000000000729
 30
0.0
 40
4.0
 50
129.75569266280161
 51
231.35348123898629
  0
CIRCLE
  5
1706
  8
241
  6
CONTINUOUS
 10
-48.999999999999943
 20
0.0000000000000729
 30
0.0
 40
9.0
  0
POLYLINE
  5
1707
  8
240
 66
     1
 10
0.0
 20
0.0
 30
0.0
 70
     8
  0
VERTEX
  5
1708
  8
240
 10
-42.450000000000003
 20
11.344900000000001
 30
0.0
 70
    32
  0
VERTEX
  5
1709
  8
240
 10
-42.323700000000002
 20
11.2714
 30
0.0
 70
    32
  0
VERTEX
  5
170A
  8
240
 10
-42.19789999999999
 20
11.196999999999999
 30
0.0
 70
    32
  0
VERTEX
  5
170B
  8
240
 10
-42.072600000000001
 20
11.1219
 30
0.0
 70
    32
  0
VERTEX
  5
170C
  8
240
 10
-41.947999999999993
 20
11.0459
 30
0.0
 70
    32
  0
VERTEX
  5
170D
  8
240
 10
-41.823900000000002
 20
10.969200000000001
 30
0.0
 70
    32
  0
VERTEX
  5
170E
  8
240
 10
-41.700400000000002
 20
10.8916
 30
0.0
 70
    32
  0
VERTEX
  5
170F
  8
240
 10
-41.57759999999999
 20
10.8133
 30
0.0
 70
    32
  0
VERTEX
  5
1710
  8
240
 10
-41.455299999999987
 20
10.734299999999999
 30
0.0
 70
    32
  0
VERTEX
  5
1711
  8
240
 10
-41.3337
 20
10.654500000000001
 30
0.0
 70
    32
  0
VERTEX
  5
1712
  8
240
 10
-41.212699999999991
 20
10.5739
 30
0.0
 70
    32
  0
VERTEX
  5
1713
  8
240
 10
-41.092399999999991
 20
10.492599999999999
 30
0.0
 70
    32
  0
VERTEX
  5
1714
  8
240
 10
-40.972700000000003
 20
10.410600000000001
 30
0.0
 70
    32
  0
VERTEX
  5
1715
  8
240
 10
-40.8536
 20
10.3278
 30
0.0
 70
    32
  0
VERTEX
  5
1716
  8
240
 10
-40.735300000000002
 20
10.244300000000001
 30
0.0
 70
    32
  0
VERTEX
  5
1717
  8
240
 10
-40.617600000000003
 20
10.1602
 30
0.0
 70
    32
  0
VERTEX
  5
1718
  8
240
 10
-40.500700000000002
 20
10.0753
 30
0.0
 70
    32
  0
VERTEX
  5
1719
  8
240
 10
-40.384399999999999
 20
9.9897300000000016
 30
0.0
 70
    32
  0
VERTEX
  5
171A
  8
240
 10
-40.268900000000002
 20
9.9034900000000015
 30
0.0
 70
    32
  0
VERTEX
  5
171B
  8
240
 10
-40.1541
 20
9.8165800000000019
 30
0.0
 70
    32
  0
VERTEX
  5
171C
  8
240
 10
-40.040100000000002
 20
9.7289999999999992
 30
0.0
 70
    32
  0
VERTEX
  5
171D
  8
240
 10
-39.9268
 20
9.6407700000000016
 30
0.0
 70
    32
  0
VERTEX
  5
171E
  8
240
 10
-39.8142
 20
9.5518800000000024
 30
0.0
 70
    32
  0
VERTEX
  5
171F
  8
240
 10
-39.702399999999997
 20
9.4623600000000021
 30
0.0
 70
    32
  0
VERTEX
  5
1720
  8
240
 10
-39.5914
 20
9.3722100000000026
 30
0.0
 70
    32
  0
VERTEX
  5
1721
  8
240
 10
-39.481200000000001
 20
9.2814400000000017
 30
0.0
 70
    32
  0
VERTEX
  5
1722
  8
240
 10
-39.3718
 20
9.1900500000000012
 30
0.0
 70
    32
  0
VERTEX
  5
1723
  8
240
 10
-39.263199999999998
 20
9.098060000000002
 30
0.0
 70
    32
  0
VERTEX
  5
1724
  8
240
 10
-39.155500000000011
 20
9.0054600000000011
 30
0.0
 70
    32
  0
VERTEX
  5
1725
  8
240
 10
-39.048499999999997
 20
8.9122800000000026
 30
0.0
 70
    32
  0
VERTEX
  5
1726
  8
240
 10
-38.942399999999999
 20
8.8185200000000012
 30
0.0
 70
    32
  0
VERTEX
  5
1727
  8
240
 10
-38.837200000000003
 20
8.7241800000000023
 30
0.0
 70
    32
  0
VERTEX
  5
1728
  8
240
 10
-38.732799999999997
 20
8.6292800000000014
 30
0.0
 70
    32
  0
VERTEX
  5
1729
  8
240
 10
-38.629300000000001
 20
8.5338300000000018
 30
0.0
 70
    32
  0
VERTEX
  5
172A
  8
240
 10
-38.526699999999998
 20
8.4378200000000021
 30
0.0
 70
    32
  0
VERTEX
  5
172B
  8
240
 10
-38.424999999999997
 20
8.3412800000000011
 30
0.0
 70
    32
  0
VERTEX
  5
172C
  8
240
 10
-38.324199999999998
 20
8.2442100000000025
 30
0.0
 70
    32
  0
VERTEX
  5
172D
  8
240
 10
-38.224299999999999
 20
8.1466100000000026
 30
0.0
 70
    32
  0
VERTEX
  5
172E
  8
240
 10
-38.125300000000003
 20
8.0485000000000024
 30
0.0
 70
    32
  0
VERTEX
  5
172F
  8
240
 10
-38.027299999999997
 20
7.9498800000000021
 30
0.0
 70
    32
  0
VERTEX
  5
1730
  8
240
 10
-37.930199999999999
 20
7.8507600000000011
 30
0.0
 70
    32
  0
VERTEX
  5
1731
  8
240
 10
-37.834099999999999
 20
7.7511600000000023
 30
0.0
 70
    32
  0
VERTEX
  5
1732
  8
240
 10
-37.738900000000001
 20
7.6510700000000007
 30
0.0
 70
    32
  0
VERTEX
  5
1733
  8
240
 10
-37.6447
 20
7.5505100000000018
 30
0.0
 70
    32
  0
VERTEX
  5
1734
  8
240
 10
-37.551499999999997
 20
7.4494800000000021
 30
0.0
 70
    32
  0
VERTEX
  5
1735
  8
240
 10
-37.459299999999999
 20
7.3480000000000008
 30
0.0
 70
    32
  0
VERTEX
  5
1736
  8
240
 10
-37.368099999999998
 20
7.2460700000000013
 30
0.0
 70
    32
  0
VERTEX
  5
1737
  8
240
 10
-37.277999999999999
 20
7.1437000000000008
 30
0.0
 70
    32
  0
VERTEX
  5
1738
  8
240
 10
-37.188800000000001
 20
7.0408900000000001
 30
0.0
 70
    32
  0
VERTEX
  5
1739
  8
240
 10
-37.100700000000003
 20
6.9376700000000007
 30
0.0
 70
    32
  0
VERTEX
  5
173A
  8
240
 10
-37.0137
 20
6.834030000000002
 30
0.0
 70
    32
  0
VERTEX
  5
173B
  8
240
 10
-36.927700000000002
 20
6.7299800000000021
 30
0.0
 70
    32
  0
VERTEX
  5
173C
  8
240
 10
-36.842799999999997
 20
6.6255300000000021
 30
0.0
 70
    32
  0
VERTEX
  5
173D
  8
240
 10
-36.758899999999997
 20
6.5207000000000006
 30
0.0
 70
    32
  0
VERTEX
  5
173E
  8
240
 10
-36.676200000000001
 20
6.4154800000000023
 30
0.0
 70
    32
  0
VERTEX
  5
173F
  8
240
 10
-36.594499999999996
 20
6.3098900000000011
 30
0.0
 70
    32
  0
VERTEX
  5
1740
  8
240
 10
-36.51400000000001
 20
6.2039300000000024
 30
0.0
 70
    32
  0
VERTEX
  5
1741
  8
240
 10
-36.43460000000001
 20
6.0976100000000013
 30
0.0
 70
    32
  0
VERTEX
  5
1742
  8
240
 10
-36.356299999999997
 20
5.9909500000000007
 30
0.0
 70
    32
  0
VERTEX
  5
1743
  8
240
 10
-36.279200000000003
 20
5.8839500000000013
 30
0.0
 70
    32
  0
VERTEX
  5
1744
  8
240
 10
-36.203200000000002
 20
5.7766100000000007
 30
0.0
 70
    32
  0
VERTEX
  5
1745
  8
240
 10
-36.128399999999999
 20
5.6689500000000006
 30
0.0
 70
    32
  0
VERTEX
  5
1746
  8
240
 10
-36.0548
 20
5.5609800000000016
 30
0.0
 70
    32
  0
VERTEX
  5
1747
  8
240
 10
-35.982300000000002
 20
5.452700000000001
 30
0.0
 70
    32
  0
VERTEX
  5
1748
  8
240
 10
-35.911099999999998
 20
5.3441200000000011
 30
0.0
 70
    32
  0
VERTEX
  5
1749
  8
240
 10
-35.841000000000001
 20
5.2352500000000006
 30
0.0
 70
    32
  0
VERTEX
  5
174A
  8
240
 10
-35.772199999999998
 20
5.1260900000000023
 30
0.0
 70
    32
  0
VERTEX
  5
174B
  8
240
 10
-35.704599999999999
 20
5.0166600000000008
 30
0.0
 70
    32
  0
VERTEX
  5
174C
  8
240
 10
-35.638199999999998
 20
4.9069700000000012
 30
0.0
 70
    32
  0
VERTEX
  5
174D
  8
240
 10
-35.573099999999997
 20
4.7970200000000007
 30
0.0
 70
    32
  0
VERTEX
  5
174E
  8
240
 10
-35.5092
 20
4.6868200000000009
 30
0.0
 70
    32
  0
VERTEX
  5
174F
  8
240
 10
-35.446599999999997
 20
4.5763800000000021
 30
0.0
 70
    32
  0
VERTEX
  5
1750
  8
240
 10
-35.385300000000001
 20
4.4657100000000014
 30
0.0
 70
    32
  0
VERTEX
  5
1751
  8
240
 10
-35.325299999999999
 20
4.3548100000000014
 30
0.0
 70
    32
  0
VERTEX
  5
1752
  8
240
 10
-35.266500000000001
 20
4.2437000000000014
 30
0.0
 70
    32
  0
VERTEX
  5
1753
  8
240
 10
-35.209099999999999
 20
4.1323800000000022
 30
0.0
 70
    32
  0
VERTEX
  5
1754
  8
240
 10
-35.152999999999999
 20
4.0208600000000008
 30
0.0
 70
    32
  0
VERTEX
  5
1755
  8
240
 10
-35.098199999999999
 20
3.9091500000000008
 30
0.0
 70
    32
  0
VERTEX
  5
1756
  8
240
 10
-35.044800000000002
 20
3.7972500000000009
 30
0.0
 70
    32
  0
VERTEX
  5
1757
  8
240
 10
-34.992699999999999
 20
3.6851800000000021
 30
0.0
 70
    32
  0
VERTEX
  5
1758
  8
240
 10
-34.942
 20
3.572950000000001
 30
0.0
 70
    32
  0
VERTEX
  5
1759
  8
240
 10
-34.892600000000002
 20
3.460560000000001
 30
0.0
 70
    32
  0
VERTEX
  5
175A
  8
240
 10
-34.844700000000003
 20
3.3480200000000009
 30
0.0
 70
    32
  0
VERTEX
  5
175B
  8
240
 10
-34.798099999999998
 20
3.2353400000000021
 30
0.0
 70
    32
  0
VERTEX
  5
175C
  8
240
 10
-34.752899999999997
 20
3.1225200000000011
 30
0.0
 70
    32
  0
VERTEX
  5
175D
  8
240
 10
-34.709099999999999
 20
3.009580000000001
 30
0.0
 70
    32
  0
VERTEX
  5
175E
  8
240
 10
-34.666800000000002
 20
2.896520000000002
 30
0.0
 70
    32
  0
VERTEX
  5
175F
  8
240
 10
-34.625900000000001
 20
2.7833600000000009
 30
0.0
 70
    32
  0
VERTEX
  5
1760
  8
240
 10
-34.586399999999998
 20
2.670100000000001
 30
0.0
 70
    32
  0
VERTEX
  5
1761
  8
240
 10
-34.548400000000001
 20
2.5567400000000009
 30
0.0
 70
    32
  0
VERTEX
  5
1762
  8
240
 10
-34.511899999999997
 20
2.4433000000000011
 30
0.0
 70
    32
  0
VERTEX
  5
1763
  8
240
 10
-34.476799999999997
 20
2.3297900000000009
 30
0.0
 70
    32
  0
VERTEX
  5
1764
  8
240
 10
-34.443199999999997
 20
2.2162100000000011
 30
0.0
 70
    32
  0
VERTEX
  5
1765
  8
240
 10
-34.411099999999998
 20
2.1025700000000009
 30
0.0
 70
    32
  0
VERTEX
  5
1766
  8
240
 10
-34.380499999999998
 20
1.9888800000000011
 30
0.0
 70
    32
  0
VERTEX
  5
1767
  8
240
 10
-34.351500000000001
 20
1.875150000000001
 30
0.0
 70
    32
  0
VERTEX
  5
1768
  8
240
 10
-34.323900000000002
 20
1.761390000000002
 30
0.0
 70
    32
  0
VERTEX
  5
1769
  8
240
 10
-34.297899999999998
 20
1.6476000000000011
 30
0.0
 70
    32
  0
VERTEX
  5
176A
  8
240
 10
-34.273499999999999
 20
1.5338000000000009
 30
0.0
 70
    32
  0
VERTEX
  5
176B
  8
240
 10
-34.250599999999999
 20
1.4199800000000009
 30
0.0
 70
    32
  0
VERTEX
  5
176C
  8
240
 10
-34.229199999999999
 20
1.3061700000000009
 30
0.0
 70
    32
  0
VERTEX
  5
176D
  8
240
 10
-34.209499999999998
 20
1.192370000000001
 30
0.0
 70
    32
  0
VERTEX
  5
176E
  8
240
 10
-34.191299999999998
 20
1.078580000000001
 30
0.0
 70
    32
  0
VERTEX
  5
176F
  8
240
 10
-34.174799999999998
 20
0.9648150000000018
 30
0.0
 70
    32
  0
VERTEX
  5
1770
  8
240
 10
-34.159799999999997
 20
0.8510850000000019
 30
0.0
 70
    32
  0
VERTEX
  5
1771
  8
240
 10
-34.146500000000003
 20
0.7373960000000018
 30
0.0
 70
    32
  0
VERTEX
  5
1772
  8
240
 10
-34.134799999999998
 20
0.6237570000000018
 30
0.0
 70
    32
  0
VERTEX
  5
1773
  8
240
 10
-34.124699999999997
 20
0.5101760000000019
 30
0.0
 70
    32
  0
VERTEX
  5
1774
  8
240
 10
-34.11630000000001
 20
0.3966610000000017
 30
0.0
 70
    32
  0
VERTEX
  5
1775
  8
240
 10
-34.109499999999997
 20
0.2832200000000018
 30
0.0
 70
    32
  0
VERTEX
  5
1776
  8
240
 10
-34.104500000000002
 20
0.1698630000000018
 30
0.0
 70
    32
  0
VERTEX
  5
1777
  8
240
 10
-34.101100000000002
 20
0.0565964000000018
 30
0.0
 70
    32
  0
VERTEX
  5
1778
  8
240
 10
-34.09940000000001
 20
-0.0565705999999982
 30
0.0
 70
    32
  0
VERTEX
  5
1779
  8
240
 10
-34.099299999999999
 20
-0.1696329999999982
 30
0.0
 70
    32
  0
VERTEX
  5
177A
  8
240
 10
-34.100999999999999
 20
-0.2825869999999982
 30
0.0
 70
    32
  0
VERTEX
  5
177B
  8
240
 10
-34.104399999999998
 20
-0.3954309999999982
 30
0.0
 70
    32
  0
VERTEX
  5
177C
  8
240
 10
-34.109400000000001
 20
-0.5081609999999982
 30
0.0
 70
    32
  0
VERTEX
  5
177D
  8
240
 10
-34.116
 20
-0.6207759999999983
 30
0.0
 70
    32
  0
VERTEX
  5
177E
  8
240
 10
-34.124400000000001
 20
-0.7332719999999983
 30
0.0
 70
    32
  0
VERTEX
  5
177F
  8
240
 10
-34.134300000000003
 20
-0.8456469999999982
 30
0.0
 70
    32
  0
VERTEX
  5
1780
  8
240
 10
-34.145899999999997
 20
-0.9578979999999981
 30
0.0
 70
    32
  0
VERTEX
  5
1781
  8
240
 10
-34.159100000000002
 20
-1.070019999999998
 30
0.0
 70
    32
  0
VERTEX
  5
1782
  8
240
 10
-34.173999999999999
 20
-1.1820199999999981
 30
0.0
 70
    32
  0
VERTEX
  5
1783
  8
240
 10
-34.190399999999997
 20
-1.2938799999999979
 30
0.0
 70
    32
  0
VERTEX
  5
1784
  8
240
 10
-34.208399999999997
 20
-1.405609999999998
 30
0.0
 70
    32
  0
VERTEX
  5
1785
  8
240
 10
-34.228099999999998
 20
-1.5171999999999981
 30
0.0
 70
    32
  0
VERTEX
  5
1786
  8
240
 10
-34.249299999999998
 20
-1.6286399999999981
 30
0.0
 70
    32
  0
VERTEX
  5
1787
  8
240
 10
-34.271999999999998
 20
-1.7399499999999981
 30
0.0
 70
    32
  0
VERTEX
  5
1788
  8
240
 10
-34.296399999999998
 20
-1.851109999999998
 30
0.0
 70
    32
  0
VERTEX
  5
1789
  8
240
 10
-34.322299999999998
 20
-1.9621199999999981
 30
0.0
 70
    32
  0
VERTEX
  5
178A
  8
240
 10
-34.349699999999999
 20
-2.072979999999998
 30
0.0
 70
    32
  0
VERTEX
  5
178B
  8
240
 10
-34.378700000000002
 20
-2.1836899999999981
 30
0.0
 70
    32
  0
VERTEX
  5
178C
  8
240
 10
-34.409199999999998
 20
-2.2942399999999981
 30
0.0
 70
    32
  0
VERTEX
  5
178D
  8
240
 10
-34.441200000000002
 20
-2.4046299999999978
 30
0.0
 70
    32
  0
VERTEX
  5
178E
  8
240
 10
-34.474699999999999
 20
-2.514859999999997
 30
0.0
 70
    32
  0
VERTEX
  5
178F
  8
240
 10
-34.509799999999998
 20
-2.6249199999999981
 30
0.0
 70
    32
  0
VERTEX
  5
1790
  8
240
 10
-34.546300000000002
 20
-2.7348199999999978
 30
0.0
 70
    32
  0
VERTEX
  5
1791
  8
240
 10
-34.584299999999999
 20
-2.8445399999999981
 30
0.0
 70
    32
  0
VERTEX
  5
1792
  8
240
 10
-34.623800000000003
 20
-2.9540899999999981
 30
0.0
 70
    32
  0
VERTEX
  5
1793
  8
240
 10
-34.664700000000011
 20
-3.0634699999999979
 30
0.0
 70
    32
  0
VERTEX
  5
1794
  8
240
 10
-34.707099999999997
 20
-3.1726699999999979
 30
0.0
 70
    32
  0
VERTEX
  5
1795
  8
240
 10
-34.750999999999998
 20
-3.2816799999999979
 30
0.0
 70
    32
  0
VERTEX
  5
1796
  8
240
 10
-34.796300000000002
 20
-3.3905199999999969
 30
0.0
 70
    32
  0
VERTEX
  5
1797
  8
240
 10
-34.843000000000011
 20
-3.499159999999998
 30
0.0
 70
    32
  0
VERTEX
  5
1798
  8
240
 10
-34.891199999999998
 20
-3.6076199999999981
 30
0.0
 70
    32
  0
VERTEX
  5
1799
  8
240
 10
-34.9407
 20
-3.7158799999999981
 30
0.0
 70
    32
  0
VERTEX
  5
179A
  8
240
 10
-34.991700000000002
 20
-3.8239499999999982
 30
0.0
 70
    32
  0
VERTEX
  5
179B
  8
240
 10
-35.0441
 20
-3.9318299999999979
 30
0.0
 70
    32
  0
VERTEX
  5
179C
  8
240
 10
-35.097799999999999
 20
-4.0394999999999976
 30
0.0
 70
    32
  0
VERTEX
  5
179D
  8
240
 10
-35.152999999999999
 20
-4.1469699999999969
 30
0.0
 70
    32
  0
VERTEX
  5
179E
  8
240
 10
-35.209499999999998
 20
-4.254229999999998
 30
0.0
 70
    32
  0
VERTEX
  5
179F
  8
240
 10
-35.267400000000002
 20
-4.361279999999998
 30
0.0
 70
    32
  0
VERTEX
  5
17A0
  8
240
 10
-35.326599999999999
 20
-4.4681299999999977
 30
0.0
 70
    32
  0
VERTEX
  5
17A1
  8
240
 10
-35.387099999999997
 20
-4.5747599999999968
 30
0.0
 70
    32
  0
VERTEX
  5
17A2
  8
240
 10
-35.449100000000001
 20
-4.6811699999999981
 30
0.0
 70
    32
  0
VERTEX
  5
17A3
  8
240
 10
-35.512300000000003
 20
-4.787359999999997
 30
0.0
 70
    32
  0
VERTEX
  5
17A4
  8
240
 10
-35.576799999999999
 20
-4.893329999999998
 30
0.0
 70
    32
  0
VERTEX
  5
17A5
  8
240
 10
-35.642699999999998
 20
-4.9990799999999984
 30
0.0
 70
    32
  0
VERTEX
  5
17A6
  8
240
 10
-35.709899999999998
 20
-5.1045999999999969
 30
0.0
 70
    32
  0
VERTEX
  5
17A7
  8
240
 10
-35.778300000000002
 20
-5.2098899999999979
 30
0.0
 70
    32
  0
VERTEX
  5
17A8
  8
240
 10
-35.848100000000002
 20
-5.314949999999997
 30
0.0
 70
    32
  0
VERTEX
  5
17A9
  8
240
 10
-35.9191
 20
-5.4197699999999971
 30
0.0
 70
    32
  0
VERTEX
  5
17AA
  8
240
 10
-35.991399999999999
 20
-5.5243499999999983
 30
0.0
 70
    32
  0
VERTEX
  5
17AB
  8
240
 10
-36.064900000000002
 20
-5.6286899999999971
 30
0.0
 70
    32
  0
VERTEX
  5
17AC
  8
240
 10
-36.139699999999998
 20
-5.7327899999999978
 30
0.0
 70
    32
  0
VERTEX
  5
17AD
  8
240
 10
-36.215699999999998
 20
-5.8366399999999983
 30
0.0
 70
    32
  0
VERTEX
  5
17AE
  8
240
 10
-36.292999999999999
 20
-5.9402399999999984
 30
0.0
 70
    32
  0
VERTEX
  5
17AF
  8
240
 10
-36.371499999999997
 20
-6.0435899999999982
 30
0.0
 70
    32
  0
VERTEX
  5
17B0
  8
240
 10
-36.4512
 20
-6.1466799999999981
 30
0.0
 70
    32
  0
VERTEX
  5
17B1
  8
240
 10
-36.5321
 20
-6.2495199999999969
 30
0.0
 70
    32
  0
VERTEX
  5
17B2
  8
240
 10
-36.614199999999997
 20
-6.3520899999999978
 30
0.0
 70
    32
  0
VERTEX
  5
17B3
  8
240
 10
-36.697499999999998
 20
-6.4544099999999984
 30
0.0
 70
    32
  0
VERTEX
  5
17B4
  8
240
 10
-36.7819
 20
-6.5564599999999977
 30
0.0
 70
    32
  0
VERTEX
  5
17B5
  8
240
 10
-36.867600000000003
 20
-6.6582399999999966
 30
0.0
 70
    32
  0
VERTEX
  5
17B6
  8
240
 10
-36.9544
 20
-6.7597499999999977
 30
0.0
 70
    32
  0
VERTEX
  5
17B7
  8
240
 10
-37.042299999999997
 20
-6.8609799999999979
 30
0.0
 70
    32
  0
VERTEX
  5
17B8
  8
240
 10
-37.131399999999999
 20
-6.9619399999999967
 30
0.0
 70
    32
  0
VERTEX
  5
17B9
  8
240
 10
-37.221699999999998
 20
-7.0626199999999981
 30
0.0
 70
    32
  0
VERTEX
  5
17BA
  8
240
 10
-37.313000000000002
 20
-7.1630199999999968
 30
0.0
 70
    32
  0
VERTEX
  5
17BB
  8
240
 10
-37.405500000000011
 20
-7.2631299999999976
 30
0.0
 70
    32
  0
VERTEX
  5
17BC
  8
240
 10
-37.499099999999999
 20
-7.362949999999997
 30
0.0
 70
    32
  0
VERTEX
  5
17BD
  8
240
 10
-37.593800000000002
 20
-7.4624899999999981
 30
0.0
 70
    32
  0
VERTEX
  5
17BE
  8
240
 10
-37.689599999999999
 20
-7.5617299999999981
 30
0.0
 70
    32
  0
VERTEX
  5
17BF
  8
240
 10
-37.786499999999997
 20
-7.6606799999999984
 30
0.0
 70
    32
  0
VERTEX
  5
17C0
  8
240
 10
-37.884399999999999
 20
-7.7593299999999976
 30
0.0
 70
    32
  0
VERTEX
  5
17C1
  8
240
 10
-37.983400000000003
 20
-7.857669999999997
 30
0.0
 70
    32
  0
VERTEX
  5
17C2
  8
240
 10
-38.083500000000001
 20
-7.9557199999999968
 30
0.0
 70
    32
  0
VERTEX
  5
17C3
  8
240
 10
-38.184600000000003
 20
-8.0534499999999962
 30
0.0
 70
    32
  0
VERTEX
  5
17C4
  8
240
 10
-38.286799999999999
 20
-8.150879999999999
 30
0.0
 70
    32
  0
VERTEX
  5
17C5
  8
240
 10
-38.389899999999997
 20
-8.2479999999999976
 30
0.0
 70
    32
  0
VERTEX
  5
17C6
  8
240
 10
-38.494199999999999
 20
-8.3447999999999976
 30
0.0
 70
    32
  0
VERTEX
  5
17C7
  8
240
 10
-38.599400000000003
 20
-8.441279999999999
 30
0.0
 70
    32
  0
VERTEX
  5
17C8
  8
240
 10
-38.705599999999997
 20
-8.5374499999999962
 30
0.0
 70
    32
  0
VERTEX
  5
17C9
  8
240
 10
-38.812800000000003
 20
-8.633289999999997
 30
0.0
 70
    32
  0
VERTEX
  5
17CA
  8
240
 10
-38.921100000000003
 20
-8.7288099999999993
 30
0.0
 70
    32
  0
VERTEX
  5
17CB
  8
240
 10
-39.030299999999997
 20
-8.8239899999999984
 30
0.0
 70
    32
  0
VERTEX
  5
17CC
  8
240
 10
-39.1404
 20
-8.9188499999999991
 30
0.0
 70
    32
  0
VERTEX
  5
17CD
  8
240
 10
-39.251600000000003
 20
-9.0133699999999983
 30
0.0
 70
    32
  0
VERTEX
  5
17CE
  8
240
 10
-39.363599999999998
 20
-9.1075599999999994
 30
0.0
 70
    32
  0
VERTEX
  5
17CF
  8
240
 10
-39.476700000000001
 20
-9.2014099999999992
 30
0.0
 70
    32
  0
VERTEX
  5
17D0
  8
240
 10
-39.590600000000002
 20
-9.294909999999998
 30
0.0
 70
    32
  0
VERTEX
  5
17D1
  8
240
 10
-39.705500000000001
 20
-9.3880699999999973
 30
0.0
 70
    32
  0
VERTEX
  5
17D2
  8
240
 10
-39.821300000000001
 20
-9.4808899999999952
 30
0.0
 70
    32
  0
VERTEX
  5
17D3
  8
240
 10
-39.938000000000002
 20
-9.5733499999999978
 30
0.0
 70
    32
  0
VERTEX
  5
17D4
  8
240
 10
-40.055700000000002
 20
-9.6654599999999995
 30
0.0
 70
    32
  0
VERTEX
  5
17D5
  8
240
 10
-40.174199999999999
 20
-9.7572199999999984
 30
0.0
 70
    32
  0
VERTEX
  5
17D6
  8
240
 10
-40.293599999999991
 20
-9.8486199999999986
 30
0.0
 70
    32
  0
VERTEX
  5
17D7
  8
240
 10
-40.413800000000002
 20
-9.9396499999999985
 30
0.0
 70
    32
  0
VERTEX
  5
17D8
  8
240
 10
-40.534999999999989
 20
-10.0303
 30
0.0
 70
    32
  0
VERTEX
  5
17D9
  8
240
 10
-40.656999999999989
 20
-10.120599999999991
 30
0.0
 70
    32
  0
VERTEX
  5
17DA
  8
240
 10
-40.779800000000002
 20
-10.210599999999999
 30
0.0
 70
    32
  0
VERTEX
  5
17DB
  8
240
 10
-40.903499999999987
 20
-10.3001
 30
0.0
 70
    32
  0
VERTEX
  5
17DC
  8
240
 10
-41.027999999999999
 20
-10.3893
 30
0.0
 70
    32
  0
VERTEX
  5
17DD
  8
240
 10
-41.153300000000002
 20
-10.4781
 30
0.0
 70
    32
  0
VERTEX
  5
17DE
  8
240
 10
-41.279499999999999
 20
-10.56659999999999
 30
0.0
 70
    32
  0
VERTEX
  5
17DF
  8
240
 10
-41.406399999999998
 20
-10.6546
 30
0.0
 70
    32
  0
VERTEX
  5
17E0
  8
240
 10
-41.534199999999991
 20
-10.7423
 30
0.0
 70
    32
  0
VERTEX
  5
17E1
  8
240
 10
-41.662699999999987
 20
-10.82959999999999
 30
0.0
 70
    32
  0
VERTEX
  5
17E2
  8
240
 10
-41.792000000000002
 20
-10.916499999999999
 30
0.0
 70
    32
  0
VERTEX
  5
17E3
  8
240
 10
-41.9221
 20
-11.0029
 30
0.0
 70
    32
  0
VERTEX
  5
17E4
  8
240
 10
-42.052999999999997
 20
-11.089
 30
0.0
 70
    32
  0
VERTEX
  5
17E5
  8
240
 10
-42.184600000000003
 20
-11.174699999999991
 30
0.0
 70
    32
  0
VERTEX
  5
17E6
  8
240
 10
-42.31689999999999
 20
-11.26
 30
0.0
 70
    32
  0
VERTEX
  5
17E7
  8
240
 10
-42.450000000000003
 20
-11.344900000000001
 30
0.0
 70
    32
  0
SEQEND
  5
17E8
  8
240
  0
POLYLINE
  5
17E9
  8
240
 66
     1
 10
0.0
 20
0.0
 30
0.0
 70
     8
  0
VERTEX
  5
17EA
  8
240
 10
-62.100000000000001
 20
-0.0000000016944782
 30
0.0
 70
    32
  0
VERTEX
  5
17EB
  8
240
 10
-62.099499999999999
 20
0.1461890000000018
 30
0.0
 70
    32
  0
VERTEX
  5
17EC
  8
240
 10
-62.097999999999999
 20
0.2923060000000018
 30
0.0
 70
    32
  0
VERTEX
  5
17ED
  8
240
 10
-62.095500000000001
 20
0.4383370000000017
 30
0.0
 70
    32
  0
VERTEX
  5
17EE
  8
240
 10
-62.092100000000002
 20
0.5842690000000017
 30
0.0
 70
    32
  0
VERTEX
  5
17EF
  8
240
 10
-62.087600000000002
 20
0.7300890000000018
 30
0.0
 70
    32
  0
VERTEX
  5
17F0
  8
240
 10
-62.0822
 20
0.8757840000000017
 30
0.0
 70
    32
  0
VERTEX
  5
17F1
  8
240
 10
-62.075800000000001
 20
1.021340000000001
 30
0.0
 70
    32
  0
VERTEX
  5
17F2
  8
240
 10
-62.0685
 20
1.1667500000000011
 30
0.0
 70
    32
  0
VERTEX
  5
17F3
  8
240
 10
-62.060200000000002
 20
1.3119900000000011
 30
0.0
 70
    32
  0
VERTEX
  5
17F4
  8
240
 10
-62.050899999999999
 20
1.4570500000000011
 30
0.0
 70
    32
  0
VERTEX
  5
17F5
  8
240
 10
-62.040700000000001
 20
1.6019200000000009
 30
0.0
 70
    32
  0
VERTEX
  5
17F6
  8
240
 10
-62.029499999999999
 20
1.746590000000001
 30
0.0
 70
    32
  0
VERTEX
  5
17F7
  8
240
 10
-62.017299999999999
 20
1.8910400000000009
 30
0.0
 70
    32
  0
VERTEX
  5
17F8
  8
240
 10
-62.004199999999997
 20
2.035270000000001
 30
0.0
 70
    32
  0
VERTEX
  5
17F9
  8
240
 10
-61.990099999999998
 20
2.179250000000001
 30
0.0
 70
    32
  0
VERTEX
  5
17FA
  8
240
 10
-61.975099999999998
 20
2.3229700000000011
 30
0.0
 70
    32
  0
VERTEX
  5
17FB
  8
240
 10
-61.959099999999999
 20
2.4664200000000021
 30
0.0
 70
    32
  0
VERTEX
  5
17FC
  8
240
 10
-61.9422
 20
2.6095900000000021
 30
0.0
 70
    32
  0
VERTEX
  5
17FD
  8
240
 10
-61.924300000000002
 20
2.7524700000000011
 30
0.0
 70
    32
  0
VERTEX
  5
17FE
  8
240
 10
-61.905500000000004
 20
2.8950400000000012
 30
0.0
 70
    32
  0
VERTEX
  5
17FF
  8
240
 10
-61.885800000000003
 20
3.0372800000000009
 30
0.0
 70
    32
  0
VERTEX
  5
1800
  8
240
 10
-61.865099999999998
 20
3.1791900000000011
 30
0.0
 70
    32
  0
VERTEX
  5
1801
  8
240
 10
-61.843400000000003
 20
3.3207500000000012
 30
0.0
 70
    32
  0
VERTEX
  5
1802
  8
240
 10
-61.820900000000002
 20
3.4619500000000012
 30
0.0
 70
    32
  0
VERTEX
  5
1803
  8
240
 10
-61.7973
 20
3.602780000000001
 30
0.0
 70
    32
  0
VERTEX
  5
1804
  8
240
 10
-61.7729
 20
3.7432200000000009
 30
0.0
 70
    32
  0
VERTEX
  5
1805
  8
240
 10
-61.747500000000002
 20
3.8832600000000008
 30
0.0
 70
    32
  0
VERTEX
  5
1806
  8
240
 10
-61.721200000000003
 20
4.0228800000000016
 30
0.0
 70
    32
  0
VERTEX
  5
1807
  8
240
 10
-61.694000000000003
 20
4.1620800000000022
 30
0.0
 70
    32
  0
VERTEX
  5
1808
  8
240
 10
-61.66579999999999
 20
4.3008400000000009
 30
0.0
 70
    32
  0
VERTEX
  5
1809
  8
240
 10
-61.636800000000001
 20
4.4391500000000006
 30
0.0
 70
    32
  0
VERTEX
  5
180A
  8
240
 10
-61.6068
 20
4.5769800000000016
 30
0.0
 70
    32
  0
VERTEX
  5
180B
  8
240
 10
-61.575800000000001
 20
4.7143400000000009
 30
0.0
 70
    32
  0
VERTEX
  5
180C
  8
240
 10
-61.54399999999999
 20
4.8512100000000009
 30
0.0
 70
    32
  0
VERTEX
  5
180D
  8
240
 10
-61.511299999999999
 20
4.9875800000000021
 30
0.0
 70
    32
  0
VERTEX
  5
180E
  8
240
 10
-61.477600000000002
 20
5.1234200000000012
 30
0.0
 70
    32
  0
VERTEX
  5
180F
  8
240
 10
-61.442999999999998
 20
5.2587300000000008
 30
0.0
 70
    32
  0
VERTEX
  5
1810
  8
240
 10
-61.407499999999999
 20
5.3935000000000022
 30
0.0
 70
    32
  0
VERTEX
  5
1811
  8
240
 10
-61.371200000000002
 20
5.5277100000000008
 30
0.0
 70
    32
  0
VERTEX
  5
1812
  8
240
 10
-61.3339
 20
5.6613500000000014
 30
0.0
 70
    32
  0
VERTEX
  5
1813
  8
240
 10
-61.295699999999997
 20
5.7944000000000022
 30
0.0
 70
    32
  0
VERTEX
  5
1814
  8
240
 10
-61.256599999999992
 20
5.9268600000000013
 30
0.0
 70
    32
  0
VERTEX
  5
1815
  8
240
 10
-61.2166
 20
6.0587100000000014
 30
0.0
 70
    32
  0
VERTEX
  5
1816
  8
240
 10
-61.175699999999999
 20
6.1899300000000022
 30
0.0
 70
    32
  0
VERTEX
  5
1817
  8
240
 10
-61.13389999999999
 20
6.320520000000001
 30
0.0
 70
    32
  0
VERTEX
  5
1818
  8
240
 10
-61.091200000000001
 20
6.4504600000000014
 30
0.0
 70
    32
  0
VERTEX
  5
1819
  8
240
 10
-61.047600000000003
 20
6.5797300000000023
 30
0.0
 70
    32
  0
VERTEX
  5
181A
  8
240
 10
-61.003199999999993
 20
6.708330000000001
 30
0.0
 70
    32
  0
VERTEX
  5
181B
  8
240
 10
-60.957799999999999
 20
6.8362400000000001
 30
0.0
 70
    32
  0
VERTEX
  5
181C
  8
240
 10
-60.9116
 20
6.9634500000000008
 30
0.0
 70
    32
  0
VERTEX
  5
181D
  8
240
 10
-60.8645
 20
7.0899400000000012
 30
0.0
 70
    32
  0
VERTEX
  5
181E
  8
240
 10
-60.816499999999991
 20
7.2157000000000009
 30
0.0
 70
    32
  0
VERTEX
  5
181F
  8
240
 10
-60.767600000000002
 20
7.3407300000000024
 30
0.0
 70
    32
  0
VERTEX
  5
1820
  8
240
 10
-60.7179
 20
7.4649900000000011
 30
0.0
 70
    32
  0
VERTEX
  5
1821
  8
240
 10
-60.667200000000001
 20
7.5884900000000011
 30
0.0
 70
    32
  0
VERTEX
  5
1822
  8
240
 10
-60.6158
 20
7.7112100000000021
 30
0.0
 70
    32
  0
VERTEX
  5
1823
  8
240
 10
-60.563400000000001
 20
7.8331400000000011
 30
0.0
 70
    32
  0
VERTEX
  5
1824
  8
240
 10
-60.510100000000001
 20
7.9542600000000023
 30
0.0
 70
    32
  0
VERTEX
  5
1825
  8
240
 10
-60.456000000000003
 20
8.0745500000000021
 30
0.0
 70
    32
  0
VERTEX
  5
1826
  8
240
 10
-60.4011
 20
8.1940200000000019
 30
0.0
 70
    32
  0
VERTEX
  5
1827
  8
240
 10
-60.345199999999998
 20
8.3126400000000018
 30
0.0
 70
    32
  0
VERTEX
  5
1828
  8
240
 10
-60.288600000000002
 20
8.4304000000000023
 30
0.0
 70
    32
  0
VERTEX
  5
1829
  8
240
 10
-60.231000000000002
 20
8.5472800000000024
 30
0.0
 70
    32
  0
VERTEX
  5
182A
  8
240
 10
-60.172600000000003
 20
8.6632800000000021
 30
0.0
 70
    32
  0
VERTEX
  5
182B
  8
240
 10
-60.113300000000002
 20
8.7783900000000017
 30
0.0
 70
    32
  0
VERTEX
  5
182C
  8
240
 10
-60.053199999999997
 20
8.8925800000000024
 30
0.0
 70
    32
  0
VERTEX
  5
182D
  8
240
 10
-59.9923
 20
9.0058399999999992
 30
0.0
 70
    32
  0
VERTEX
  5
182E
  8
240
 10
-59.930500000000002
 20
9.1181699999999992
 30
0.0
 70
    32
  0
VERTEX
  5
182F
  8
240
 10
-59.867800000000003
 20
9.2295400000000019
 30
0.0
 70
    32
  0
VERTEX
  5
1830
  8
240
 10
-59.804299999999998
 20
9.3399500000000018
 30
0.0
 70
    32
  0
VERTEX
  5
1831
  8
240
 10
-59.740000000000002
 20
9.4493900000000011
 30
0.0
 70
    32
  0
VERTEX
  5
1832
  8
240
 10
-59.674799999999998
 20
9.5578300000000027
 30
0.0
 70
    32
  0
VERTEX
  5
1833
  8
240
 10
-59.608699999999992
 20
9.6652700000000014
 30
0.0
 70
    32
  0
VERTEX
  5
1834
  8
240
 10
-59.541899999999998
 20
9.7716900000000013
 30
0.0
 70
    32
  0
VERTEX
  5
1835
  8
240
 10
-59.47420000000001
 20
9.8770800000000012
 30
0.0
 70
    32
  0
VERTEX
  5
1836
  8
240
 10
-59.40570000000001
 20
9.9814300000000014
 30
0.0
 70
    32
  0
VERTEX
  5
1837
  8
240
 10
-59.336300000000001
 20
10.0847
 30
0.0
 70
    32
  0
VERTEX
  5
1838
  8
240
 10
-59.266100000000002
 20
10.1869
 30
0.0
 70
    32
  0
VERTEX
  5
1839
  8
240
 10
-59.195099999999989
 20
10.2881
 30
0.0
 70
    32
  0
VERTEX
  5
183A
  8
240
 10
-59.1233
 20
10.3881
 30
0.0
 70
    32
  0
VERTEX
  5
183B
  8
240
 10
-59.050600000000003
 20
10.4871
 30
0.0
 70
    32
  0
VERTEX
  5
183C
  8
240
 10
-58.9771
 20
10.584899999999999
 30
0.0
 70
    32
  0
VERTEX
  5
183D
  8
240
 10
-58.902799999999999
 20
10.6816
 30
0.0
 70
    32
  0
VERTEX
  5
183E
  8
240
 10
-58.8277
 20
10.777100000000001
 30
0.0
 70
    32
  0
VERTEX
  5
183F
  8
240
 10
-58.751800000000003
 20
10.871499999999999
 30
0.0
 70
    32
  0
VERTEX
  5
1840
  8
240
 10
-58.6751
 20
10.964700000000001
 30
0.0
 70
    32
  0
VERTEX
  5
1841
  8
240
 10
-58.597499999999997
 20
11.056699999999999
 30
0.0
 70
    32
  0
VERTEX
  5
1842
  8
240
 10
-58.519199999999991
 20
11.147500000000001
 30
0.0
 70
    32
  0
VERTEX
  5
1843
  8
240
 10
-58.439999999999998
 20
11.2371
 30
0.0
 70
    32
  0
VERTEX
  5
1844
  8
240
 10
-58.359999999999999
 20
11.3254
 30
0.0
 70
    32
  0
VERTEX
  5
1845
  8
240
 10
-58.279299999999999
 20
11.412599999999999
 30
0.0
 70
    32
  0
VERTEX
  5
1846
  8
240
 10
-58.197699999999998
 20
11.4984
 30
0.0
 70
    32
  0
VERTEX
  5
1847
  8
240
 10
-58.115299999999998
 20
11.583
 30
0.0
 70
    32
  0
VERTEX
  5
1848
  8
240
 10
-58.032099999999993
 20
11.666399999999999
 30
0.0
 70
    32
  0
VERTEX
  5
1849
  8
240
 10
-57.9482
 20
11.7484
 30
0.0
 70
    32
  0
VERTEX
  5
184A
  8
240
 10
-57.863399999999999
 20
11.8291
 30
0.0
 70
    32
  0
VERTEX
  5
184B
  8
240
 10
-57.777900000000002
 20
11.9086
 30
0.0
 70
    32
  0
VERTEX
  5
184C
  8
240
 10
-57.691600000000001
 20
11.986599999999999
 30
0.0
 70
    32
  0
VERTEX
  5
184D
  8
240
 10
-57.604500000000002
 20
12.0634
 30
0.0
 70
    32
  0
VERTEX
  5
184E
  8
240
 10
-57.516599999999997
 20
12.1388
 30
0.0
 70
    32
  0
VERTEX
  5
184F
  8
240
 10
-57.427900000000001
 20
12.2128
 30
0.0
 70
    32
  0
VERTEX
  5
1850
  8
240
 10
-57.3384
 20
12.285399999999999
 30
0.0
 70
    32
  0
VERTEX
  5
1851
  8
240
 10
-57.248199999999997
 20
12.3566
 30
0.0
 70
    32
  0
VERTEX
  5
1852
  8
240
 10
-57.15720000000001
 20
12.426399999999999
 30
0.0
 70
    32
  0
VERTEX
  5
1853
  8
240
 10
-57.065399999999997
 20
12.4948
 30
0.0
 70
    32
  0
VERTEX
  5
1854
  8
240
 10
-56.972799999999999
 20
12.5618
 30
0.0
 70
    32
  0
VERTEX
  5
1855
  8
240
 10
-56.8795
 20
12.6273
 30
0.0
 70
    32
  0
VERTEX
  5
1856
  8
240
 10
-56.785400000000003
 20
12.6913
 30
0.0
 70
    32
  0
VERTEX
  5
1857
  8
240
 10
-56.6905
 20
12.7539
 30
0.0
 70
    32
  0
VERTEX
  5
1858
  8
240
 10
-56.594900000000003
 20
12.815
 30
0.0
 70
    32
  0
VERTEX
  5
1859
  8
240
 10
-56.4985
 20
12.874599999999999
 30
0.0
 70
    32
  0
VERTEX
  5
185A
  8
240
 10
-56.401299999999999
 20
12.932600000000001
 30
0.0
 70
    32
  0
VERTEX
  5
185B
  8
240
 10
-56.303400000000003
 20
12.9892
 30
0.0
 70
    32
  0
VERTEX
  5
185C
  8
240
 10
-56.204799999999999
 20
13.0442
 30
0.0
 70
    32
  0
VERTEX
  5
185D
  8
240
 10
-56.105400000000003
 20
13.0977
 30
0.0
 70
    32
  0
VERTEX
  5
185E
  8
240
 10
-56.005200000000002
 20
13.149699999999999
 30
0.0
 70
    32
  0
VERTEX
  5
185F
  8
240
 10
-55.904400000000003
 20
13.2003
 30
0.0
 70
    32
  0
VERTEX
  5
1860
  8
240
 10
-55.802799999999998
 20
13.2493
 30
0.0
 70
    32
  0
VERTEX
  5
1861
  8
240
 10
-55.700499999999998
 20
13.296900000000001
 30
0.0
 70
    32
  0
VERTEX
  5
1862
  8
240
 10
-55.597499999999997
 20
13.343
 30
0.0
 70
    32
  0
VERTEX
  5
1863
  8
240
 10
-55.4938
 20
13.387600000000001
 30
0.0
 70
    32
  0
VERTEX
  5
1864
  8
240
 10
-55.389400000000002
 20
13.4307
 30
0.0
 70
    32
  0
VERTEX
  5
1865
  8
240
 10
-55.284300000000002
 20
13.4724
 30
0.0
 70
    32
  0
VERTEX
  5
1866
  8
240
 10
-55.1785
 20
13.512700000000001
 30
0.0
 70
    32
  0
VERTEX
  5
1867
  8
240
 10
-55.072000000000003
 20
13.551500000000001
 30
0.0
 70
    32
  0
VERTEX
  5
1868
  8
240
 10
-54.9649
 20
13.588800000000001
 30
0.0
 70
    32
  0
VERTEX
  5
1869
  8
240
 10
-54.857100000000003
 20
13.6248
 30
0.0
 70
    32
  0
VERTEX
  5
186A
  8
240
 10
-54.748699999999999
 20
13.6593
 30
0.0
 70
    32
  0
VERTEX
  5
186B
  8
240
 10
-54.639600000000002
 20
13.692399999999999
 30
0.0
 70
    32
  0
VERTEX
  5
186C
  8
240
 10
-54.529899999999991
 20
13.724
 30
0.0
 70
    32
  0
VERTEX
  5
186D
  8
240
 10
-54.419499999999999
 20
13.754300000000001
 30
0.0
 70
    32
  0
VERTEX
  5
186E
  8
240
 10
-54.308500000000002
 20
13.783099999999999
 30
0.0
 70
    32
  0
VERTEX
  5
186F
  8
240
 10
-54.196899999999999
 20
13.810600000000001
 30
0.0
 70
    32
  0
VERTEX
  5
1870
  8
240
 10
-54.084699999999998
 20
13.8367
 30
0.0
 70
    32
  0
VERTEX
  5
1871
  8
240
 10
-53.971899999999998
 20
13.8614
 30
0.0
 70
    32
  0
VERTEX
  5
1872
  8
240
 10
-53.858400000000003
 20
13.8847
 30
0.0
 70
    32
  0
VERTEX
  5
1873
  8
240
 10
-53.744399999999992
 20
13.906599999999999
 30
0.0
 70
    32
  0
VERTEX
  5
1874
  8
240
 10
-53.629800000000003
 20
13.927199999999999
 30
0.0
 70
    32
  0
VERTEX
  5
1875
  8
240
 10
-53.514600000000002
 20
13.9465
 30
0.0
 70
    32
  0
VERTEX
  5
1876
  8
240
 10
-53.398800000000001
 20
13.9643
 30
0.0
 70
    32
  0
VERTEX
  5
1877
  8
240
 10
-53.282499999999999
 20
13.9809
 30
0.0
 70
    32
  0
VERTEX
  5
1878
  8
240
 10
-53.165599999999991
 20
13.996
 30
0.0
 70
    32
  0
VERTEX
  5
1879
  8
240
 10
-53.048099999999991
 20
14.0099
 30
0.0
 70
    32
  0
VERTEX
  5
187A
  8
240
 10
-52.930100000000003
 20
14.022399999999999
 30
0.0
 70
    32
  0
VERTEX
  5
187B
  8
240
 10
-52.811599999999991
 20
14.0336
 30
0.0
 70
    32
  0
VERTEX
  5
187C
  8
240
 10
-52.692500000000003
 20
14.0435
 30
0.0
 70
    32
  0
VERTEX
  5
187D
  8
240
 10
-52.572899999999997
 20
14.052099999999999
 30
0.0
 70
    32
  0
VERTEX
  5
187E
  8
240
 10
-52.452800000000011
 20
14.0594
 30
0.0
 70
    32
  0
VERTEX
  5
187F
  8
240
 10
-52.33209999999999
 20
14.0654
 30
0.0
 70
    32
  0
VERTEX
  5
1880
  8
240
 10
-52.210999999999991
 20
14.0701
 30
0.0
 70
    32
  0
VERTEX
  5
1881
  8
240
 10
-52.089300000000001
 20
14.073499999999999
 30
0.0
 70
    32
  0
VERTEX
  5
1882
  8
240
 10
-51.967199999999998
 20
14.0756
 30
0.0
 70
    32
  0
VERTEX
  5
1883
  8
240
 10
-51.8446
 20
14.076499999999999
 30
0.0
 70
    32
  0
VERTEX
  5
1884
  8
240
 10
-51.721499999999999
 20
14.076000000000001
 30
0.0
 70
    32
  0
VERTEX
  5
1885
  8
240
 10
-51.597900000000003
 20
14.074400000000001
 30
0.0
 70
    32
  0
VERTEX
  5
1886
  8
240
 10
-51.473799999999997
 20
14.0715
 30
0.0
 70
    32
  0
VERTEX
  5
1887
  8
240
 10
-51.349299999999999
 20
14.067299999999999
 30
0.0
 70
    32
  0
VERTEX
  5
1888
  8
240
 10
-51.224400000000003
 20
14.0619
 30
0.0
 70
    32
  0
VERTEX
  5
1889
  8
240
 10
-51.0989
 20
14.055300000000001
 30
0.0
 70
    32
  0
VERTEX
  5
188A
  8
240
 10
-50.973100000000002
 20
14.0474
 30
0.0
 70
    32
  0
VERTEX
  5
188B
  8
240
 10
-50.846800000000002
 20
14.0383
 30
0.0
 70
    32
  0
VERTEX
  5
188C
  8
240
 10
-50.720100000000002
 20
14.028
 30
0.0
 70
    32
  0
VERTEX
  5
188D
  8
240
 10
-50.593000000000004
 20
14.016500000000001
 30
0.0
 70
    32
  0
VERTEX
  5
188E
  8
240
 10
-50.465400000000002
 20
14.0037
 30
0.0
 70
    32
  0
VERTEX
  5
188F
  8
240
 10
-50.337499999999999
 20
13.989800000000001
 30
0.0
 70
    32
  0
VERTEX
  5
1890
  8
240
 10
-50.209099999999999
 20
13.9747
 30
0.0
 70
    32
  0
VERTEX
  5
1891
  8
240
 10
-50.080399999999997
 20
13.958399999999999
 30
0.0
 70
    32
  0
VERTEX
  5
1892
  8
240
 10
-49.9512
 20
13.940899999999999
 30
0.0
 70
    32
  0
VERTEX
  5
1893
  8
240
 10
-49.821699999999993
 20
13.9223
 30
0.0
 70
    32
  0
VERTEX
  5
1894
  8
240
 10
-49.691800000000001
 20
13.9025
 30
0.0
 70
    32
  0
VERTEX
  5
1895
  8
240
 10
-49.561599999999999
 20
13.881500000000001
 30
0.0
 70
    32
  0
VERTEX
  5
1896
  8
240
 10
-49.430999999999997
 20
13.859400000000001
 30
0.0
 70
    32
  0
VERTEX
  5
1897
  8
240
 10
-49.29999999999999
 20
13.8361
 30
0.0
 70
    32
  0
VERTEX
  5
1898
  8
240
 10
-49.168700000000001
 20
13.8117
 30
0.0
 70
    32
  0
VERTEX
  5
1899
  8
240
 10
-49.036999999999999
 20
13.786099999999999
 30
0.0
 70
    32
  0
VERTEX
  5
189A
  8
240
 10
-48.90509999999999
 20
13.759399999999999
 30
0.0
 70
    32
  0
VERTEX
  5
189B
  8
240
 10
-48.772799999999989
 20
13.7316
 30
0.0
 70
    32
  0
VERTEX
  5
189C
  8
240
 10
-48.640099999999997
 20
13.7027
 30
0.0
 70
    32
  0
VERTEX
  5
189D
  8
240
 10
-48.50719999999999
 20
13.672700000000001
 30
0.0
 70
    32
  0
VERTEX
  5
189E
  8
240
 10
-48.373899999999999
 20
13.641500000000001
 30
0.0
 70
    32
  0
VERTEX
  5
189F
  8
240
 10
-48.240400000000001
 20
13.609299999999999
 30
0.0
 70
    32
  0
VERTEX
  5
18A0
  8
240
 10
-48.1066
 20
13.576000000000001
 30
0.0
 70
    32
  0
VERTEX
  5
18A1
  8
240
 10
-47.9724
 20
13.541600000000001
 30
0.0
 70
    32
  0
VERTEX
  5
18A2
  8
240
 10
-47.838000000000001
 20
13.5061
 30
0.0
 70
    32
  0
VERTEX
  5
18A3
  8
240
 10
-47.703299999999999
 20
13.4695
 30
0.0
 70
    32
  0
VERTEX
  5
18A4
  8
240
 10
-47.56839999999999
 20
13.431800000000001
 30
0.0
 70
    32
  0
VERTEX
  5
18A5
  8
240
 10
-47.433199999999992
 20
13.3931
 30
0.0
 70
    32
  0
VERTEX
  5
18A6
  8
240
 10
-47.297699999999999
 20
13.353400000000001
 30
0.0
 70
    32
  0
VERTEX
  5
18A7
  8
240
 10
-47.161999999999992
 20
13.3126
 30
0.0
 70
    32
  0
VERTEX
  5
18A8
  8
240
 10
-47.026099999999992
 20
13.2707
 30
0.0
 70
    32
  0
VERTEX
  5
18A9
  8
240
 10
-46.88989999999999
 20
13.2278
 30
0.0
 70
    32
  0
VERTEX
  5
18AA
  8
240
 10
-46.753500000000003
 20
13.1839
 30
0.0
 70
    32
  0
VERTEX
  5
18AB
  8
240
 10
-46.616900000000001
 20
13.138999999999999
 30
0.0
 70
    32
  0
VERTEX
  5
18AC
  8
240
 10
-46.4801
 20
13.093
 30
0.0
 70
    32
  0
VERTEX
  5
18AD
  8
240
 10
-46.3431
 20
13.045999999999999
 30
0.0
 70
    32
  0
VERTEX
  5
18AE
  8
240
 10
-46.205800000000004
 20
12.998100000000001
 30
0.0
 70
    32
  0
VERTEX
  5
18AF
  8
240
 10
-46.068399999999997
 20
12.9491
 30
0.0
 70
    32
  0
VERTEX
  5
18B0
  8
240
 10
-45.930799999999991
 20
12.899100000000001
 30
0.0
 70
    32
  0
VERTEX
  5
18B1
  8
240
 10
-45.792999999999992
 20
12.8482
 30
0.0
 70
    32
  0
VERTEX
  5
18B2
  8
240
 10
-45.65509999999999
 20
12.796200000000001
 30
0.0
 70
    32
  0
VERTEX
  5
18B3
  8
240
 10
-45.516899999999993
 20
12.7433
 30
0.0
 70
    32
  0
VERTEX
  5
18B4
  8
240
 10
-45.378700000000002
 20
12.689399999999999
 30
0.0
 70
    32
  0
VERTEX
  5
18B5
  8
240
 10
-45.240200000000002
 20
12.634600000000001
 30
0.0
 70
    32
  0
VERTEX
  5
18B6
  8
240
 10
-45.101599999999991
 20
12.578799999999999
 30
0.0
 70
    32
  0
VERTEX
  5
18B7
  8
240
 10
-44.962899999999998
 20
12.522
 30
0.0
 70
    32
  0
VERTEX
  5
18B8
  8
240
 10
-44.824100000000001
 20
12.4643
 30
0.0
 70
    32
  0
VERTEX
  5
18B9
  8
240
 10
-44.685099999999998
 20
12.4057
 30
0.0
 70
    32
  0
VERTEX
  5
18BA
  8
240
 10
-44.545999999999999
 20
12.3461
 30
0.0
 70
    32
  0
VERTEX
  5
18BB
  8
240
 10
-44.40679999999999
 20
12.285600000000001
 30
0.0
 70
    32
  0
VERTEX
  5
18BC
  8
240
 10
-44.267499999999998
 20
12.2242
 30
0.0
 70
    32
  0
VERTEX
  5
18BD
  8
240
 10
-44.128100000000003
 20
12.161899999999999
 30
0.0
 70
    32
  0
VERTEX
  5
18BE
  8
240
 10
-43.988599999999991
 20
12.098599999999999
 30
0.0
 70
    32
  0
VERTEX
  5
18BF
  8
240
 10
-43.848999999999997
 20
12.0345
 30
0.0
 70
    32
  0
VERTEX
  5
18C0
  8
240
 10
-43.709299999999999
 20
11.9695
 30
0.0
 70
    32
  0
VERTEX
  5
18C1
  8
240
 10
-43.569599999999987
 20
11.903499999999999
 30
0.0
 70
    32
  0
VERTEX
  5
18C2
  8
240
 10
-43.429799999999993
 20
11.8367
 30
0.0
 70
    32
  0
VERTEX
  5
18C3
  8
240
 10
-43.289999999999992
 20
11.7691
 30
0.0
 70
    32
  0
VERTEX
  5
18C4
  8
240
 10
-43.150100000000002
 20
11.7005
 30
0.0
 70
    32
  0
VERTEX
  5
18C5
  8
240
 10
-43.010100000000001
 20
11.6311
 30
0.0
 70
    32
  0
VERTEX
  5
18C6
  8
240
 10
-42.870100000000001
 20
11.5608
 30
0.0
 70
    32
  0
VERTEX
  5
18C7
  8
240
 10
-42.7301
 20
11.489699999999999
 30
0.0
 70
    32
  0
VERTEX
  5
18C8
  8
240
 10
-42.590099999999993
 20
11.4177
 30
0.0
 70
    32
  0
VERTEX
  5
18C9
  8
240
 10
-42.450000000000003
 20
11.344900000000001
 30
0.0
 70
    32
  0
SEQEND
  5
18CA
  8
240
  0
POLYLINE
  5
18CB
  8
240
 66
     1
 10
0.0
 20
0.0
 30
0.0
 70
     8
  0
VERTEX
  5
18CC
  8
240
 10
-42.450000000000003
 20
-11.344900000000001
 30
0.0
 70
    32
  0
VERTEX
  5
18CD
  8
240
 10
-42.576900000000002
 20
-11.4176
 30
0.0
 70
    32
  0
VERTEX
  5
18CE
  8
240
 10
-42.7042
 20
-11.4893
 30
0.0
 70
    32
  0
VERTEX
  5
18CF
  8
240
 10
-42.831899999999997
 20
-11.5602
 30
0.0
 70
    32
  0
VERTEX
  5
18D0
  8
240
 10
-42.960000000000001
 20
-11.6302
 30
0.0
 70
    32
  0
VERTEX
  5
18D1
  8
240
 10
-43.088500000000003
 20
-11.69929999999999
 30
0.0
 70
    32
  0
VERTEX
  5
18D2
  8
240
 10
-43.217300000000002
 20
-11.7674
 30
0.0
 70
    32
  0
VERTEX
  5
18D3
  8
240
 10
-43.346600000000002
 20
-11.8347
 30
0.0
 70
    32
  0
VERTEX
  5
18D4
  8
240
 10
-43.476199999999999
 20
-11.901
 30
0.0
 70
    32
  0
VERTEX
  5
18D5
  8
240
 10
-43.606099999999998
 20
-11.966499999999989
 30
0.0
 70
    32
  0
VERTEX
  5
18D6
  8
240
 10
-43.736400000000003
 20
-12.031000000000001
 30
0.0
 70
    32
  0
VERTEX
  5
18D7
  8
240
 10
-43.866999999999997
 20
-12.0945
 30
0.0
 70
    32
  0
VERTEX
  5
18D8
  8
240
 10
-43.997900000000001
 20
-12.1572
 30
0.0
 70
    32
  0
VERTEX
  5
18D9
  8
240
 10
-44.128999999999991
 20
-12.2189
 30
0.0
 70
    32
  0
VERTEX
  5
18DA
  8
240
 10
-44.2605
 20
-12.2796
 30
0.0
 70
    32
  0
VERTEX
  5
18DB
  8
240
 10
-44.392200000000003
 20
-12.339399999999999
 30
0.0
 70
    32
  0
VERTEX
  5
18DC
  8
240
 10
-44.5242
 20
-12.398300000000001
 30
0.0
 70
    32
  0
VERTEX
  5
18DD
  8
240
 10
-44.656399999999991
 20
-12.456200000000001
 30
0.0
 70
    32
  0
VERTEX
  5
18DE
  8
240
 10
-44.788899999999991
 20
-12.5131
 30
0.0
 70
    32
  0
VERTEX
  5
18DF
  8
240
 10
-44.921500000000002
 20
-12.569000000000001
 30
0.0
 70
    32
  0
VERTEX
  5
18E0
  8
240
 10
-45.054400000000001
 20
-12.624000000000001
 30
0.0
 70
    32
  0
VERTEX
  5
18E1
  8
240
 10
-45.187499999999993
 20
-12.678000000000001
 30
0.0
 70
    32
  0
VERTEX
  5
18E2
  8
240
 10
-45.320700000000002
 20
-12.7311
 30
0.0
 70
    32
  0
VERTEX
  5
18E3
  8
240
 10
-45.45409999999999
 20
-12.783099999999999
 30
0.0
 70
    32
  0
VERTEX
  5
18E4
  8
240
 10
-45.587699999999991
 20
-12.834199999999999
 30
0.0
 70
    32
  0
VERTEX
  5
18E5
  8
240
 10
-45.721400000000003
 20
-12.8842
 30
0.0
 70
    32
  0
VERTEX
  5
18E6
  8
240
 10
-45.8553
 20
-12.933299999999999
 30
0.0
 70
    32
  0
VERTEX
  5
18E7
  8
240
 10
-45.98919999999999
 20
-12.981299999999999
 30
0.0
 70
    32
  0
VERTEX
  5
18E8
  8
240
 10
-46.1233
 20
-13.0283
 30
0.0
 70
    32
  0
VERTEX
  5
18E9
  8
240
 10
-46.2575
 20
-13.074400000000001
 30
0.0
 70
    32
  0
VERTEX
  5
18EA
  8
240
 10
-46.3917
 20
-13.119400000000001
 30
0.0
 70
    32
  0
VERTEX
  5
18EB
  8
240
 10
-46.526000000000003
 20
-13.1633
 30
0.0
 70
    32
  0
VERTEX
  5
18EC
  8
240
 10
-46.660400000000003
 20
-13.206300000000001
 30
0.0
 70
    32
  0
VERTEX
  5
18ED
  8
240
 10
-46.794800000000002
 20
-13.248200000000001
 30
0.0
 70
    32
  0
VERTEX
  5
18EE
  8
240
 10
-46.929299999999991
 20
-13.289
 30
0.0
 70
    32
  0
VERTEX
  5
18EF
  8
240
 10
-47.06369999999999
 20
-13.328900000000001
 30
0.0
 70
    32
  0
VERTEX
  5
18F0
  8
240
 10
-47.1982
 20
-13.367599999999999
 30
0.0
 70
    32
  0
VERTEX
  5
18F1
  8
240
 10
-47.332700000000003
 20
-13.4053
 30
0.0
 70
    32
  0
VERTEX
  5
18F2
  8
240
 10
-47.467100000000002
 20
-13.442
 30
0.0
 70
    32
  0
VERTEX
  5
18F3
  8
240
 10
-47.601599999999991
 20
-13.477600000000001
 30
0.0
 70
    32
  0
VERTEX
  5
18F4
  8
240
 10
-47.735900000000001
 20
-13.5121
 30
0.0
 70
    32
  0
VERTEX
  5
18F5
  8
240
 10
-47.8703
 20
-13.5456
 30
0.0
 70
    32
  0
VERTEX
  5
18F6
  8
240
 10
-48.0045
 20
-13.5779
 30
0.0
 70
    32
  0
VERTEX
  5
18F7
  8
240
 10
-48.1387
 20
-13.6092
 30
0.0
 70
    32
  0
VERTEX
  5
18F8
  8
240
 10
-48.272799999999997
 20
-13.6394
 30
0.0
 70
    32
  0
VERTEX
  5
18F9
  8
240
 10
-48.40679999999999
 20
-13.6685
 30
0.0
 70
    32
  0
VERTEX
  5
18FA
  8
240
 10
-48.540700000000001
 20
-13.6965
 30
0.0
 70
    32
  0
VERTEX
  5
18FB
  8
240
 10
-48.674399999999999
 20
-13.7234
 30
0.0
 70
    32
  0
VERTEX
  5
18FC
  8
240
 10
-48.808
 20
-13.7492
 30
0.0
 70
    32
  0
VERTEX
  5
18FD
  8
240
 10
-48.941400000000002
 20
-13.773899999999999
 30
0.0
 70
    32
  0
VERTEX
  5
18FE
  8
240
 10
-49.074699999999993
 20
-13.797499999999999
 30
0.0
 70
    32
  0
VERTEX
  5
18FF
  8
240
 10
-49.207799999999999
 20
-13.819900000000001
 30
0.0
 70
    32
  0
VERTEX
  5
1900
  8
240
 10
-49.340699999999998
 20
-13.841200000000001
 30
0.0
 70
    32
  0
VERTEX
  5
1901
  8
240
 10
-49.473399999999998
 20
-13.8614
 30
0.0
 70
    32
  0
VERTEX
  5
1902
  8
240
 10
-49.605899999999991
 20
-13.880499999999991
 30
0.0
 70
    32
  0
VERTEX
  5
1903
  8
240
 10
-49.738199999999992
 20
-13.898400000000001
 30
0.0
 70
    32
  0
VERTEX
  5
1904
  8
240
 10
-49.870199999999997
 20
-13.915100000000001
 30
0.0
 70
    32
  0
VERTEX
  5
1905
  8
240
 10
-50.002000000000002
 20
-13.9308
 30
0.0
 70
    32
  0
VERTEX
  5
1906
  8
240
 10
-50.133499999999991
 20
-13.9452
 30
0.0
 70
    32
  0
VERTEX
  5
1907
  8
240
 10
-50.264699999999991
 20
-13.958500000000001
 30
0.0
 70
    32
  0
VERTEX
  5
1908
  8
240
 10
-50.395699999999998
 20
-13.97059999999999
 30
0.0
 70
    32
  0
VERTEX
  5
1909
  8
240
 10
-50.526299999999999
 20
-13.9816
 30
0.0
 70
    32
  0
VERTEX
  5
190A
  8
240
 10
-50.656700000000001
 20
-13.991400000000001
 30
0.0
 70
    32
  0
VERTEX
  5
190B
  8
240
 10
-50.786700000000003
 20
-14.0
 30
0.0
 70
    32
  0
VERTEX
  5
190C
  8
240
 10
-50.9163
 20
-14.007400000000001
 30
0.0
 70
    32
  0
VERTEX
  5
190D
  8
240
 10
-51.0456
 20
-14.0136
 30
0.0
 70
    32
  0
VERTEX
  5
190E
  8
240
 10
-51.174599999999998
 20
-14.018700000000001
 30
0.0
 70
    32
  0
VERTEX
  5
190F
  8
240
 10
-51.303199999999997
 20
-14.022500000000001
 30
0.0
 70
    32
  0
VERTEX
  5
1910
  8
240
 10
-51.4313
 20
-14.0251
 30
0.0
 70
    32
  0
VERTEX
  5
1911
  8
240
 10
-51.559100000000001
 20
-14.0266
 30
0.0
 70
    32
  0
VERTEX
  5
1912
  8
240
 10
-51.686500000000002
 20
-14.0268
 30
0.0
 70
    32
  0
VERTEX
  5
1913
  8
240
 10
-51.813400000000001
 20
-14.0258
 30
0.0
 70
    32
  0
VERTEX
  5
1914
  8
240
 10
-51.939900000000002
 20
-14.0235
 30
0.0
 70
    32
  0
VERTEX
  5
1915
  8
240
 10
-52.066000000000003
 20
-14.02009999999999
 30
0.0
 70
    32
  0
VERTEX
  5
1916
  8
240
 10
-52.191600000000001
 20
-14.015399999999991
 30
0.0
 70
    32
  0
VERTEX
  5
1917
  8
240
 10
-52.316699999999997
 20
-14.009499999999999
 30
0.0
 70
    32
  0
VERTEX
  5
1918
  8
240
 10
-52.441299999999998
 20
-14.0023
 30
0.0
 70
    32
  0
VERTEX
  5
1919
  8
240
 10
-52.5655
 20
-13.9939
 30
0.0
 70
    32
  0
VERTEX
  5
191A
  8
240
 10
-52.689100000000003
 20
-13.984199999999991
 30
0.0
 70
    32
  0
VERTEX
  5
191B
  8
240
 10
-52.812199999999997
 20
-13.9733
 30
0.0
 70
    32
  0
VERTEX
  5
191C
  8
240
 10
-52.934699999999999
 20
-13.9611
 30
0.0
 70
    32
  0
VERTEX
  5
191D
  8
240
 10
-53.056800000000003
 20
-13.947599999999991
 30
0.0
 70
    32
  0
VERTEX
  5
191E
  8
240
 10
-53.178199999999997
 20
-13.9329
 30
0.0
 70
    32
  0
VERTEX
  5
191F
  8
240
 10
-53.299100000000003
 20
-13.9169
 30
0.0
 70
    32
  0
VERTEX
  5
1920
  8
240
 10
-53.41940000000001
 20
-13.8996
 30
0.0
 70
    32
  0
VERTEX
  5
1921
  8
240
 10
-53.539099999999991
 20
-13.881
 30
0.0
 70
    32
  0
VERTEX
  5
1922
  8
240
 10
-53.65809999999999
 20
-13.8612
 30
0.0
 70
    32
  0
VERTEX
  5
1923
  8
240
 10
-53.776600000000002
 20
-13.84
 30
0.0
 70
    32
  0
VERTEX
  5
1924
  8
240
 10
-53.894399999999997
 20
-13.817600000000001
 30
0.0
 70
    32
  0
VERTEX
  5
1925
  8
240
 10
-54.011600000000001
 20
-13.793799999999999
 30
0.0
 70
    32
  0
VERTEX
  5
1926
  8
240
 10
-54.128100000000003
 20
-13.768700000000001
 30
0.0
 70
    32
  0
VERTEX
  5
1927
  8
240
 10
-54.243899999999989
 20
-13.7424
 30
0.0
 70
    32
  0
VERTEX
  5
1928
  8
240
 10
-54.359099999999991
 20
-13.714600000000001
 30
0.0
 70
    32
  0
VERTEX
  5
1929
  8
240
 10
-54.47359999999999
 20
-13.685600000000001
 30
0.0
 70
    32
  0
VERTEX
  5
192A
  8
240
 10
-54.587299999999999
 20
-13.6553
 30
0.0
 70
    32
  0
VERTEX
  5
192B
  8
240
 10
-54.700299999999999
 20
-13.6236
 30
0.0
 70
    32
  0
VERTEX
  5
192C
  8
240
 10
-54.812600000000003
 20
-13.5905
 30
0.0
 70
    32
  0
VERTEX
  5
192D
  8
240
 10
-54.924199999999999
 20
-13.5562
 30
0.0
 70
    32
  0
VERTEX
  5
192E
  8
240
 10
-55.034999999999989
 20
-13.5204
 30
0.0
 70
    32
  0
VERTEX
  5
192F
  8
240
 10
-55.145000000000003
 20
-13.4834
 30
0.0
 70
    32
  0
VERTEX
  5
1930
  8
240
 10
-55.254199999999997
 20
-13.444900000000001
 30
0.0
 70
    32
  0
VERTEX
  5
1931
  8
240
 10
-55.3626
 20
-13.405099999999999
 30
0.0
 70
    32
  0
VERTEX
  5
1932
  8
240
 10
-55.470300000000002
 20
-13.364000000000001
 30
0.0
 70
    32
  0
VERTEX
  5
1933
  8
240
 10
-55.577100000000002
 20
-13.321400000000001
 30
0.0
 70
    32
  0
VERTEX
  5
1934
  8
240
 10
-55.683
 20
-13.2775
 30
0.0
 70
    32
  0
VERTEX
  5
1935
  8
240
 10
-55.788200000000003
 20
-13.232200000000001
 30
0.0
 70
    32
  0
VERTEX
  5
1936
  8
240
 10
-55.892400000000002
 20
-13.185499999999999
 30
0.0
 70
    32
  0
VERTEX
  5
1937
  8
240
 10
-55.995800000000003
 20
-13.13749999999999
 30
0.0
 70
    32
  0
VERTEX
  5
1938
  8
240
 10
-56.098300000000002
 20
-13.08799999999999
 30
0.0
 70
    32
  0
VERTEX
  5
1939
  8
240
 10
-56.200000000000003
 20
-13.037100000000001
 30
0.0
 70
    32
  0
VERTEX
  5
193A
  8
240
 10
-56.300699999999992
 20
-12.9848
 30
0.0
 70
    32
  0
VERTEX
  5
193B
  8
240
 10
-56.400500000000001
 20
-12.9312
 30
0.0
 70
    32
  0
VERTEX
  5
193C
  8
240
 10
-56.499299999999998
 20
-12.875999999999999
 30
0.0
 70
    32
  0
VERTEX
  5
193D
  8
240
 10
-56.597200000000001
 20
-12.8195
 30
0.0
 70
    32
  0
VERTEX
  5
193E
  8
240
 10
-56.694200000000002
 20
-12.7616
 30
0.0
 70
    32
  0
VERTEX
  5
193F
  8
240
 10
-56.790300000000002
 20
-12.70229999999999
 30
0.0
 70
    32
  0
VERTEX
  5
1940
  8
240
 10
-56.88539999999999
 20
-12.6416
 30
0.0
 70
    32
  0
VERTEX
  5
1941
  8
240
 10
-56.979599999999998
 20
-12.579499999999999
 30
0.0
 70
    32
  0
VERTEX
  5
1942
  8
240
 10
-57.072899999999997
 20
-12.516
 30
0.0
 70
    32
  0
VERTEX
  5
1943
  8
240
 10
-57.165199999999999
 20
-12.4512
 30
0.0
 70
    32
  0
VERTEX
  5
1944
  8
240
 10
-57.256599999999999
 20
-12.385099999999991
 30
0.0
 70
    32
  0
VERTEX
  5
1945
  8
240
 10
-57.34709999999999
 20
-12.317600000000001
 30
0.0
 70
    32
  0
VERTEX
  5
1946
  8
240
 10
-57.436700000000002
 20
-12.248699999999999
 30
0.0
 70
    32
  0
VERTEX
  5
1947
  8
240
 10
-57.525300000000001
 20
-12.1785
 30
0.0
 70
    32
  0
VERTEX
  5
1948
  8
240
 10
-57.613100000000003
 20
-12.107100000000001
 30
0.0
 70
    32
  0
VERTEX
  5
1949
  8
240
 10
-57.699899999999992
 20
-12.0343
 30
0.0
 70
    32
  0
VERTEX
  5
194A
  8
240
 10
-57.785800000000002
 20
-11.9602
 30
0.0
 70
    32
  0
VERTEX
  5
194B
  8
240
 10
-57.870800000000003
 20
-11.8848
 30
0.0
 70
    32
  0
VERTEX
  5
194C
  8
240
 10
-57.954900000000002
 20
-11.80819999999999
 30
0.0
 70
    32
  0
VERTEX
  5
194D
  8
240
 10
-58.0381
 20
-11.7302
 30
0.0
 70
    32
  0
VERTEX
  5
194E
  8
240
 10
-58.120399999999989
 20
-11.651
 30
0.0
 70
    32
  0
VERTEX
  5
194F
  8
240
 10
-58.201799999999999
 20
-11.570600000000001
 30
0.0
 70
    32
  0
VERTEX
  5
1950
  8
240
 10
-58.282299999999999
 20
-11.48889999999999
 30
0.0
 70
    32
  0
VERTEX
  5
1951
  8
240
 10
-58.361899999999999
 20
-11.406000000000001
 30
0.0
 70
    32
  0
VERTEX
  5
1952
  8
240
 10
-58.440600000000003
 20
-11.321799999999991
 30
0.0
 70
    32
  0
VERTEX
  5
1953
  8
240
 10
-58.5184
 20
-11.236499999999999
 30
0.0
 70
    32
  0
VERTEX
  5
1954
  8
240
 10
-58.595300000000002
 20
-11.149900000000001
 30
0.0
 70
    32
  0
VERTEX
  5
1955
  8
240
 10
-58.671300000000002
 20
-11.06209999999999
 30
0.0
 70
    32
  0
VERTEX
  5
1956
  8
240
 10
-58.746400000000001
 20
-10.973100000000001
 30
0.0
 70
    32
  0
VERTEX
  5
1957
  8
240
 10
-58.820700000000002
 20
-10.882999999999999
 30
0.0
 70
    32
  0
VERTEX
  5
1958
  8
240
 10
-58.893999999999998
 20
-10.791700000000001
 30
0.0
 70
    32
  0
VERTEX
  5
1959
  8
240
 10
-58.966500000000011
 20
-10.69919999999999
 30
0.0
 70
    32
  0
VERTEX
  5
195A
  8
240
 10
-59.0381
 20
-10.605499999999999
 30
0.0
 70
    32
  0
VERTEX
  5
195B
  8
240
 10
-59.108899999999998
 20
-10.5107
 30
0.0
 70
    32
  0
VERTEX
  5
195C
  8
240
 10
-59.178699999999999
 20
-10.414799999999991
 30
0.0
 70
    32
  0
VERTEX
  5
195D
  8
240
 10
-59.247700000000002
 20
-10.3177
 30
0.0
 70
    32
  0
VERTEX
  5
195E
  8
240
 10
-59.315800000000003
 20
-10.219599999999989
 30
0.0
 70
    32
  0
VERTEX
  5
195F
  8
240
 10
-59.383000000000003
 20
-10.1203
 30
0.0
 70
    32
  0
VERTEX
  5
1960
  8
240
 10
-59.44939999999999
 20
-10.0199
 30
0.0
 70
    32
  0
VERTEX
  5
1961
  8
240
 10
-59.51489999999999
 20
-9.9183999999999983
 30
0.0
 70
    32
  0
VERTEX
  5
1962
  8
240
 10
-59.579500000000003
 20
-9.8158299999999983
 30
0.0
 70
    32
  0
VERTEX
  5
1963
  8
240
 10
-59.643300000000004
 20
-9.7121799999999983
 30
0.0
 70
    32
  0
VERTEX
  5
1964
  8
240
 10
-59.706200000000003
 20
-9.6074699999999975
 30
0.0
 70
    32
  0
VERTEX
  5
1965
  8
240
 10
-59.768300000000004
 20
-9.5016999999999978
 30
0.0
 70
    32
  0
VERTEX
  5
1966
  8
240
 10
-59.829500000000003
 20
-9.3948799999999988
 30
0.0
 70
    32
  0
VERTEX
  5
1967
  8
240
 10
-59.889800000000001
 20
-9.2870199999999983
 30
0.0
 70
    32
  0
VERTEX
  5
1968
  8
240
 10
-59.949300000000001
 20
-9.1781299999999977
 30
0.0
 70
    32
  0
VERTEX
  5
1969
  8
240
 10
-60.008000000000003
 20
-9.0682199999999984
 30
0.0
 70
    32
  0
VERTEX
  5
196A
  8
240
 10
-60.065800000000003
 20
-8.9572899999999969
 30
0.0
 70
    32
  0
VERTEX
  5
196B
  8
240
 10
-60.122700000000002
 20
-8.8453599999999994
 30
0.0
 70
    32
  0
VERTEX
  5
196C
  8
240
 10
-60.178800000000003
 20
-8.7324399999999969
 30
0.0
 70
    32
  0
VERTEX
  5
196D
  8
240
 10
-60.234099999999998
 20
-8.6185199999999984
 30
0.0
 70
    32
  0
VERTEX
  5
196E
  8
240
 10
-60.288499999999999
 20
-8.5036399999999972
 30
0.0
 70
    32
  0
VERTEX
  5
196F
  8
240
 10
-60.342100000000002
 20
-8.3877799999999993
 30
0.0
 70
    32
  0
VERTEX
  5
1970
  8
240
 10
-60.3949
 20
-8.2709599999999988
 30
0.0
 70
    32
  0
VERTEX
  5
1971
  8
240
 10
-60.446800000000003
 20
-8.1531899999999968
 30
0.0
 70
    32
  0
VERTEX
  5
1972
  8
240
 10
-60.497900000000001
 20
-8.0344799999999985
 30
0.0
 70
    32
  0
VERTEX
  5
1973
  8
240
 10
-60.548200000000001
 20
-7.9148299999999976
 30
0.0
 70
    32
  0
VERTEX
  5
1974
  8
240
 10
-60.5976
 20
-7.7942699999999983
 30
0.0
 70
    32
  0
VERTEX
  5
1975
  8
240
 10
-60.6462
 20
-7.6727799999999977
 30
0.0
 70
    32
  0
VERTEX
  5
1976
  8
240
 10
-60.694000000000003
 20
-7.5503899999999966
 30
0.0
 70
    32
  0
VERTEX
  5
1977
  8
240
 10
-60.740900000000003
 20
-7.4270999999999976
 30
0.0
 70
    32
  0
VERTEX
  5
1978
  8
240
 10
-60.787100000000002
 20
-7.3029299999999981
 30
0.0
 70
    32
  0
VERTEX
  5
1979
  8
240
 10
-60.832399999999993
 20
-7.1778699999999969
 30
0.0
 70
    32
  0
VERTEX
  5
197A
  8
240
 10
-60.876899999999999
 20
-7.0519399999999974
 30
0.0
 70
    32
  0
VERTEX
  5
197B
  8
240
 10
-60.9206
 20
-6.9251499999999977
 30
0.0
 70
    32
  0
VERTEX
  5
197C
  8
240
 10
-60.96350000000001
 20
-6.7975099999999991
 30
0.0
 70
    32
  0
VERTEX
  5
197D
  8
240
 10
-61.005600000000001
 20
-6.6690199999999971
 30
0.0
 70
    32
  0
VERTEX
  5
197E
  8
240
 10
-61.046799999999998
 20
-6.5396999999999981
 30
0.0
 70
    32
  0
VERTEX
  5
197F
  8
240
 10
-61.087299999999999
 20
-6.4095499999999976
 30
0.0
 70
    32
  0
VERTEX
  5
1980
  8
240
 10
-61.127000000000002
 20
-6.2785899999999977
 30
0.0
 70
    32
  0
VERTEX
  5
1981
  8
240
 10
-61.16579999999999
 20
-6.1468099999999968
 30
0.0
 70
    32
  0
VERTEX
  5
1982
  8
240
 10
-61.203899999999997
 20
-6.0142399999999983
 30
0.0
 70
    32
  0
VERTEX
  5
1983
  8
240
 10
-61.241100000000003
 20
-5.880869999999998
 30
0.0
 70
    32
  0
VERTEX
  5
1984
  8
240
 10
-61.2776
 20
-5.7467299999999977
 30
0.0
 70
    32
  0
VERTEX
  5
1985
  8
240
 10
-61.313200000000002
 20
-5.6118099999999984
 30
0.0
 70
    32
  0
VERTEX
  5
1986
  8
240
 10
-61.348100000000002
 20
-5.4761199999999981
 30
0.0
 70
    32
  0
VERTEX
  5
1987
  8
240
 10
-61.382199999999997
 20
-5.3396799999999978
 30
0.0
 70
    32
  0
VERTEX
  5
1988
  8
240
 10
-61.415500000000002
 20
-5.202499999999997
 30
0.0
 70
    32
  0
VERTEX
  5
1989
  8
240
 10
-61.448
 20
-5.0645799999999976
 30
0.0
 70
    32
  0
VERTEX
  5
198A
  8
240
 10
-61.479700000000001
 20
-4.925919999999997
 30
0.0
 70
    32
  0
VERTEX
  5
198B
  8
240
 10
-61.5107
 20
-4.7865499999999983
 30
0.0
 70
    32
  0
VERTEX
  5
198C
  8
240
 10
-61.540799999999997
 20
-4.6464699999999981
 30
0.0
 70
    32
  0
VERTEX
  5
198D
  8
240
 10
-61.5702
 20
-4.5056899999999978
 30
0.0
 70
    32
  0
VERTEX
  5
198E
  8
240
 10
-61.598799999999997
 20
-4.3642099999999981
 30
0.0
 70
    32
  0
VERTEX
  5
198F
  8
240
 10
-61.6267
 20
-4.2220499999999976
 30
0.0
 70
    32
  0
VERTEX
  5
1990
  8
240
 10
-61.653700000000001
 20
-4.0792199999999967
 30
0.0
 70
    32
  0
VERTEX
  5
1991
  8
240
 10
-61.68
 20
-3.9357199999999981
 30
0.0
 70
    32
  0
VERTEX
  5
1992
  8
240
 10
-61.705599999999997
 20
-3.7915599999999978
 30
0.0
 70
    32
  0
VERTEX
  5
1993
  8
240
 10
-61.7303
 20
-3.6467499999999982
 30
0.0
 70
    32
  0
VERTEX
  5
1994
  8
240
 10
-61.754300000000001
 20
-3.5012999999999979
 30
0.0
 70
    32
  0
VERTEX
  5
1995
  8
240
 10
-61.7776
 20
-3.3552299999999979
 30
0.0
 70
    32
  0
VERTEX
  5
1996
  8
240
 10
-61.79999999999999
 20
-3.2085299999999979
 30
0.0
 70
    32
  0
VERTEX
  5
1997
  8
240
 10
-61.8217
 20
-3.0612199999999978
 30
0.0
 70
    32
  0
VERTEX
  5
1998
  8
240
 10
-61.842700000000001
 20
-2.9132999999999978
 30
0.0
 70
    32
  0
VERTEX
  5
1999
  8
240
 10
-61.862900000000003
 20
-2.7647899999999979
 30
0.0
 70
    32
  0
VERTEX
  5
199A
  8
240
 10
-61.882399999999997
 20
-2.6156899999999981
 30
0.0
 70
    32
  0
VERTEX
  5
199B
  8
240
 10
-61.9011
 20
-2.4660199999999981
 30
0.0
 70
    32
  0
VERTEX
  5
199C
  8
240
 10
-61.918999999999997
 20
-2.3157799999999971
 30
0.0
 70
    32
  0
VERTEX
  5
199D
  8
240
 10
-61.936199999999999
 20
-2.1649799999999981
 30
0.0
 70
    32
  0
VERTEX
  5
199E
  8
240
 10
-61.9527
 20
-2.0136199999999982
 30
0.0
 70
    32
  0
VERTEX
  5
199F
  8
240
 10
-61.968400000000003
 20
-1.8617299999999981
 30
0.0
 70
    32
  0
VERTEX
  5
19A0
  8
240
 10
-61.983400000000003
 20
-1.709299999999998
 30
0.0
 70
    32
  0
VERTEX
  5
19A1
  8
240
 10
-61.997700000000002
 20
-1.5563499999999979
 30
0.0
 70
    32
  0
VERTEX
  5
19A2
  8
240
 10
-62.011200000000002
 20
-1.402889999999998
 30
0.0
 70
    32
  0
VERTEX
  5
19A3
  8
240
 10
-62.024000000000001
 20
-1.248919999999998
 30
0.0
 70
    32
  0
VERTEX
  5
19A4
  8
240
 10
-62.036000000000001
 20
-1.0944499999999979
 30
0.0
 70
    32
  0
VERTEX
  5
19A5
  8
240
 10
-62.0473
 20
-0.9394929999999983
 30
0.0
 70
    32
  0
VERTEX
  5
19A6
  8
240
 10
-62.057899999999997
 20
-0.7840569999999982
 30
0.0
 70
    32
  0
VERTEX
  5
19A7
  8
240
 10
-62.067799999999998
 20
-0.6281509999999984
 30
0.0
 70
    32
  0
VERTEX
  5
19A8
  8
240
 10
-62.076900000000002
 20
-0.4717829999999983
 30
0.0
 70
    32
  0
VERTEX
  5
19A9
  8
240
 10
-62.085299999999989
 20
-0.3149629999999982
 30
0.0
 70
    32
  0
VERTEX
  5
19AA
  8
240
 10
-62.093000000000004
 20
-0.1576989999999982
 30
0.0
 70
    32
  0
VERTEX
  5
19AB
  8
240
 10
-62.100000000000001
 20
0.0000000013795618
 30
0.0
 70
    32
  0
SEQEND
  5
19AC
  8
240
  0
VIEWPORT
  5
22
 67
     1
  8
0
 10
261.51769911504419
 20
148.5
 30
0.0
 40
523.0353982300885
 41
297.0
 68
     1
 69
     1
1001
ACAD
1000
MVIEW
1002
{
1070
    16
1010
0.0
1020
0.0
1030
0.0
1010
0.0
1020
0.0
1030
1.0
1040
0.0
1040
297.0
1040
261.51769911504419
1040
148.5
1040
50.0
1040
0.0
1040
0.0
1070
     0
1070
   100
1070
     1
1070
     1
1070
     0
1070
     0
1070
     0
1070
     0
1040
0.0
1040
0.0
1040
0.0
1040
1.0
1040
1.0
1040
10.0
1040
10.0
1070
     0
1002
{
1002
}
1002
}
1001
GENIUS_GENOBJ-N-SDF_13
1002
{
1000
OWNER
1000
GEN
1002
}
1001
GENIUS_GENODEF_13
1002
{
1000
HIER
1070
     0
1002
}
1002
{
1000
MANEDIT
1070
     0
1002
}
1002
{
1000
NOSEL
1070
     0
1002
}
1002
{
1000
BEHIND
1070
     0
1002
}
1002
{
1000
OTHER
1070
     0
1002
}
1002
{
1000
REACTOR
1002
}
1001
GENIUS_GENSCREG_15
1000
PF
1040
1.0
1000
DF
1040
1.0
1000
MIN
1011
0.0
1021
0.0
1031
0.0
1021
0.0
1031
0.0
1000
MAX
1011
523.0353982300885
1021
0.0
1031
0.0
1021
297.0
1031
0.0
1000
FLAGS
1070
     4
  0
ENDSEC
  0
EOF
