  0
SECTION
  2
HEADER
  9
$ACADVER
  1
AC1009
  9
$INSBASE
 10
0.0
 20
0.0
 30
0.0
  9
$EXTMIN
 10
-45.00000178813886
 20
-0.0000000000004547
 30
0.0
  9
$EXTMAX
 10
75.585789493768317
 20
109.0000010989604
 30
0.0
  9
$LIMMIN
 10
0.0
 20
0.0
  9
$LIMMAX
 10
297.0
 20
210.0
  9
$ORTHOMODE
 70
     0
  9
$REGENMODE
 70
     1
  9
$FILLMODE
 70
     1
  9
$QTEXTMODE
 70
     0
  9
$MIRRTEXT
 70
     1
  9
$DRAGMODE
 70
     2
  9
$LTSCALE
 40
10.0
  9
$OSMODE
 70
    45
  9
$ATTMODE
 70
     1
  9
$TEXTSIZE
 40
3.0
  9
$TRACEWID
 40
1.0
  9
$TEXTSTYLE
  7
YOKO
  9
$CLAYER
  8
240
  9
$CELTYPE
  6
BYLAYER
  9
$CECOLOR
 62
   256
  9
$DIMSCALE
 40
1.0
  9
$DIMASZ
 40
2.2299999999999991
  9
$DIMEXO
 40
0.5
  9
$DIMDLI
 40
7.0
  9
$DIMRND
 40
0.0
  9
$DIMDLE
 40
0.0
  9
$DIMEXE
 40
1.0
  9
$DIMTP
 40
0.0
  9
$DIMTM
 40
0.01
  9
$DIMTXT
 40
2.799999999999998
  9
$DIMCEN
 40
0.0
  9
$DIMTSZ
 40
0.0
  9
$DIMTOL
 70
     0
  9
$DIMLIM
 70
     0
  9
$DIMTIH
 70
     0
  9
$DIMTOH
 70
     0
  9
$DIMSE1
 70
     0
  9
$DIMSE2
 70
     0
  9
$DIMTAD
 70
     3
  9
$DIMZIN
 70
     9
  9
$DIMBLK
  1
OPEN
  9
$DIMASO
 70
     1
  9
$DIMSHO
 70
     1
  9
$DIMPOST
  1

  9
$DIMAPOST
  1

  9
$DIMALT
 70
     0
  9
$DIMALTD
 70
     2
  9
$DIMALTF
 40
25.399999999999999
  9
$DIMLFAC
 40
1.0
  9
$DIMTOFL
 70
     1
  9
$DIMTVP
 40
0.0
  9
$DIMTIX
 70
     1
  9
$DIMSOXD
 70
     0
  9
$DIMSAH
 70
     0
  9
$DIMBLK1
  1

  9
$DIMBLK2
  1

  9
$DIMSTYLE
  2
BIGT
  9
$DIMCLRD
 70
   256
  9
$DIMCLRE
 70
   256
  9
$DIMCLRT
 70
    40
  9
$DIMTFAC
 40
1.0
  9
$DIMGAP
 40
1.0
  9
$LUNITS
 70
     2
  9
$LUPREC
 70
     3
  9
$SKETCHINC
 40
1.0
  9
$FILLETRAD
 40
0.0
  9
$AUNITS
 70
     0
  9
$AUPREC
 70
     3
  9
$MENU
  1
.
  9
$ELEVATION
 40
0.0
  9
$PELEVATION
 40
0.0
  9
$THICKNESS
 40
0.0
  9
$LIMCHECK
 70
     0
  9
$BLIPMODE
 70
     0
  9
$CHAMFERA
 40
0.25
  9
$CHAMFERB
 40
0.25
  9
$SKPOLY
 70
     0
  9
$TDCREATE
 40
2456512.575947246
  9
$TDUPDATE
 40
2457857.666704711
  9
$TDINDWG
 40
0.0373363426
  9
$TDUSRTIMER
 40
0.0373363194
  9
$USRTIMER
 70
     1
  9
$ANGBASE
 50
0.0
  9
$ANGDIR
 70
     0
  9
$PDMODE
 70
     1
  9
$PDSIZE
 40
0.0
  9
$PLINEWID
 40
0.0
  9
$COORDS
 70
     1
  9
$SPLFRAME
 70
     0
  9
$SPLINETYPE
 70
     6
  9
$SPLINESEGS
 70
     4
  9
$ATTDIA
 70
     1
  9
$ATTREQ
 70
     1
  9
$HANDLING
 70
     1
  9
$HANDSEED
  5
183A
  9
$SURFTAB1
 70
     6
  9
$SURFTAB2
 70
     6
  9
$SURFTYPE
 70
     6
  9
$SURFU
 70
     6
  9
$SURFV
 70
     6
  9
$UCSNAME
  2

  9
$UCSORG
 10
0.0
 20
0.0
 30
0.0
  9
$UCSXDIR
 10
1.0
 20
0.0
 30
0.0
  9
$UCSYDIR
 10
0.0
 20
1.0
 30
0.0
  9
$PUCSNAME
  2

  9
$PUCSORG
 10
0.0
 20
0.0
 30
0.0
  9
$PUCSXDIR
 10
1.0
 20
0.0
 30
0.0
  9
$PUCSYDIR
 10
0.0
 20
1.0
 30
0.0
  9
$USERI1
 70
     1
  9
$USERI2
 70
     0
  9
$USERI3
 70
     0
  9
$USERI4
 70
     0
  9
$USERI5
 70
     0
  9
$USERR1
 40
0.0
  9
$USERR2
 40
0.0
  9
$USERR3
 40
0.0
  9
$USERR4
 40
0.0
  9
$USERR5
 40
0.0
  9
$WORLDVIEW
 70
     1
  9
$SHADEDGE
 70
     3
  9
$SHADEDIF
 70
    70
  9
$TILEMODE
 70
     1
  9
$MAXACTVP
 70
    16
  9
$PLIMCHECK
 70
     0
  9
$PEXTMIN
 10
1.0000000000000000E+020
 20
1.0000000000000000E+020
 30
1.0000000000000000E+020
  9
$PEXTMAX
 10
-1.0000000000000000E+020
 20
-1.0000000000000000E+020
 30
-1.0000000000000000E+020
  9
$PLIMMIN
 10
0.0
 20
0.0
  9
$PLIMMAX
 10
420.0
 20
297.0
  9
$UNITMODE
 70
     0
  9
$VISRETAIN
 70
     1
  9
$PLINEGEN
 70
     0
  9
$PSLTSCALE
 70
     1
  0
ENDSEC
  0
SECTION
  2
TABLES
  0
TABLE
  2
VPORT
 70
     1
  0
VPORT
  2
*ACTIVE
 70
     0
 10
0.0
 20
0.0
 11
1.0
 21
1.0
 12
12.86935172062749
 22
67.617520845243092
 13
0.0
 23
0.0
 14
7.0
 24
7.0
 15
7.0
 25
7.0
 16
0.0
 26
0.0
 36
1.0
 17
0.0
 27
0.0
 37
0.0
 40
154.0155858694861
 41
1.5928489042675891
 42
50.0
 43
0.0
 44
0.0
 50
0.0
 51
0.0
 71
     0
 72
  2000
 73
     1
 74
     0
 75
     1
 76
     1
 77
     0
 78
     1
  0
ENDTAB
  0
TABLE
  2
LTYPE
 70
    16
  0
LTYPE
  2
CONTINUOUS
 70
     0
  3
Solid line
 72
    65
 73
     0
 40
0.0
  0
LTYPE
  2
CENTER2
 70
     0
  3
___ _ ___ _ ___ _ ___ _ ___ _ ___ _ ___ _ ___ _
 72
    65
 73
     4
 40
1.125
 49
0.75
 49
-0.125
 49
0.125
 49
-0.125
  0
LTYPE
  2
HIDDEN2
 70
     0
  3
_ _ _ _ _ _ _ _ _ _ _ _ _ _ _ _ _ _ _ _ _ _ _ _
 72
    65
 73
     2
 40
0.1875
 49
0.125
 49
-0.0625
  0
LTYPE
  2
PHANTOM2
 70
     0
  3
___ _ _ ___ _ _ ___ _ _ ___ _ _ ___ _ _ ___ _ _
 72
    65
 73
     6
 40
1.25
 49
0.625
 49
-0.125
 49
0.125
 49
-0.125
 49
0.125
 49
-0.125
  0
LTYPE
  2
CENTER
 70
     0
  3
____ _ ____ _ ____ _ ____ _ ____ _ ____ _ ____ 
 72
    65
 73
     4
 40
2.0
 49
1.25
 49
-0.25
 49
0.25
 49
-0.25
  0
LTYPE
  2
AMCONSTR
 70
     0
  3
_______________________
 72
    65
 73
     2
 40
9999.0
 49
9999.0
 49
0.0
  0
LTYPE
  2
HIDDEN
 70
     0
  3
Hidden __ __ __ __ __ __ __ __ __ __ __ __ __ _
 72
    65
 73
     2
 40
9.5249999999999986
 49
6.3499999999999979
 49
-3.174999999999998
  0
LTYPE
  2
AMZIGZAG2
 70
     0
  3
/\/-/\/-/\/-/\/-/\/-/\/
 72
    65
 73
     2
 40
0.4401
 49
0.0001
 49
-0.4400000000000001
  0
LTYPE
  2
ACANSTGB
 70
     0
  3
__ . . __ . .
 72
    65
 73
     6
 40
0.35433070866
 49
0.15748031496
 49
-0.03937007874
 49
0.03937007874
 49
-0.03937007874
 49
0.03937007874
 49
-0.03937007874
  0
LTYPE
  2
ACANSTGL
 70
     0
  3
_ _ _ _ _
 72
    65
 73
     2
 40
0.11811023622
 49
0.07874015748
 49
-0.03937007874
  0
LTYPE
  2
AM_ISO02W050
 70
     0
  3
__ __ __ __ __ __ __ __ __ __ __ __ __ __ __
 72
    65
 73
     2
 40
7.5
 49
6.0
 49
-1.5
  0
LTYPE
  2
AM_ISO08W050
 70
     0
  3
____ . ____ . ____ . ____ . ____ . ____ . ____
 72
    65
 73
     4
 40
18.0
 49
12.0
 49
-1.5
 49
3.0
 49
-1.5
  0
LTYPE
  2
AM_ISO09W050
 70
     0
  3
_____ . . _____ . . _____ . . ____ .. ____
 72
    65
 73
     6
 40
22.5
 49
12.0
 49
-1.5
 49
3.0
 49
-1.5
 49
3.0
 49
-1.5
  0
LTYPE
  2
AM_ISO08W050X2
 70
     0
  3
__ . __ . __ . __ . __ . __
 72
    65
 73
     4
 40
9.0
 49
6.0
 49
-0.75
 49
1.5
 49
-0.75
  0
LTYPE
  2
AM_ISO02W050X2
 70
     0
  3
 _ _ _ _ _ _ _ _ _ _ _ _
 72
    65
 73
     2
 40
3.75
 49
3.0
 49
-0.75
  0
LTYPE
  2
AMZIGZAG
 70
     0
  3
/\/-/\/-/\/-/\/-/\/-/\/
 72
    65
 73
     2
 40
11.0001
 49
0.0001
 49
-11.0
  0
ENDTAB
  0
TABLE
  2
LAYER
 70
     5
  0
LAYER
  2
0
 70
     0
 62
     7
  6
CONTINUOUS
  0
LAYER
  2
240
 70
     0
 62
     4
  6
CONTINUOUS
  0
LAYER
  2
DEFPOINTS
 70
     0
 62
     7
  6
CONTINUOUS
  0
LAYER
  2
241
 70
     0
 62
   211
  6
CONTINUOUS
  0
LAYER
  2
246
 70
     0
 62
     3
  6
PHANTOM2
  0
ENDTAB
  0
TABLE
  2
STYLE
 70
     5
  0
STYLE
  2
STANDARD
 70
     0
 40
0.0
 41
1.0
 50
0.0
 71
     0
 42
3.0
  3
romans.shx
  4
extfont.shx
  0
STYLE
  2
YOKO
 70
     0
 40
0.0
 41
1.0
 50
0.0
 71
     0
 42
3.0
  3
romans.shx
  4
extfont.shx
  0
STYLE
  2

 70
     1
 40
0.0
 41
1.0
 50
0.0
 71
     0
 42
3.0
  3
genltshp.shx
  4

  0
STYLE
  2
ACANSGDT
 70
     0
 40
0.0
 41
1.0
 50
0.0
 71
     0
 42
3.0
  3
amgdt.shx
  4

  0
STYLE
  2
ACANSTS
 70
     0
 40
0.0
 41
1.0
 50
0.0
 71
     0
 42
3.0
  3
romans.shx
  4
extfont.shx
  0
ENDTAB
  0
TABLE
  2
VIEW
 70
     0
  0
ENDTAB
  0
TABLE
  2
UCS
 70
     0
  0
ENDTAB
  0
TABLE
  2
APPID
 70
    39
  0
APPID
  2
ACAD
 70
     0
  0
APPID
  2
ACADANNOTATIVE
 70
     0
  0
APPID
  2
GLOBAL
 70
     0
  0
APPID
  2
DETAIL
 70
     0
  0
APPID
  2
GRPNAME
 70
     0
  0
APPID
  2
GPARA
 70
     0
  0
APPID
  2
MCAD_NO_VIS
 70
     0
  0
APPID
  2
ACAD_TEMP_GRAPHIC
 70
     0
  0
APPID
  2
ACATTRIBSERVICES
 70
     0
  0
APPID
  2
GENIUS_GENSCREG_15
 70
     0
  0
APPID
  2
GENIUS_GENODEF_13
 70
     0
  0
APPID
  2
GENIUS_GENOBJ-N-SDF_13
 70
     0
  0
APPID
  2
GENIUS_GENREC_14
 70
     0
  0
APPID
  2
GENIUS_GENOBJ-N-REC_13
 70
     0
  0
APPID
  2
GENIUS_GENDIMSH_14
 70
     0
  0
APPID
  2
GENIUS_GENOBJ-N-DIM_13
 70
     0
  0
APPID
  2
GENIUS_GENDIM_13
 70
     0
  0
APPID
  2
GENIUS_GENDTOL_13
 70
     0
  0
APPID
  2
GENIUS_GENOLIS_13
 70
     0
  0
APPID
  2
GENIUS_GENOENT_13
 70
     0
  0
APPID
  2
GENIUS_GENOBJ-F-FEM_13
 70
     0
  0
APPID
  2
GENIUS_GENOREF_13
 70
     0
  0
APPID
  2
GENIUS_GEFFEM_13
 70
     0
  0
APPID
  2
GENIUS_GEFFEMP_13
 70
     0
  0
APPID
  2
AD_DRAW
 70
     0
  0
APPID
  2
DESIGNERASSEMBLIES
 70
     0
  0
APPID
  2
ACADM_DIM_EDIT
 70
     0
  0
APPID
  2
AMDT_DM_ADJ
 70
     0
  0
APPID
  2
LAYER_SCALE
 70
     0
  0
APPID
  2
ACAD_PSEXT
 70
     0
  0
APPID
  2
ACAD_DSTYLE_DIMJAG
 70
     0
  0
APPID
  2
ACAD_DSTYLE_DIMBREAK
 70
     0
  0
APPID
  2
ACAD_NAV_VCDISPLAY
 70
     0
  0
APPID
  2
ACAD_EXEMPT_FROM_CAD_STANDARDS
 70
     0
  0
APPID
  2
ACAD_MLEADERVER
 70
     0
  0
APPID
  2
ACAD_DSTYLE_DIMARC_LENGTH_
 70
     0
  0
APPID
  2
ACAD_DSTYLE_DIM_LINETYPE
 70
     0
  0
APPID
  2
ACAD_DSTYLE_DIM_EXT1_LINETYPE
 70
     0
  0
APPID
  2
ACAD_DSTYLE_DIM_EXT2_LINETYPE
 70
     0
  0
ENDTAB
  0
TABLE
  2
DIMSTYLE
 70
     8
  0
DIMSTYLE
  2
STANDARD
 70
     0
  3

  4

  5

  6

  7

 40
1.0
 41
0.18
 42
0.0625
 43
0.38
 44
0.18
 45
0.0
 46
0.0
 47
0.0
 48
0.0
140
0.18
141
0.09
142
0.0
143
25.399999999999999
144
1.0
145
0.0
146
1.0
147
0.09
 71
     0
 72
     0
 73
     1
 74
     1
 75
     0
 76
     0
 77
     0
 78
     0
170
     0
171
     2
172
     0
173
     0
174
     0
175
     0
176
     0
177
     0
178
     0
  0
DIMSTYLE
  2
BIGT
 70
     0
  3

  4

  5

  6

  7

 40
1.0
 41
2.2299999999999991
 42
0.5
 43
7.0
 44
1.0
 45
0.0
 46
0.0
 47
0.0
 48
0.01
140
2.799999999999998
141
0.0
142
0.0
143
25.399999999999999
144
1.0
145
0.0
146
1.0
147
1.0
 71
     0
 72
     0
 73
     0
 74
     0
 75
     0
 76
     0
 77
     3
 78
     9
170
     0
171
     2
172
     1
173
     0
174
     1
175
     0
176
   256
177
   256
178
    40
  0
DIMSTYLE
  2
AM_ANSI
 70
     0
  3

  4
mm
  5

  6

  7

 40
1.0
 41
0.12
 42
0.05
 43
0.5
 44
0.1
 45
0.0
 46
0.0
 47
0.1
 48
0.1
140
0.12
141
0.0
142
0.0
143
25.399999999999999
144
1.0
145
0.0
146
0.71
147
0.06
 71
     0
 72
     0
 73
     1
 74
     1
 75
     0
 76
     0
 77
     0
 78
     7
170
     0
171
     2
172
     0
173
     0
174
     0
175
     0
176
   256
177
   256
178
     2
  0
DIMSTYLE
  2
AM_ANSI$3
 70
     0
  3

  4
mm
  5

  6

  7

 40
1.0
 41
0.12
 42
0.05
 43
0.5
 44
0.1
 45
0.0
 46
0.0
 47
0.1
 48
0.1
140
0.12
141
0.0
142
0.0
143
25.399999999999999
144
1.0
145
0.0
146
0.71
147
0.06
 71
     0
 72
     0
 73
     1
 74
     1
 75
     0
 76
     0
 77
     0
 78
     7
170
     0
171
     2
172
     0
173
     0
174
     0
175
     0
176
   256
177
   256
178
     2
  0
DIMSTYLE
  2
AM_ANSI$4
 70
     0
  3

  4
mm
  5

  6

  7

 40
1.0
 41
0.12
 42
0.05
 43
0.5
 44
0.1
 45
0.0
 46
0.0
 47
0.1
 48
0.1
140
0.12
141
0.0
142
0.0
143
25.399999999999999
144
1.0
145
0.0
146
0.71
147
0.06
 71
     0
 72
     0
 73
     1
 74
     1
 75
     0
 76
     0
 77
     0
 78
     7
170
     0
171
     2
172
     0
173
     0
174
     0
175
     0
176
   256
177
   256
178
     2
  0
DIMSTYLE
  2
AM_ANSI$7
 70
     0
  3

  4
mm
  5

  6

  7

 40
1.0
 41
0.12
 42
0.05
 43
0.5
 44
0.1
 45
0.0
 46
0.0
 47
0.1
 48
0.1
140
0.12
141
0.0
142
0.0
143
25.399999999999999
144
1.0
145
0.0
146
0.71
147
0.06
 71
     0
 72
     0
 73
     1
 74
     1
 75
     0
 76
     0
 77
     0
 78
     7
170
     0
171
     2
172
     0
173
     0
174
     0
175
     0
176
   256
177
   256
178
     2
  0
DIMSTYLE
  2
AM_ANSI$SF
 70
     0
  3

  4
mm
  5

  6

  7

 40
1.0
 41
0.12
 42
0.05
 43
0.5
 44
0.1
 45
0.0
 46
0.0
 47
0.1
 48
0.1
140
0.12
141
0.0
142
0.0
143
25.399999999999999
144
1.0
145
0.0
146
0.71
147
0.06
 71
     0
 72
     0
 73
     1
 74
     1
 75
     1
 76
     1
 77
     0
 78
     7
170
     0
171
     2
172
     0
173
     0
174
     0
175
     0
176
   256
177
   256
178
     2
  0
DIMSTYLE
  2
AM_ANSI$SH
 70
     0
  3

  4
mm
  5

  6
GENAXEH
  7

 40
1.0
 41
0.12
 42
0.05
 43
0.5
 44
0.1
 45
0.0
 46
0.0
 47
0.1
 48
0.1
140
0.12
141
0.0
142
0.0
143
25.399999999999999
144
1.0
145
0.0
146
0.71
147
0.06
 71
     0
 72
     0
 73
     1
 74
     1
 75
     1
 76
     1
 77
     0
 78
     7
170
     0
171
     2
172
     0
173
     1
174
     0
175
     0
176
   256
177
   256
178
     2
  0
ENDTAB
  0
ENDSEC
  0
SECTION
  2
BLOCKS
  0
BLOCK
  8
0
  2
$MODEL_SPACE
 70
     0
 10
0.0
 20
0.0
 30
0.0
  3
$MODEL_SPACE
  1

  0
ENDBLK
  5
1646
  8
0
  0
BLOCK
 67
     1
  8
0
  2
$PAPER_SPACE
 70
     0
 10
0.0
 20
0.0
 30
0.0
  3
$PAPER_SPACE
  1

  0
ENDBLK
  5
1642
 67
     1
  8
0
  0
BLOCK
  8
0
  2
_OPEN
 70
     0
 10
0.0
 20
0.0
 30
0.0
  3
_OPEN
  1

  0
LINE
  5
156A
  8
0
  6
BYBLOCK
 62
     0
 10
-1.0
 20
0.1666666666666666
 30
0.0
 11
0.0
 21
0.0
 31
0.0
  0
LINE
  5
156B
  8
0
  6
BYBLOCK
 62
     0
 10
-1.0
 20
-0.1666666666666666
 30
0.0
 11
0.0
 21
0.0
 31
0.0
  0
LINE
  5
156C
  8
0
  6
BYBLOCK
 62
     0
 10
0.0
 20
0.0
 30
0.0
 11
-1.0
 21
0.0
 31
0.0
  0
ENDBLK
  5
156D
  8
0
  0
BLOCK
  8
0
  2
GENAXEH
 70
     0
 10
0.0
 20
0.0
 30
0.0
  3
GENAXEH
  1

  0
LINE
  5
1595
  8
0
 10
-1.0
 20
0.0
 30
0.0
 11
1.0
 21
0.0
 31
0.0
  0
ENDBLK
  5
1596
  8
0
  0
BLOCK
  8
0
  2
_ACMFILLEDHALF
 70
     0
 10
0.0
 20
0.0
 30
0.0
  3
_ACMFILLEDHALF
  1

  0
TRACE
  5
16FD
  8
240
 62
     0
 10
-0.8
 20
0.0
 30
0.0
 11
-1.0
 21
0.166666666
 31
0.0
 12
0.0
 22
0.0
 32
0.0
 13
0.0
 23
0.0
 33
0.0
  0
LINE
  5
16FE
  8
240
 62
     0
 10
-1.0
 20
0.0
 30
0.0
 11
-0.8
 21
0.0
 31
0.0
  0
ENDBLK
  5
16FC
  8
0
  0
ENDSEC
  0
SECTION
  2
ENTITIES
  0
LINE
  5
138F
  8
241
  6
CONTINUOUS
 10
1.0000000474973361
 20
0.0
 30
0.0
 11
1.0000000474973361
 21
5.476698279380912
 31
0.0
  0
LINE
  5
1390
  8
241
  6
CONTINUOUS
 10
1.0000000474973361
 20
86.25000109896051
 30
0.0
 11
1.0000000474973361
 21
82.250000908970932
 31
0.0
  0
LINE
  5
1393
  8
246
  6
PHANTOM2
 10
-1.0000020265574661
 20
17.499999999999879
 30
0.0
 11
-43.000001693144043
 21
17.499999999999879
 31
0.0
  0
LINE
  5
1395
  8
246
  6
PHANTOM2
 10
-45.00000178813886
 20
42.500001192092661
 30
0.0
 11
-45.00000178813886
 21
19.5000040531155
 31
0.0
  0
LINE
  5
1397
  8
246
  6
PHANTOM2
 10
-43.000001693144043
 20
17.499999999999879
 30
0.0
 11
-45.00000178813886
 21
19.5000040531155
 31
0.0
  0
LINE
  5
1398
  8
240
  6
CONTINUOUS
 10
0.0
 20
85.250001400717338
 30
0.0
 11
0.0
 21
1.0000020265580361
 31
0.0
  0
LINE
  5
1399
  8
246
  6
PHANTOM2
 10
0.0
 20
18.50000202655934
 30
0.0
 11
-1.0000020265574661
 21
17.499999999999879
 31
0.0
  0
LINE
  5
139A
  8
240
  6
CONTINUOUS
 10
1.0000000474973361
 20
0.0
 30
0.0
 11
16.000000760348598
 21
-0.0000000000004547
 31
0.0
  0
LINE
  5
139B
  8
240
  6
CONTINUOUS
 10
1.0000000474973361
 20
0.0
 30
0.0
 11
0.0
 21
1.0000020265580361
 31
0.0
  0
LINE
  5
139C
  8
240
  6
CONTINUOUS
 10
19.999999552964582
 20
71.000000461935869
 30
0.0
 11
45.499999076127892
 21
71.000000461935869
 31
0.0
  0
LINE
  5
139D
  8
240
  6
CONTINUOUS
 10
46.000000089406953
 20
70.500001311302299
 30
0.0
 11
45.499999076127892
 21
71.000000461935869
 31
0.0
  0
LINE
  5
139E
  8
240
  6
CONTINUOUS
 10
46.000000089406953
 20
70.500001311302299
 30
0.0
 11
46.000000089406953
 21
0.5000010132789612
 31
0.0
  0
LINE
  5
139F
  8
240
  6
CONTINUOUS
 10
0.0
 20
1.0000020265580361
 30
0.0
 11
1.0000000474973361
 21
0.0
 31
0.0
  0
LINE
  5
13A0
  8
241
  6
CONTINUOUS
 10
19.99999955296505
 20
82.250000908970932
 30
0.0
 11
1.0000000474973361
 21
82.250000908970932
 31
0.0
  0
LINE
  5
13A1
  8
240
  6
CONTINUOUS
 10
0.0
 20
85.250001400717338
 30
0.0
 11
1.0000000474973361
 21
86.25000109896051
 31
0.0
  0
LINE
  5
13A2
  8
241
  6
CONTINUOUS
 10
19.999999552965161
 20
5.476698279380912
 30
0.0
 11
1.0000000474973361
 21
5.476698279380912
 31
0.0
  0
LINE
  5
13A3
  8
240
  6
CONTINUOUS
 10
19.999999552965161
 20
85.750001017004351
 30
0.0
 11
19.999999552964582
 21
71.000000461935869
 31
0.0
  0
LINE
  5
13A4
  8
240
  6
CONTINUOUS
 10
19.999999552965161
 20
85.750001017004351
 30
0.0
 11
19.50000040233158
 21
86.25000109896051
 31
0.0
  0
LINE
  5
13A5
  8
241
  6
CONTINUOUS
 10
19.999999552965608
 20
4.7516226768493652
 30
0.0
 11
45.499999076127892
 21
4.7516226768493652
 31
0.0
  0
LINE
  5
13A6
  8
241
  6
CONTINUOUS
 10
19.999999552965161
 20
30.12936562299728
 30
0.0
 11
45.499999076127892
 21
30.12936562299728
 31
0.0
  0
LINE
  5
13A7
  8
241
  6
CONTINUOUS
 10
19.999999552965161
 20
54.870638996362679
 30
0.0
 11
45.499999076127892
 21
54.870638996362679
 31
0.0
  0
LINE
  5
13A8
  8
241
  6
CONTINUOUS
 10
19.999999552965161
 20
65.140951424836885
 30
0.0
 11
45.499999076127892
 21
65.140951424836885
 31
0.0
  0
LINE
  5
13A9
  8
241
  6
CONTINUOUS
 10
19.999999552965161
 20
67.020336166024109
 30
0.0
 11
45.499999076127892
 21
67.020336166024109
 31
0.0
  0
LINE
  5
13AA
  8
240
  6
CONTINUOUS
 10
19.999999552965161
 20
71.000000461935869
 30
0.0
 11
45.499999076127892
 21
71.000000461935869
 31
0.0
  0
LINE
  5
13AB
  8
241
  6
CONTINUOUS
 10
19.999999552965161
 20
34.98246148228624
 30
0.0
 11
45.499999076127892
 21
34.98246148228624
 31
0.0
  0
LINE
  5
13AC
  8
241
  6
CONTINUOUS
 10
19.999999552965161
 20
50.017543137073289
 30
0.0
 11
45.499999076127892
 21
50.017543137073289
 31
0.0
  0
LINE
  5
13AD
  8
240
  6
CONTINUOUS
 10
46.000000089406953
 20
70.500001311302299
 30
0.0
 11
45.499999076127892
 21
71.000000461935869
 31
0.0
  0
LINE
  5
13AE
  8
240
  6
CONTINUOUS
 10
46.000000089406953
 20
70.500001311302299
 30
0.0
 11
46.000000089406953
 21
0.5000010132789612
 31
0.0
  0
LINE
  5
13AF
  8
240
  6
CONTINUOUS
 10
1.0000000474973361
 20
0.0
 30
0.0
 11
45.499999076127892
 21
0.0
 31
0.0
  0
LINE
  5
13B0
  8
240
  6
CONTINUOUS
 10
0.0
 20
1.0000020265580361
 30
0.0
 11
1.0000000474973361
 21
0.0
 31
0.0
  0
LINE
  5
13B1
  8
241
  6
CONTINUOUS
 10
19.999999552965161
 20
5.476698279380912
 30
0.0
 11
0.0
 21
5.476698279380912
 31
0.0
  0
LINE
  5
13B2
  8
240
  6
CONTINUOUS
 10
19.999999552965161
 20
85.750001017004351
 30
0.0
 11
19.999999552965161
 21
82.250000908970932
 31
0.0
  0
LINE
  5
13B3
  8
240
  6
CONTINUOUS
 10
19.999999552965161
 20
85.750001017004351
 30
0.0
 11
19.50000040233158
 21
86.25000109896051
 31
0.0
  0
LINE
  5
13B4
  8
241
  6
CONTINUOUS
 10
19.999999552965161
 20
4.7516226768493652
 30
0.0
 11
46.000000089406967
 21
4.7516226768493652
 31
0.0
  0
LINE
  5
13B5
  8
241
  6
CONTINUOUS
 10
19.999999552965161
 20
30.12936562299728
 30
0.0
 11
46.000000089406967
 21
30.12936562299728
 31
0.0
  0
LINE
  5
13B6
  8
241
  6
CONTINUOUS
 10
19.999999552965161
 20
54.870638996362679
 30
0.0
 11
46.000000089406967
 21
54.870638996362679
 31
0.0
  0
LINE
  5
13B7
  8
241
  6
CONTINUOUS
 10
19.999999552965161
 20
65.140951424836885
 30
0.0
 11
46.000000089406967
 21
65.140951424836942
 31
0.0
  0
LINE
  5
13B8
  8
241
  6
CONTINUOUS
 10
19.999999552965161
 20
67.020336166024109
 30
0.0
 11
46.000000089406967
 21
67.020336166024109
 31
0.0
  0
LINE
  5
13B9
  8
240
  6
CONTINUOUS
 10
19.999999552964368
 20
71.000000461935656
 30
0.0
 11
45.499999076127892
 21
71.000000461935869
 31
0.0
  0
LINE
  5
13BA
  8
241
  6
CONTINUOUS
 10
19.999999552965161
 20
34.98246148228624
 30
0.0
 11
46.000000089406967
 21
34.98246148228624
 31
0.0
  0
LINE
  5
13BB
  8
241
  6
CONTINUOUS
 10
19.999999552965161
 20
50.017543137073289
 30
0.0
 11
46.000000089406967
 21
50.017543137073289
 31
0.0
  0
LINE
  5
13BC
  8
240
  6
CONTINUOUS
 10
46.000000089406953
 20
70.500001311302299
 30
0.0
 11
45.499999076127892
 21
71.000000461935869
 31
0.0
  0
LINE
  5
13BD
  8
240
  6
CONTINUOUS
 10
46.000000089406953
 20
70.500001311302299
 30
0.0
 11
46.000000089406953
 21
0.5000010132789612
 31
0.0
  0
LINE
  5
13BE
  8
240
  6
CONTINUOUS
 10
1.0000000474973361
 20
86.25000109896051
 30
0.0
 11
19.50000040233158
 21
86.25000109896051
 31
0.0
  0
LINE
  5
13C0
  8
241
  6
CONTINUOUS
 10
19.999999552964368
 20
71.000000461935656
 30
0.0
 11
19.999999552965608
 21
4.7516226768493652
 31
0.0
  0
LINE
  5
13D5
  8
246
  6
PHANTOM2
 10
-1.0000020265574661
 20
-0.0000000000001137
 30
0.0
 11
-43.000001693144043
 21
-0.0000000000001137
 31
0.0
  0
LINE
  5
13E3
  8
246
  6
PHANTOM2
 10
-45.00000178813886
 20
8.2686580664732254
 30
0.0
 11
-45.00000178813886
 21
2.0000040531155032
 31
0.0
  0
LINE
  5
13E4
  8
246
  6
PHANTOM2
 10
-43.000001693144043
 20
-0.0000000000001137
 30
0.0
 11
-45.00000178813886
 21
2.0000040531155032
 31
0.0
  0
LINE
  5
13E5
  8
246
  6
PHANTOM2
 10
0.0
 20
1.000002026559343
 30
0.0
 11
-1.0000020265574661
 21
-0.0000000000001137
 31
0.0
  0
TEXT
  5
13FB
  8
241
  6
CONTINUOUS
 10
-41.999999952499628
 20
105.0000010989604
 30
0.0
 40
4.0
  1
BWN200FB
  7
YOKO
  0
TEXT
  5
13FC
  8
241
  6
CONTINUOUS
 10
-43.957067649088721
 20
98.065946941846946
 30
0.0
 40
4.0
  1
(+35/\U+03C6 adjustment of boring diameter)
  7
YOKO
  0
VIEWPORT
  5
22
 67
     1
  8
0
 10
261.51769911504419
 20
148.5
 30
0.0
 40
523.0353982300885
 41
297.0
 68
     1
 69
     1
1001
ACAD
1000
MVIEW
1002
{
1070
    16
1010
0.0
1020
0.0
1030
0.0
1010
0.0
1020
0.0
1030
1.0
1040
0.0
1040
297.0
1040
261.51769911504419
1040
148.5
1040
50.0
1040
0.0
1040
0.0
1070
     0
1070
   100
1070
     1
1070
     1
1070
     0
1070
     0
1070
     0
1070
     0
1040
0.0
1040
0.0
1040
0.0
1040
1.0
1040
1.0
1040
10.0
1040
10.0
1070
     0
1002
{
1002
}
1002
}
1001
GENIUS_GENODEF_13
1002
{
1000
HIER
1070
     0
1002
}
1002
{
1000
MANEDIT
1070
     0
1002
}
1002
{
1000
NOSEL
1070
     0
1002
}
1002
{
1000
BEHIND
1070
     0
1002
}
1002
{
1000
OTHER
1070
     0
1002
}
1002
{
1000
REACTOR
1002
}
1001
GENIUS_GENOBJ-N-SDF_13
1002
{
1000
OWNER
1000
GEN
1002
}
1001
GENIUS_GENSCREG_15
1000
PF
1040
1.0
1000
DF
1040
1.0
1000
MIN
1011
0.0
1021
0.0
1031
0.0
1021
0.0
1031
0.0
1000
MAX
1011
523.0353982300885
1021
0.0
1031
0.0
1021
297.0
1031
0.0
1000
FLAGS
1070
     4
  0
ENDSEC
  0
EOF
