  0
SECTION
  2
HEADER
  9
$ACADVER
  1
AC1009
  9
$INSBASE
 10
0.0
 20
0.0
 30
0.0
  9
$EXTMIN
 10
-45.00000178813886
 20
-87.941068373560995
 30
0.0
  9
$EXTMAX
 10
393.53768282123389
 20
109.0000010989604
 30
0.0
  9
$LIMMIN
 10
0.0
 20
0.0
  9
$LIMMAX
 10
297.0
 20
210.0
  9
$ORTHOMODE
 70
     1
  9
$REGENMODE
 70
     1
  9
$FILLMODE
 70
     1
  9
$QTEXTMODE
 70
     0
  9
$MIRRTEXT
 70
     1
  9
$DRAGMODE
 70
     2
  9
$LTSCALE
 40
10.0
  9
$OSMODE
 70
    47
  9
$ATTMODE
 70
     1
  9
$TEXTSIZE
 40
3.0
  9
$TRACEWID
 40
1.0
  9
$TEXTSTYLE
  7
YOKO
  9
$CLAYER
  8
241
  9
$CELTYPE
  6
BYLAYER
  9
$CECOLOR
 62
   256
  9
$DIMSCALE
 40
1.0
  9
$DIMASZ
 40
2.2299999999999991
  9
$DIMEXO
 40
0.5
  9
$DIMDLI
 40
7.0
  9
$DIMRND
 40
0.0
  9
$DIMDLE
 40
0.0
  9
$DIMEXE
 40
1.0
  9
$DIMTP
 40
0.0
  9
$DIMTM
 40
0.01
  9
$DIMTXT
 40
2.799999999999998
  9
$DIMCEN
 40
0.0
  9
$DIMTSZ
 40
0.0
  9
$DIMTOL
 70
     0
  9
$DIMLIM
 70
     0
  9
$DIMTIH
 70
     0
  9
$DIMTOH
 70
     0
  9
$DIMSE1
 70
     0
  9
$DIMSE2
 70
     0
  9
$DIMTAD
 70
     3
  9
$DIMZIN
 70
     9
  9
$DIMBLK
  1
OPEN
  9
$DIMASO
 70
     1
  9
$DIMSHO
 70
     1
  9
$DIMPOST
  1

  9
$DIMAPOST
  1

  9
$DIMALT
 70
     0
  9
$DIMALTD
 70
     2
  9
$DIMALTF
 40
25.399999999999999
  9
$DIMLFAC
 40
1.0
  9
$DIMTOFL
 70
     1
  9
$DIMTVP
 40
0.0
  9
$DIMTIX
 70
     1
  9
$DIMSOXD
 70
     0
  9
$DIMSAH
 70
     0
  9
$DIMBLK1
  1

  9
$DIMBLK2
  1

  9
$DIMSTYLE
  2
BIGT
  9
$DIMCLRD
 70
   256
  9
$DIMCLRE
 70
   256
  9
$DIMCLRT
 70
    40
  9
$DIMTFAC
 40
1.0
  9
$DIMGAP
 40
1.0
  9
$LUNITS
 70
     2
  9
$LUPREC
 70
     3
  9
$SKETCHINC
 40
1.0
  9
$FILLETRAD
 40
0.0
  9
$AUNITS
 70
     0
  9
$AUPREC
 70
     3
  9
$MENU
  1
.
  9
$ELEVATION
 40
0.0
  9
$PELEVATION
 40
0.0
  9
$THICKNESS
 40
0.0
  9
$LIMCHECK
 70
     0
  9
$BLIPMODE
 70
     0
  9
$CHAMFERA
 40
0.25
  9
$CHAMFERB
 40
0.25
  9
$SKPOLY
 70
     0
  9
$TDCREATE
 40
2456512.575947246
  9
$TDUPDATE
 40
2460425.6926356368
  9
$TDINDWG
 40
0.0548559722
  9
$TDUSRTIMER
 40
0.0548559375
  9
$USRTIMER
 70
     1
  9
$ANGBASE
 50
0.0
  9
$ANGDIR
 70
     0
  9
$PDMODE
 70
     1
  9
$PDSIZE
 40
0.0
  9
$PLINEWID
 40
0.0
  9
$COORDS
 70
     1
  9
$SPLFRAME
 70
     0
  9
$SPLINETYPE
 70
     6
  9
$SPLINESEGS
 70
     4
  9
$ATTDIA
 70
     1
  9
$ATTREQ
 70
     1
  9
$HANDLING
 70
     1
  9
$HANDSEED
  5
1FBB
  9
$SURFTAB1
 70
     6
  9
$SURFTAB2
 70
     6
  9
$SURFTYPE
 70
     6
  9
$SURFU
 70
     6
  9
$SURFV
 70
     6
  9
$UCSNAME
  2

  9
$UCSORG
 10
0.0
 20
0.0
 30
0.0
  9
$UCSXDIR
 10
1.0
 20
0.0
 30
0.0
  9
$UCSYDIR
 10
0.0
 20
1.0
 30
0.0
  9
$PUCSNAME
  2

  9
$PUCSORG
 10
0.0
 20
0.0
 30
0.0
  9
$PUCSXDIR
 10
1.0
 20
0.0
 30
0.0
  9
$PUCSYDIR
 10
0.0
 20
1.0
 30
0.0
  9
$USERI1
 70
     1
  9
$USERI2
 70
     0
  9
$USERI3
 70
     0
  9
$USERI4
 70
     0
  9
$USERI5
 70
     0
  9
$USERR1
 40
0.0
  9
$USERR2
 40
0.0
  9
$USERR3
 40
0.0
  9
$USERR4
 40
0.0
  9
$USERR5
 40
0.0
  9
$WORLDVIEW
 70
     1
  9
$SHADEDGE
 70
     3
  9
$SHADEDIF
 70
    70
  9
$TILEMODE
 70
     1
  9
$MAXACTVP
 70
    16
  9
$PLIMCHECK
 70
     0
  9
$PEXTMIN
 10
1.0000000000000000E+020
 20
1.0000000000000000E+020
 30
1.0000000000000000E+020
  9
$PEXTMAX
 10
-1.0000000000000000E+020
 20
-1.0000000000000000E+020
 30
-1.0000000000000000E+020
  9
$PLIMMIN
 10
0.0
 20
0.0
  9
$PLIMMAX
 10
420.0
 20
297.0
  9
$UNITMODE
 70
     0
  9
$VISRETAIN
 70
     1
  9
$PLINEGEN
 70
     0
  9
$PSLTSCALE
 70
     1
  0
ENDSEC
  0
SECTION
  2
TABLES
  0
TABLE
  2
VPORT
 70
     1
  0
VPORT
  2
*ACTIVE
 70
     0
 10
0.0
 20
0.0
 11
1.0
 21
1.0
 12
50.510884906028991
 22
60.369700880398291
 13
0.0
 23
0.0
 14
7.0
 24
7.0
 15
7.0
 25
7.0
 16
0.0
 26
0.0
 36
1.0
 17
0.0
 27
0.0
 37
0.0
 40
188.15978947338729
 41
2.196211096075777
 42
50.0
 43
0.0
 44
0.0
 50
0.0
 51
0.0
 71
     0
 72
  2000
 73
     1
 74
     0
 75
     0
 76
     1
 77
     0
 78
     1
  0
ENDTAB
  0
TABLE
  2
LTYPE
 70
    20
  0
LTYPE
  2
CONTINUOUS
 70
     0
  3
Solid line
 72
    65
 73
     0
 40
0.0
  0
LTYPE
  2
CENTER2
 70
     0
  3
___ _ ___ _ ___ _ ___ _ ___ _ ___ _ ___ _ ___ _
 72
    65
 73
     4
 40
1.125
 49
0.75
 49
-0.125
 49
0.125
 49
-0.125
  0
LTYPE
  2
HIDDEN2
 70
     0
  3
_ _ _ _ _ _ _ _ _ _ _ _ _ _ _ _ _ _ _ _ _ _ _ _
 72
    65
 73
     2
 40
0.1875
 49
0.125
 49
-0.0625
  0
LTYPE
  2
PHANTOM2
 70
     0
  3
___ _ _ ___ _ _ ___ _ _ ___ _ _ ___ _ _ ___ _ _
 72
    65
 73
     6
 40
1.25
 49
0.625
 49
-0.125
 49
0.125
 49
-0.125
 49
0.125
 49
-0.125
  0
LTYPE
  2
CENTER
 70
     0
  3
____ _ ____ _ ____ _ ____ _ ____ _ ____ _ ____ 
 72
    65
 73
     4
 40
2.0
 49
1.25
 49
-0.25
 49
0.25
 49
-0.25
  0
LTYPE
  2
AMCONSTR
 70
     0
  3
_______________________
 72
    65
 73
     2
 40
9999.0
 49
9999.0
 49
0.0
  0
LTYPE
  2
HIDDEN
 70
     0
  3
Hidden __ __ __ __ __ __ __ __ __ __ __ __ __ _
 72
    65
 73
     2
 40
9.5249999999999986
 49
6.349999999999997
 49
-3.174999999999998
  0
LTYPE
  2
AMZIGZAG2
 70
     0
  3
/\/-/\/-/\/-/\/-/\/-/\/
 72
    65
 73
     2
 40
0.4401
 49
0.0001
 49
-0.4400000000000002
  0
LTYPE
  2
ACANSTGB
 70
     0
  3
__ . . __ . .
 72
    65
 73
     6
 40
0.35433070866
 49
0.15748031496
 49
-0.03937007874
 49
0.03937007874
 49
-0.03937007874
 49
0.03937007874
 49
-0.03937007874
  0
LTYPE
  2
ACANSTGL
 70
     0
  3
_ _ _ _ _
 72
    65
 73
     2
 40
0.11811023622
 49
0.07874015748
 49
-0.03937007874
  0
LTYPE
  2
AM_ISO02W050
 70
     0
  3
__ __ __ __ __ __ __ __ __ __ __ __ __ __ __
 72
    65
 73
     2
 40
7.5
 49
6.0
 49
-1.5
  0
LTYPE
  2
AM_ISO08W050
 70
     0
  3
____ . ____ . ____ . ____ . ____ . ____ . ____
 72
    65
 73
     4
 40
18.0
 49
12.0
 49
-1.5
 49
3.0
 49
-1.5
  0
LTYPE
  2
AM_ISO09W050
 70
     0
  3
_____ . . _____ . . _____ . . ____ .. ____
 72
    65
 73
     6
 40
22.5
 49
12.0
 49
-1.5
 49
3.0
 49
-1.5
 49
3.0
 49
-1.5
  0
LTYPE
  2
AM_ISO08W050X2
 70
     0
  3
__ . __ . __ . __ . __ . __
 72
    65
 73
     4
 40
9.0
 49
6.0
 49
-0.75
 49
1.5
 49
-0.75
  0
LTYPE
  2
AM_ISO02W050X2
 70
     0
  3
 _ _ _ _ _ _ _ _ _ _ _ _
 72
    65
 73
     2
 40
3.75
 49
3.0
 49
-0.75
  0
LTYPE
  2
AMZIGZAG
 70
     0
  3
/\/-/\/-/\/-/\/-/\/-/\/
 72
    65
 73
     2
 40
11.0001
 49
0.0001
 49
-11.0
  0
LTYPE
  2
ACJISTGB
 70
     0
  3
__ . . __ . .
 72
    65
 73
     6
 40
9.0
 49
4.0
 49
-1.0
 49
1.0
 49
-1.0
 49
1.0
 49
-1.0
  0
LTYPE
  2
ACJISTGL
 70
     0
  3
_ _ _ _ _
 72
    65
 73
     2
 40
3.0
 49
2.0
 49
-1.0
  0
ENDTAB
  0
TABLE
  2
LAYER
 70
    11
  0
LAYER
  2
0
 70
     0
 62
     7
  6
CONTINUOUS
  0
LAYER
  2
240
 70
     0
 62
     4
  6
CONTINUOUS
  0
LAYER
  2
DEFPOINTS
 70
     0
 62
     7
  6
CONTINUOUS
  0
LAYER
  2
241
 70
     0
 62
   211
  6
CONTINUOUS
  0
LAYER
  2
246
 70
     0
 62
     3
  6
PHANTOM2
  0
LAYER
  2
2
 70
     0
 62
     7
  6
CONTINUOUS
  0
LAYER
  2
242
 70
     0
 62
     3
  6
CONTINUOUS
  0
LAYER
  2
245
 70
     0
 62
     2
  6
CENTER2
  0
LAYER
  2
AM_5
 70
     0
 62
     3
  6
CONTINUOUS
  0
LAYER
  2
251
 70
     0
 62
   -40
  6
CONTINUOUS
  0
LAYER
  2
AM_CL
 70
     0
 62
     1
  6
AMCONSTR
  0
ENDTAB
  0
TABLE
  2
STYLE
 70
     8
  0
STYLE
  2
STANDARD
 70
     0
 40
0.0
 41
1.0
 50
0.0
 71
     0
 42
3.0
  3
romans.shx
  4
extfont.shx
  0
STYLE
  2
ANNOTATIVE
 70
     0
 40
0.0
 41
1.0
 50
0.0
 71
     0
 42
0.2
  3
txt
  4

  0
STYLE
  2
YOKO
 70
     0
 40
0.0
 41
1.0
 50
0.0
 71
     0
 42
3.0
  3
romans.shx
  4
extfont.shx
  0
STYLE
  2

 70
     1
 40
0.0
 41
1.0
 50
0.0
 71
     0
 42
3.0
  3
genltshp.shx
  4

  0
STYLE
  2
ACANSGDT
 70
     0
 40
0.0
 41
1.0
 50
0.0
 71
     0
 42
3.0
  3
amgdt.shx
  4

  0
STYLE
  2
ACANSTS
 70
     0
 40
0.0
 41
1.0
 50
0.0
 71
     0
 42
3.0
  3
romans.shx
  4
extfont.shx
  0
STYLE
  2
ACJISTS
 70
     0
 40
1.0
 41
1.0
 50
0.0
 71
     0
 42
3.0
  3
amgdt.shx
  4
extfont.shx
  0
STYLE
  2
ACJISGDT
 70
     0
 40
0.0
 41
1.0
 50
0.0
 71
     0
 42
3.0
  3
amgdt.shx
  4
extfont.shx
  0
ENDTAB
  0
TABLE
  2
VIEW
 70
     0
  0
ENDTAB
  0
TABLE
  2
UCS
 70
     0
  0
ENDTAB
  0
TABLE
  2
APPID
 70
    43
  0
APPID
  2
ACAD
 70
     0
  0
APPID
  2
ACADANNOTATIVE
 70
     0
  0
APPID
  2
GLOBAL
 70
     0
  0
APPID
  2
DETAIL
 70
     0
  0
APPID
  2
GRPNAME
 70
     0
  0
APPID
  2
GPARA
 70
     0
  0
APPID
  2
MCAD_NO_VIS
 70
     0
  0
APPID
  2
ACAD_TEMP_GRAPHIC
 70
     0
  0
APPID
  2
ACATTRIBSERVICES
 70
     0
  0
APPID
  2
GENIUS_GENSCREG_15
 70
     0
  0
APPID
  2
GENIUS_GENODEF_13
 70
     0
  0
APPID
  2
GENIUS_GENOBJ-N-SDF_13
 70
     0
  0
APPID
  2
GENIUS_GENREC_14
 70
     0
  0
APPID
  2
GENIUS_GENOBJ-N-REC_13
 70
     0
  0
APPID
  2
GENIUS_GENDIMSH_14
 70
     0
  0
APPID
  2
GENIUS_GENOBJ-N-DIM_13
 70
     0
  0
APPID
  2
GENIUS_GENDIM_13
 70
     0
  0
APPID
  2
GENIUS_GENDTOL_13
 70
     0
  0
APPID
  2
GENIUS_GENOLIS_13
 70
     0
  0
APPID
  2
GENIUS_GENOENT_13
 70
     0
  0
APPID
  2
GENIUS_GENOBJ-F-FEM_13
 70
     0
  0
APPID
  2
GENIUS_GENOREF_13
 70
     0
  0
APPID
  2
GENIUS_GEFFEM_13
 70
     0
  0
APPID
  2
GENIUS_GEFFEMP_13
 70
     0
  0
APPID
  2
AD_DRAW
 70
     0
  0
APPID
  2
DESIGNERASSEMBLIES
 70
     0
  0
APPID
  2
ACADM_DIM_EDIT
 70
     0
  0
APPID
  2
AMDT_DM_ADJ
 70
     0
  0
APPID
  2
LAYER_SCALE
 70
     0
  0
APPID
  2
ACAD_PSEXT
 70
     0
  0
APPID
  2
ACAD_DSTYLE_DIMJAG
 70
     0
  0
APPID
  2
ACAD_DSTYLE_DIMBREAK
 70
     0
  0
APPID
  2
ACAD_NAV_VCDISPLAY
 70
     0
  0
APPID
  2
ACAD_EXEMPT_FROM_CAD_STANDARDS
 70
     0
  0
APPID
  2
ACAD_MLEADERVER
 70
     0
  0
APPID
  2
ACAD_DSTYLE_DIMARC_LENGTH_
 70
     0
  0
APPID
  2
ACAD_DSTYLE_DIM_LINETYPE
 70
     0
  0
APPID
  2
ACAD_DSTYLE_DIM_EXT1_LINETYPE
 70
     0
  0
APPID
  2
ACAD_DSTYLE_DIM_EXT2_LINETYPE
 70
     0
  0
APPID
  2
ASK_MEN_XD
 70
     0
  0
APPID
  2
ASKLEADERCHILD
 70
     0
  0
APPID
  2
ACAECLAYERSTANDARD
 70
     0
  0
APPID
  2
ACAD_DSTYLE_DIMINSPECT
 70
     0
  0
ENDTAB
  0
TABLE
  2
DIMSTYLE
 70
    20
  0
DIMSTYLE
  2
STANDARD
 70
     0
  3

  4

  5

  6

  7

 40
1.0
 41
0.18
 42
0.0625
 43
0.38
 44
0.18
 45
0.0
 46
0.0
 47
0.0
 48
0.0
140
0.18
141
0.09
142
0.0
143
25.399999999999999
144
1.0
145
0.0
146
1.0
147
0.09
 71
     0
 72
     0
 73
     1
 74
     1
 75
     0
 76
     0
 77
     0
 78
     0
170
     0
171
     2
172
     0
173
     0
174
     0
175
     0
176
     0
177
     0
178
     0
  0
DIMSTYLE
  2
ANNOTATIVE
 70
     0
  3

  4

  5

  6

  7

 40
1.0
 41
0.18
 42
0.0625
 43
0.38
 44
0.18
 45
0.0
 46
0.0
 47
0.0
 48
0.0
140
0.18
141
0.09
142
0.0
143
25.399999999999999
144
1.0
145
0.0
146
1.0
147
0.09
 71
     0
 72
     0
 73
     1
 74
     1
 75
     0
 76
     0
 77
     0
 78
     0
170
     0
171
     2
172
     0
173
     0
174
     0
175
     0
176
     0
177
     0
178
     0
  0
DIMSTYLE
  2
BIGT
 70
     0
  3

  4

  5

  6

  7

 40
1.0
 41
2.2299999999999991
 42
0.5
 43
7.0
 44
1.0
 45
0.0
 46
0.0
 47
0.0
 48
0.01
140
2.799999999999998
141
0.0
142
0.0
143
25.399999999999999
144
1.0
145
0.0
146
1.0
147
1.0
 71
     0
 72
     0
 73
     0
 74
     0
 75
     0
 76
     0
 77
     3
 78
     9
170
     0
171
     2
172
     1
173
     0
174
     1
175
     0
176
   256
177
   256
178
    40
  0
DIMSTYLE
  2
AM_ANSI
 70
     0
  3

  4
mm
  5

  6

  7

 40
1.0
 41
0.12
 42
0.05
 43
0.5
 44
0.1
 45
0.0
 46
0.0
 47
0.1
 48
0.1
140
0.12
141
0.0
142
0.0
143
25.399999999999999
144
1.0
145
0.0
146
0.71
147
0.06
 71
     0
 72
     0
 73
     1
 74
     1
 75
     0
 76
     0
 77
     0
 78
     7
170
     0
171
     2
172
     0
173
     0
174
     0
175
     0
176
   256
177
   256
178
     2
  0
DIMSTYLE
  2
AM_ANSI$3
 70
     0
  3

  4
mm
  5

  6

  7

 40
1.0
 41
0.12
 42
0.05
 43
0.5
 44
0.1
 45
0.0
 46
0.0
 47
0.1
 48
0.1
140
0.12
141
0.0
142
0.0
143
25.399999999999999
144
1.0
145
0.0
146
0.71
147
0.06
 71
     0
 72
     0
 73
     1
 74
     1
 75
     0
 76
     0
 77
     0
 78
     7
170
     0
171
     2
172
     0
173
     0
174
     0
175
     0
176
   256
177
   256
178
     2
  0
DIMSTYLE
  2
AM_ANSI$4
 70
     0
  3

  4
mm
  5

  6

  7

 40
1.0
 41
0.12
 42
0.05
 43
0.5
 44
0.1
 45
0.0
 46
0.0
 47
0.1
 48
0.1
140
0.12
141
0.0
142
0.0
143
25.399999999999999
144
1.0
145
0.0
146
0.71
147
0.06
 71
     0
 72
     0
 73
     1
 74
     1
 75
     0
 76
     0
 77
     0
 78
     7
170
     0
171
     2
172
     0
173
     0
174
     0
175
     0
176
   256
177
   256
178
     2
  0
DIMSTYLE
  2
AM_ANSI$7
 70
     0
  3

  4
mm
  5

  6

  7

 40
1.0
 41
0.12
 42
0.05
 43
0.5
 44
0.1
 45
0.0
 46
0.0
 47
0.1
 48
0.1
140
0.12
141
0.0
142
0.0
143
25.399999999999999
144
1.0
145
0.0
146
0.71
147
0.06
 71
     0
 72
     0
 73
     1
 74
     1
 75
     0
 76
     0
 77
     0
 78
     7
170
     0
171
     2
172
     0
173
     0
174
     0
175
     0
176
   256
177
   256
178
     2
  0
DIMSTYLE
  2
AM_ANSI$SF
 70
     0
  3

  4
mm
  5

  6

  7

 40
1.0
 41
0.12
 42
0.05
 43
0.5
 44
0.1
 45
0.0
 46
0.0
 47
0.1
 48
0.1
140
0.12
141
0.0
142
0.0
143
25.399999999999999
144
1.0
145
0.0
146
0.71
147
0.06
 71
     0
 72
     0
 73
     1
 74
     1
 75
     1
 76
     1
 77
     0
 78
     7
170
     0
171
     2
172
     0
173
     0
174
     0
175
     0
176
   256
177
   256
178
     2
  0
DIMSTYLE
  2
AM_ANSI$SH
 70
     0
  3

  4
mm
  5

  6

  7

 40
1.0
 41
0.12
 42
0.05
 43
0.5
 44
0.1
 45
0.0
 46
0.0
 47
0.1
 48
0.1
140
0.12
141
0.0
142
0.0
143
25.399999999999999
144
1.0
145
0.0
146
0.71
147
0.06
 71
     0
 72
     0
 73
     1
 74
     1
 75
     1
 76
     1
 77
     0
 78
     7
170
     0
171
     2
172
     0
173
     1
174
     0
175
     0
176
   256
177
   256
178
     2
  0
DIMSTYLE
  2
GRADE
 70
     0
  3

  4

  5

  6
OPEN
  7
OPEN
 40
1.0
 41
2.0
 42
2.0
 43
3.75
 44
2.0
 45
0.0
 46
0.0
 47
0.0
 48
0.0
140
4.0
141
0.0
142
0.0
143
25.399999999999999
144
1.0
145
1.0
146
1.0
147
1.0
 71
     0
 72
     0
 73
     0
 74
     0
 75
     0
 76
     0
 77
     3
 78
     8
170
     0
171
     2
172
     1
173
     1
174
     0
175
     0
176
     0
177
     0
178
    40
  0
DIMSTYLE
  2
BIGT$0
 70
     0
  3

  4

  5
OPEN
  6

  7

 40
1.0
 41
2.2299999999999991
 42
0.5
 43
7.0
 44
1.0
 45
0.0
 46
0.0
 47
0.0
 48
0.01
140
2.7999999999999989
141
0.0
142
0.0
143
25.399999999999999
144
1.0
145
0.0
146
1.0
147
1.0
 71
     0
 72
     0
 73
     0
 74
     0
 75
     0
 76
     0
 77
     3
 78
     9
170
     0
171
     2
172
     1
173
     0
174
     1
175
     0
176
   256
177
   256
178
    40
  0
DIMSTYLE
  2
BIGT$2
 70
     0
  3

  4

  5
OPEN
  6

  7

 40
1.0
 41
2.2299999999999991
 42
0.5
 43
7.0
 44
1.0
 45
0.0
 46
0.0
 47
0.0
 48
0.01
140
2.7999999999999989
141
0.0
142
0.0
143
25.399999999999999
144
1.0
145
0.0
146
1.0
147
1.0
 71
     0
 72
     0
 73
     0
 74
     0
 75
     0
 76
     0
 77
     3
 78
     9
170
     0
171
     2
172
     1
173
     0
174
     0
175
     0
176
   256
177
   256
178
    40
  0
DIMSTYLE
  2
BIGT$3
 70
     0
  3

  4

  5
OPEN
  6

  7

 40
1.0
 41
2.2299999999999991
 42
0.5
 43
2.5
 44
1.0
 45
0.0
 46
0.0
 47
0.0
 48
0.01
140
2.7999999999999989
141
0.0
142
0.0
143
25.399999999999999
144
1.0
145
0.0
146
1.0
147
1.0
 71
     0
 72
     0
 73
     0
 74
     0
 75
     0
 76
     0
 77
     3
 78
     9
170
     0
171
     2
172
     1
173
     0
174
     0
175
     0
176
   256
177
   256
178
    40
  0
DIMSTYLE
  2
BIGT$4
 70
     0
  3

  4

  5
OPEN
  6

  7

 40
1.0
 41
2.2299999999999991
 42
0.5
 43
2.5
 44
1.0
 45
0.0
 46
0.0
 47
0.0
 48
0.01
140
2.7999999999999989
141
0.0
142
0.0
143
25.399999999999999
144
1.0
145
0.0
146
1.0
147
1.0
 71
     0
 72
     0
 73
     0
 74
     0
 75
     0
 76
     0
 77
     3
 78
     9
170
     0
171
     2
172
     1
173
     0
174
     0
175
     0
176
   256
177
   256
178
    40
  0
DIMSTYLE
  2
BIGT$6
 70
     0
  3

  4

  5
OPEN
  6

  7

 40
1.0
 41
2.2299999999999991
 42
0.5
 43
2.5
 44
1.0
 45
0.0
 46
0.0
 47
0.0
 48
0.01
140
2.7999999999999989
141
0.0
142
0.0
143
25.399999999999999
144
1.0
145
0.0
146
1.0
147
1.0
 71
     0
 72
     0
 73
     0
 74
     0
 75
     0
 76
     0
 77
     3
 78
     9
170
     0
171
     2
172
     1
173
     0
174
     0
175
     0
176
   256
177
   256
178
    40
  0
DIMSTYLE
  2
BIGT$7
 70
     0
  3

  4

  5
OPEN
  6

  7

 40
0.0
 41
2.2299999999999991
 42
0.5
 43
7.0
 44
1.0
 45
0.0
 46
0.0
 47
0.0
 48
0.01
140
2.7999999999999989
141
0.0
142
0.0
143
25.399999999999999
144
1.0
145
0.0
146
1.0
147
1.0
 71
     0
 72
     0
 73
     0
 74
     0
 75
     0
 76
     0
 77
     3
 78
     9
170
     0
171
     2
172
     0
173
     0
174
     0
175
     0
176
   256
177
   256
178
    40
  0
DIMSTYLE
  2
BIGT$SF
 70
     0
  3

  4

  5
OPEN
  6

  7

 40
1.0
 41
2.2299999999999991
 42
0.5
 43
7.0
 44
1.0
 45
0.0
 46
0.0
 47
0.0
 48
0.0
140
2.7999999999999989
141
0.0
142
0.0
143
25.399999999999999
144
1.0
145
0.0
146
1.0
147
1.0
 71
     0
 72
     0
 73
     0
 74
     0
 75
     0
 76
     0
 77
     3
 78
     9
170
     0
171
     2
172
     1
173
     0
174
     0
175
     0
176
   256
177
   256
178
    40
  0
DIMSTYLE
  2
BIGT$SH
 70
     0
  3

  4

  5
OPEN
  6

  7

 40
1.0
 41
2.2299999999999991
 42
0.5
 43
7.0
 44
1.0
 45
0.0
 46
0.0
 47
0.0
 48
0.0
140
2.7999999999999989
141
0.0
142
0.0
143
25.399999999999999
144
1.0
145
0.0
146
1.0
147
1.0
 71
     0
 72
     0
 73
     0
 74
     0
 75
     0
 76
     0
 77
     3
 78
     9
170
     0
171
     2
172
     1
173
     0
174
     0
175
     0
176
   256
177
   256
178
    40
  0
DIMSTYLE
  2
コピー_-_BIGT
 70
     0
  3

  4

  5

  6
OPEN
  7
OPEN
 40
1.0
 41
2.0
 42
0.5
 43
7.0
 44
1.0
 45
0.0
 46
0.0
 47
0.025
 48
0.025
140
2.7999999999999989
141
0.0
142
0.0
143
25.399999999999999
144
1.0
145
0.0
146
0.667
147
1.0
 71
     0
 72
     0
 73
     0
 74
     0
 75
     0
 76
     0
 77
     1
 78
     8
170
     0
171
     2
172
     1
173
     1
174
     1
175
     0
176
     3
177
     3
178
    40
  0
ENDTAB
  0
ENDSEC
  0
SECTION
  2
BLOCKS
  0
BLOCK
  8
0
  2
$MODEL_SPACE
 70
     0
 10
0.0
 20
0.0
 30
0.0
  3
$MODEL_SPACE
  1

  0
ENDBLK
  5
18AA
  8
0
  0
BLOCK
 67
     1
  8
0
  2
$PAPER_SPACE
 70
     0
 10
0.0
 20
0.0
 30
0.0
  3
$PAPER_SPACE
  1

  0
ENDBLK
  5
18A6
 67
     1
  8
0
  0
BLOCK
  8
0
  2
_OPEN
 70
     0
 10
0.0
 20
0.0
 30
0.0
  3
_OPEN
  1

  0
LINE
  5
156A
  8
0
  6
BYBLOCK
 62
     0
 10
-1.0
 20
0.1666666666666666
 30
0.0
 11
0.0
 21
0.0
 31
0.0
  0
LINE
  5
156B
  8
0
  6
BYBLOCK
 62
     0
 10
-1.0
 20
-0.1666666666666666
 30
0.0
 11
0.0
 21
0.0
 31
0.0
  0
LINE
  5
156C
  8
0
  6
BYBLOCK
 62
     0
 10
0.0
 20
0.0
 30
0.0
 11
-1.0
 21
0.0
 31
0.0
  0
ENDBLK
  5
156D
  8
0
  0
BLOCK
  8
0
  2
GENAXEH
 70
     0
 10
0.0
 20
0.0
 30
0.0
  3
GENAXEH
  1

  0
LINE
  5
1595
  8
0
 10
-1.0
 20
0.0
 30
0.0
 11
1.0
 21
0.0
 31
0.0
  0
ENDBLK
  5
1596
  8
0
  0
BLOCK
  8
0
  2
_ACMFILLEDHALF
 70
     0
 10
0.0
 20
0.0
 30
0.0
  3
_ACMFILLEDHALF
  1

  0
TRACE
  5
16FD
  8
240
 62
     0
 10
-0.8
 20
0.0
 30
0.0
 11
-1.0
 21
0.166666666
 31
0.0
 12
0.0
 22
0.0
 32
0.0
 13
0.0
 23
0.0
 33
0.0
  0
LINE
  5
16FE
  8
240
 62
     0
 10
-1.0
 20
0.0
 30
0.0
 11
-0.8
 21
0.0
 31
0.0
  0
ENDBLK
  5
16FC
  8
0
  0
BLOCK
  8
0
  2
_ACMOPEN15
 70
     0
 10
0.0
 20
0.0
 30
0.0
  3
_ACMOPEN15
  1

  0
LINE
  5
1965
  8
241
 62
     0
 10
-1.0
 20
0.0
 30
0.0
 11
0.0
 21
0.0
 31
0.0
  0
LINE
  5
1966
  8
241
 62
     0
 10
-1.0
 20
-0.131652497
 30
0.0
 11
0.0
 21
0.0
 31
0.0
  0
LINE
  5
1967
  8
241
 62
     0
 10
0.0
 20
0.0
 30
0.0
 11
-1.0
 21
0.131652497
 31
0.0
  0
ENDBLK
  5
1968
  8
0
  0
BLOCK
  8
0
  2
*D8
 70
     1
 10
0.0
 20
0.0
 30
0.0
  3
*D8
  1

  0
LINE
  5
1A4E
  8
AM_5
 10
-0.0000000000006535
 20
0.5000020265586896
 30
0.0
 11
-0.0000000000006552
 21
-26.668842256370681
 31
0.0
  0
LINE
  5
1A4F
  8
AM_5
 10
46.000000089406953
 20
0.3660271588352657
 30
0.0
 11
46.000000089406953
 21
-26.668842256370681
 31
0.0
  0
LINE
  5
1A50
  8
AM_5
 10
2.2299999999993441
 20
-25.668842256370681
 30
0.0
 11
43.770000089406963
 21
-25.668842256370681
 31
0.0
  0
INSERT
  5
1A51
  8
AM_5
  2
_OPEN
 10
-0.0000000000006551
 20
-25.668842256370681
 30
0.0
 41
2.2299999999999991
 42
2.2299999999999991
 43
2.2299999999999991
 50
180.0
  0
INSERT
  5
1A52
  8
AM_5
  2
_OPEN
 10
46.000000089406953
 20
-25.668842256370681
 30
0.0
 41
2.2299999999999991
 42
2.2299999999999991
 43
2.2299999999999991
  0
INSERT
  5
1A53
  8
241
  2
*U26
 10
0.0
 20
0.0
 30
0.0
  0
POINT
  5
1A54
  8
DEFPOINTS
 62
     0
 10
-0.0000000000006535
 20
1.0000020265586891
 30
0.0
  0
POINT
  5
1A55
  8
DEFPOINTS
 62
     0
 10
46.000000089406953
 20
0.8660271588352657
 30
0.0
  0
POINT
  5
1A56
  8
DEFPOINTS
 62
     0
 10
46.000000089406953
 20
-25.668842256370681
 30
0.0
  0
ENDBLK
  5
1A31
  8
0
  0
BLOCK
  8
0
  2
*D9
 70
     1
 10
0.0
 20
0.0
 30
0.0
  3
*D9
  1

  0
LINE
  5
1A6D
  8
AM_5
 10
118.8750000000001
 20
-14.62500000000011
 30
0.0
 11
118.8750000000001
 21
-35.83556329407179
 31
0.0
  0
LINE
  5
1A6E
  8
AM_5
 10
164.875
 20
-15.12500000000011
 30
0.0
 11
164.875
 21
-35.83556329407179
 31
0.0
  0
LINE
  5
1A6F
  8
AM_5
 10
121.1050000000001
 20
-34.83556329407179
 30
0.0
 11
162.64500000000001
 21
-34.83556329407179
 31
0.0
  0
INSERT
  5
1A70
  8
AM_5
  2
_OPEN
 10
118.8750000000001
 20
-34.83556329407179
 30
0.0
 41
2.2299999999999991
 42
2.2299999999999991
 43
2.2299999999999991
 50
180.0
  0
INSERT
  5
1A71
  8
AM_5
  2
_OPEN
 10
164.875
 20
-34.83556329407179
 30
0.0
 41
2.2299999999999991
 42
2.2299999999999991
 43
2.2299999999999991
  0
INSERT
  5
1A72
  8
241
  2
*U27
 10
0.0
 20
0.0
 30
0.0
  0
POINT
  5
1A73
  8
DEFPOINTS
 62
     0
 10
118.8750000000001
 20
-14.12500000000011
 30
0.0
  0
POINT
  5
1A74
  8
DEFPOINTS
 62
     0
 10
164.875
 20
-14.62500000000011
 30
0.0
  0
POINT
  5
1A75
  8
DEFPOINTS
 62
     0
 10
164.875
 20
-34.83556329407179
 30
0.0
  0
ENDBLK
  5
1A5A
  8
0
  0
BLOCK
  8
0
  2
*D10
 70
     1
 10
0.0
 20
0.0
 30
0.0
  3
*D10
  1

  0
LINE
  5
1A95
  8
AM_5
 10
142.375
 20
71.124999999999872
 30
0.0
 11
142.375
 21
86.065964874313465
 31
0.0
  0
LINE
  5
1A96
  8
AM_5
 10
118.8749999999999
 20
70.624999999999886
 30
0.0
 11
118.8749999999999
 21
86.065964874313465
 31
0.0
  0
LINE
  5
1A97
  8
AM_5
 10
140.14500000000001
 20
85.065964874313465
 30
0.0
 11
121.1049999999999
 21
85.065964874313465
 31
0.0
  0
INSERT
  5
1A98
  8
AM_5
  2
_OPEN
 10
142.375
 20
85.065964874313465
 30
0.0
 41
2.2299999999999991
 42
2.2299999999999991
 43
2.2299999999999991
  0
INSERT
  5
1A99
  8
AM_5
  2
_OPEN
 10
118.8749999999999
 20
85.065964874313465
 30
0.0
 41
2.2299999999999991
 42
2.2299999999999991
 43
2.2299999999999991
 50
180.0
  0
INSERT
  5
1A9A
  8
241
  2
*U28
 10
0.0
 20
0.0
 30
0.0
  0
POINT
  5
1A9B
  8
DEFPOINTS
 62
     0
 10
142.375
 20
70.624999999999872
 30
0.0
  0
POINT
  5
1A9C
  8
DEFPOINTS
 62
     0
 10
118.8749999999999
 20
70.124999999999886
 30
0.0
  0
POINT
  5
1A9D
  8
DEFPOINTS
 62
     0
 10
118.8749999999999
 20
85.065964874313465
 30
0.0
  0
ENDBLK
  5
1A79
  8
0
  0
BLOCK
  8
0
  2
*D11
 70
     1
 10
0.0
 20
0.0
 30
0.0
  3
*D11
  1

  0
LINE
  5
1AB4
  8
AM_5
 10
19.999999552965161
 20
84.500000962987627
 30
0.0
 11
19.999999552965161
 21
91.505634187396879
 31
0.0
  0
LINE
  5
1AB5
  8
AM_5
 10
0.0
 20
85.750001400717338
 30
0.0
 11
0.0000000000000004
 21
91.505634187396879
 31
0.0
  0
LINE
  5
1AB6
  8
AM_5
 10
17.76999955296516
 20
90.505634187396879
 30
0.0
 11
2.23
 21
90.505634187396879
 31
0.0
  0
INSERT
  5
1AB7
  8
AM_5
  2
_OPEN
 10
19.999999552965161
 20
90.505634187396879
 30
0.0
 41
2.2299999999999991
 42
2.2299999999999991
 43
2.2299999999999991
  0
INSERT
  5
1AB8
  8
AM_5
  2
_OPEN
 10
0.0000000000000003
 20
90.505634187396879
 30
0.0
 41
2.2299999999999991
 42
2.2299999999999991
 43
2.2299999999999991
 50
180.0
  0
INSERT
  5
1AB9
  8
241
  2
*U29
 10
0.0
 20
0.0
 30
0.0
  0
POINT
  5
1ABA
  8
DEFPOINTS
 62
     0
 10
19.999999552965161
 20
84.000000962987642
 30
0.0
  0
POINT
  5
1ABB
  8
DEFPOINTS
 62
     0
 10
0.0
 20
85.250001400717338
 30
0.0
  0
POINT
  5
1ABC
  8
DEFPOINTS
 62
     0
 10
0.0000000000000003
 20
90.505634187396879
 30
0.0
  0
ENDBLK
  5
1AA1
  8
0
  0
BLOCK
  8
0
  2
*D12
 70
     1
 10
0.0
 20
0.0
 30
0.0
  3
*D12
  1

  0
LINE
  5
1AD3
  8
AM_5
 10
20.00000040233158
 20
86.25000109896051
 30
0.0
 11
68.184370889272245
 21
86.250001098960496
 31
0.0
  0
LINE
  5
1AD4
  8
AM_5
 10
45.999999076127892
 20
71.000000461935869
 30
0.0
 11
68.184370889272245
 21
71.000000461935869
 31
0.0
  0
LINE
  5
1AD5
  8
AM_5
 10
67.184370889272259
 20
84.020001098960478
 30
0.0
 11
67.184370889272259
 21
73.230000461935873
 31
0.0
  0
INSERT
  5
1AD6
  8
AM_5
  2
_OPEN
 10
67.184370889272259
 20
86.250001098960496
 30
0.0
 41
2.2299999999999991
 42
2.2299999999999991
 43
2.2299999999999991
 50
90.0
  0
INSERT
  5
1AD7
  8
AM_5
  2
_OPEN
 10
67.184370889272259
 20
71.000000461935869
 30
0.0
 41
2.2299999999999991
 42
2.2299999999999991
 43
2.2299999999999991
 50
270.0
  0
INSERT
  5
1AD8
  8
241
  2
*U30
 10
0.0
 20
0.0
 30
0.0
  0
POINT
  5
1AD9
  8
DEFPOINTS
 62
     0
 10
19.50000040233158
 20
86.25000109896051
 30
0.0
  0
POINT
  5
1ADA
  8
DEFPOINTS
 62
     0
 10
45.499999076127892
 20
71.000000461935869
 30
0.0
  0
POINT
  5
1ADB
  8
DEFPOINTS
 62
     0
 10
67.184370889272259
 20
71.000000461935869
 30
0.0
  0
ENDBLK
  5
1AC0
  8
0
  0
BLOCK
  8
0
  2
*D13
 70
     1
 10
0.0
 20
0.0
 30
0.0
  3
*D13
  1

  0
LINE
  5
1AF2
  8
AM_5
 10
142.375
 20
71.124999999999872
 30
0.0
 11
183.33905444884829
 21
71.124999999999858
 31
0.0
  0
LINE
  5
1AF3
  8
AM_5
 10
164.87499999999969
 20
55.874999999999872
 30
0.0
 11
183.33905444884829
 21
55.874999999999872
 31
0.0
  0
LINE
  5
1AF4
  8
AM_5
 10
182.33905444884829
 20
68.894999999999854
 30
0.0
 11
182.3390544488482
 21
58.104999999999862
 31
0.0
  0
INSERT
  5
1AF5
  8
AM_5
  2
_OPEN
 10
182.33905444884829
 20
71.124999999999858
 30
0.0
 41
2.2299999999999991
 42
2.2299999999999991
 43
2.2299999999999991
 50
90.0
  0
INSERT
  5
1AF6
  8
AM_5
  2
_OPEN
 10
182.3390544488482
 20
55.874999999999872
 30
0.0
 41
2.2299999999999991
 42
2.2299999999999991
 43
2.2299999999999991
 50
270.0
  0
INSERT
  5
1AF7
  8
241
  2
*U31
 10
0.0
 20
0.0
 30
0.0
  0
POINT
  5
1AF8
  8
DEFPOINTS
 62
     0
 10
141.875
 20
71.124999999999872
 30
0.0
  0
POINT
  5
1AF9
  8
DEFPOINTS
 62
     0
 10
164.3749999999998
 20
55.874999999999872
 30
0.0
  0
POINT
  5
1AFA
  8
DEFPOINTS
 62
     0
 10
182.3390544488482
 20
55.874999999999872
 30
0.0
  0
ENDBLK
  5
1ADF
  8
0
  0
BLOCK
  8
0
  2
*D14
 70
     1
 10
0.0
 20
0.0
 30
0.0
  3
*D14
  1

  0
LINE
  5
1B14
  8
241
 62
     3
 10
305.71201178098772
 20
257.61795884873561
 30
0.0
 11
308.79798070575231
 21
266.09658878666522
 31
0.0
  0
LINE
  5
1B15
  8
241
 62
     3
 10
301.56133650471651
 20
246.71407225169159
 30
0.0
 11
301.56133650471662
 21
267.37260440909529
 31
0.0
  0
ARC
  5
1B16
  8
241
 62
     3
 10
301.56133650471651
 20
246.2140722516915
 30
0.0
 40
20.158532157403759
 50
75.686853026086212
 51
84.313146973913973
  0
INSERT
  5
1B17
  8
241
 62
     3
  2
_OPEN
 10
308.4559605624267
 20
265.1568961658794
 30
0.0
 41
2.0
 42
2.0
 43
2.0
 50
342.8434265130432
  0
INSERT
  5
1B18
  8
241
 62
     3
  2
_OPEN
 10
301.56133650471662
 20
266.37260440909529
 30
0.0
 41
2.0
 42
2.0
 43
2.0
 50
177.15657348695689
  0
INSERT
  5
1B19
  8
241
  2
*U32
 10
0.0
 20
0.0
 30
0.0
  0
POINT
  5
1B1A
  8
DEFPOINTS
 62
     0
 10
306.21021395108562
 20
265.82922856587169
 30
0.0
  0
POINT
  5
1B1B
  8
DEFPOINTS
 62
     0
 10
301.56133650471628
 20
206.7140722516915
 30
0.0
  0
POINT
  5
1B1C
  8
DEFPOINTS
 62
     0
 10
301.56133650471651
 20
246.2140722516915
 30
0.0
  0
POINT
  5
1B1D
  8
DEFPOINTS
 62
     0
 10
305.54100170932492
 20
257.14811253834267
 30
0.0
  0
POINT
  5
1B1E
  8
DEFPOINTS
 62
     0
 10
301.56133650471651
 20
246.2140722516915
 30
0.0
  0
ENDBLK
  5
1B1F
  8
0
  0
BLOCK
  8
0
  2
*D15
 70
     1
 10
0.0
 20
0.0
 30
0.0
  3
*D15
  1

  0
LINE
  5
1B22
  8
241
 62
     3
 10
340.81459023089758
 20
257.86795884873573
 30
0.0
 11
343.4222247102411
 21
265.03237569892258
 31
0.0
  0
LINE
  5
1B23
  8
241
 62
     3
 10
330.06133650471611
 20
264.01259005639201
 30
0.0
 11
330.06133650471611
 21
267.38826077578619
 31
0.0
  0
ARC
  5
1B24
  8
241
 62
     3
 10
330.06133650471611
 20
228.32363705038719
 30
0.0
 40
38.064623725399002
 50
73.010794097163341
 51
86.989205902835863
  0
INSERT
  5
1B25
  8
241
 62
     3
  2
_OPEN
 10
343.08020456691531
 20
264.0926830781367
 30
0.0
 41
2.0
 42
2.0
 43
2.0
 50
341.50539704858119
  0
INSERT
  5
1B26
  8
241
 62
     3
  2
_OPEN
 10
330.06133650471611
 20
266.38826077578619
 30
0.0
 41
2.0
 42
2.0
 43
2.0
 50
178.4946029514179
  0
INSERT
  5
1B27
  8
241
  2
*U33
 10
0.0
 20
0.0
 30
0.0
  0
POINT
  5
1B28
  8
DEFPOINTS
 62
     0
 10
338.8396428496327
 20
265.36222391693758
 30
0.0
  0
POINT
  5
1B29
  8
DEFPOINTS
 62
     0
 10
337.57887747100358
 20
248.97791110508609
 30
0.0
  0
POINT
  5
1B2A
  8
DEFPOINTS
 62
     0
 10
330.06133650471611
 20
263.51259005639201
 30
0.0
  0
POINT
  5
1B2B
  8
DEFPOINTS
 62
     0
 10
330.06133650471611
 20
216.60556700567969
 30
0.0
  0
POINT
  5
1B2C
  8
DEFPOINTS
 62
     0
 10
340.64358015923477
 20
257.39811253834267
 30
0.0
  0
ENDBLK
  5
1B2D
  8
0
  0
BLOCK
  8
0
  2
*D16
 70
     1
 10
0.0
 20
0.0
 30
0.0
  3
*D16
  1

  0
LINE
  5
1B30
  8
241
 62
     3
 10
330.06133650471611
 20
264.01259005639201
 30
0.0
 11
330.06133650471611
 21
267.39801220599219
 31
0.0
  0
LINE
  5
1B31
  8
241
 62
     3
 10
319.39907533710192
 20
257.61795884873573
 30
0.0
 11
316.6971131136354
 21
265.04153904592971
 31
0.0
  0
ARC
  5
1B32
  8
241
 62
     3
 10
330.06133650471611
 20
228.32363705038529
 30
0.0
 40
38.074375155606987
 50
93.010022809294426
 51
106.989977190704
  0
INSERT
  5
1B33
  8
241
 62
     3
  2
_OPEN
 10
330.06133650471611
 20
266.3980122059923
 30
0.0
 41
2.0
 42
2.0
 43
2.0
 50
1.5050114046472141
  0
INSERT
  5
1B34
  8
241
 62
     3
  2
_OPEN
 10
317.03913325696112
 20
264.10184642514378
 30
0.0
 41
2.0
 42
2.0
 43
2.0
 50
198.49498859535129
  0
INSERT
  5
1B35
  8
241
  2
*U34
 10
0.0
 20
0.0
 30
0.0
  0
POINT
  5
1B36
  8
DEFPOINTS
 62
     0
 10
325.64117133940482
 20
266.14056690199112
 30
0.0
  0
POINT
  5
1B37
  8
DEFPOINTS
 62
     0
 10
330.06133650471622
 20
263.51259005639201
 30
0.0
  0
POINT
  5
1B38
  8
DEFPOINTS
 62
     0
 10
322.54379553842898
 20
248.9779111050857
 30
0.0
  0
POINT
  5
1B39
  8
DEFPOINTS
 62
     0
 10
319.57008540876473
 20
257.14811253834267
 30
0.0
  0
POINT
  5
1B3A
  8
DEFPOINTS
 62
     0
 10
330.06133650471611
 20
216.60556700567969
 30
0.0
  0
ENDBLK
  5
1B3B
  8
0
  0
BLOCK
  8
0
  2
*D17
 70
     1
 10
0.0
 20
0.0
 30
0.0
  3
*D17
  1

  0
LINE
  5
1B3E
  8
2
 62
     3
 10
386.28393421320482
 20
226.46407225169139
 30
0.0
 11
398.73157571204121
 21
226.46407225169139
 31
0.0
  0
LINE
  5
1B3F
  8
2
 62
     3
 10
379.30591531609753
 20
218.46407225169131
 30
0.0
 11
398.73157571204121
 21
218.46407225169131
 31
0.0
  0
LINE
  5
1B40
  8
2
 62
     3
 10
397.73157571204121
 20
224.46407225169139
 30
0.0
 11
397.73157571204121
 21
220.46407225169131
 31
0.0
  0
INSERT
  5
1B41
  8
2
 62
     3
  2
_OPEN
 10
397.73157571204121
 20
226.46407225169139
 30
0.0
 41
2.0
 42
2.0
 43
2.0
 50
90.0
  0
INSERT
  5
1B42
  8
2
 62
     3
  2
_OPEN
 10
397.73157571204121
 20
218.46407225169131
 30
0.0
 41
2.0
 42
2.0
 43
2.0
 50
270.0
  0
INSERT
  5
1B43
  8
241
  2
*U35
 10
0.0
 20
0.0
 30
0.0
  0
POINT
  5
1B44
  8
DEFPOINTS
 62
     0
 10
385.78393421320482
 20
226.46407225169139
 30
0.0
  0
POINT
  5
1B45
  8
DEFPOINTS
 62
     0
 10
378.80591531609753
 20
218.46407225169131
 30
0.0
  0
POINT
  5
1B46
  8
DEFPOINTS
 62
     0
 10
397.73157571204121
 20
218.46407225169131
 30
0.0
  0
ENDBLK
  5
1B47
  8
0
  0
BLOCK
  8
0
  2
BIGT_6
 70
     0
 10
0.0
 20
0.0
 30
0.0
  3
BIGT_6
  1

  0
LINE
  5
1B4A
  8
0
  6
CONTINUOUS
 62
     0
 10
-1.3856423377990721
 20
-0.7999995708465577
 30
0.0
 11
0.0000022183206966
 21
1.6000003814697259
 31
0.0
  0
LINE
  5
1B4B
  8
0
  6
CONTINUOUS
 62
     0
 10
1.3856406211853021
 20
-0.7999995708465577
 30
0.0
 11
0.0000022183206966
 21
1.6000003814697259
 31
0.0
  0
LINE
  5
1B4C
  8
0
  6
CONTINUOUS
 62
     0
 10
-1.3856423377990721
 20
-0.7999995708465577
 30
0.0
 11
1.3856406211853021
 21
-0.7999995708465577
 31
0.0
  0
TEXT
  5
1B4D
  8
0
  6
CONTINUOUS
 62
     0
 10
-0.6115177539083074
 20
-0.6719995439608648
 30
0.0
 40
1.3439999389648429
  1
６
 41
1.05
  7
YOKO
 72
     1
 11
0.0000022183206966
 21
0.0000004255215572
 31
0.0
 73
     2
  0
ENDBLK
  5
1B4E
  8
0
  0
BLOCK
  8
0
  2
*D20
 70
     1
 10
0.0
 20
0.0
 30
0.0
  3
*D20
  1

  0
LINE
  5
1D19
  8
241
 10
381.15388659704422
 20
10.84932472372863
 30
0.0
 11
389.63251653497377
 21
7.7633557989639712
 31
0.0
  0
LINE
  5
1D1A
  8
241
 10
370.25000000000011
 20
14.999999999999879
 30
0.0
 11
390.9085321574039
 21
14.99999999999981
 31
0.0
  0
ARC
  5
1D1B
  8
241
 10
369.75000000000011
 20
14.999999999999879
 30
0.0
 40
20.158532157403869
 50
346.34147497613469
 51
353.65852502386559
  0
SOLID
  5
1D1C
  8
241
 10
389.69420388521849
 20
10.13226376965701
 30
0.0
 11
388.98270621304363
 21
10.34747414797137
 31
0.0
 12
388.69282391418801
 22
8.1053759422896547
 32
0.0
 13
388.69282391418801
 23
8.1053759422896547
 33
0.0
  0
SOLID
  5
1D1D
  8
241
 10
389.41408966487762
 20
12.793971275641169
 30
0.0
 11
390.15628506156293
 21
12.752856344246609
 31
0.0
 12
389.90853215740401
 22
14.999999999999829
 32
0.0
 13
389.90853215740401
 23
14.999999999999829
 33
0.0
  0
INSERT
  5
1D1E
  8
241
  2
*U39
 10
0.0
 20
0.0
 30
0.0
  0
POINT
  5
1D1F
  8
DEFPOINTS
 62
     0
 10
389.3651563141803
 20
10.3511225536308
 30
0.0
  0
POINT
  5
1D20
  8
DEFPOINTS
 62
     0
 10
330.25000000000011
 20
14.999999999999989
 30
0.0
  0
POINT
  5
1D21
  8
DEFPOINTS
 62
     0
 10
369.75000000000011
 20
14.999999999999879
 30
0.0
  0
POINT
  5
1D22
  8
DEFPOINTS
 62
     0
 10
380.68404028665122
 20
11.020334795391451
 30
0.0
  0
POINT
  5
1D23
  8
DEFPOINTS
 62
     0
 10
369.75000000000011
 20
14.999999999999879
 30
0.0
  0
ENDBLK
  5
1CDA
  8
0
  0
BLOCK
  8
0
  2
*D21
 70
     1
 10
0.0
 20
0.0
 30
0.0
  3
*D21
  1

  0
LINE
  5
1D24
  8
241
 62
     3
 10
381.40388659704428
 20
-24.253253726181221
 30
0.0
 11
388.56830344723119
 21
-26.860888205524571
 31
0.0
  0
LINE
  5
1D25
  8
241
 62
     3
 10
387.54851780470062
 20
-13.499999999999771
 30
0.0
 11
390.9241885240948
 21
-13.499999999999771
 31
0.0
  0
ARC
  5
1D26
  8
241
 62
     3
 10
351.85956479869532
 20
-13.499999999999771
 30
0.0
 40
38.06462372539945
 50
343.01079409716363
 51
356.98920590283581
  0
INSERT
  5
1D27
  8
241
 62
     3
  2
_OPEN
 10
387.62861082644531
 20
-26.518868062198891
 30
0.0
 41
2.0
 42
2.0
 43
2.0
 50
251.50539704858161
  0
INSERT
  5
1D28
  8
241
 62
     3
  2
_OPEN
 10
389.9241885240948
 20
-13.49999999999978
 30
0.0
 41
2.0
 42
2.0
 43
2.0
 50
88.494602951417875
  0
INSERT
  5
1D29
  8
241
  2
*U40
 10
0.0
 20
0.0
 30
0.0
  0
POINT
  5
1D2A
  8
DEFPOINTS
 62
     0
 10
388.8981516652463
 20
-22.278306344916349
 30
0.0
  0
POINT
  5
1D2B
  8
DEFPOINTS
 62
     0
 10
372.5138388533947
 20
-21.017540966287239
 30
0.0
  0
POINT
  5
1D2C
  8
DEFPOINTS
 62
     0
 10
387.04851780470068
 20
-13.499999999999771
 30
0.0
  0
POINT
  5
1D2D
  8
DEFPOINTS
 62
     0
 10
340.1414947539883
 20
-13.499999999999771
 30
0.0
  0
POINT
  5
1D2E
  8
DEFPOINTS
 62
     0
 10
380.9340402866514
 20
-24.082243654518379
 30
0.0
  0
ENDBLK
  5
1CF3
  8
0
  0
BLOCK
  8
0
  2
*D22
 70
     1
 10
0.0
 20
0.0
 30
0.0
  3
*D22
  1

  0
LINE
  5
1D2F
  8
241
 62
     3
 10
387.54851780470062
 20
-13.49999999999976
 30
0.0
 11
390.93393995430091
 21
-13.49999999999976
 31
0.0
  0
LINE
  5
1D30
  8
241
 62
     3
 10
381.15388659704428
 20
-2.8377388323855821
 30
0.0
 11
388.57746679423838
 21
-0.1357766089191017
 31
0.0
  0
ARC
  5
1D31
  8
241
 62
     3
 10
351.85956479869412
 20
-13.49999999999976
 30
0.0
 40
38.074375155606873
 50
3.0100228092944801
 51
16.989977190704071
  0
INSERT
  5
1D32
  8
241
 62
     3
  2
_OPEN
 10
389.93393995430091
 20
-13.49999999999976
 30
0.0
 41
2.0
 42
2.0
 43
2.0
 50
271.50501140464729
  0
INSERT
  5
1D33
  8
241
 62
     3
  2
_OPEN
 10
387.6377741734525
 20
-0.4777967522447569
 30
0.0
 41
2.0
 42
2.0
 43
2.0
 50
108.4949885953513
  0
INSERT
  5
1D34
  8
241
  2
*U41
 10
0.0
 20
0.0
 30
0.0
  0
POINT
  5
1D35
  8
DEFPOINTS
 62
     0
 10
389.67649465029967
 20
-9.0798348346884126
 30
0.0
  0
POINT
  5
1D36
  8
DEFPOINTS
 62
     0
 10
387.04851780470062
 20
-13.49999999999976
 30
0.0
  0
POINT
  5
1D37
  8
DEFPOINTS
 62
     0
 10
372.5138388533943
 20
-5.9824590337127708
 30
0.0
  0
POINT
  5
1D38
  8
DEFPOINTS
 62
     0
 10
380.68404028665128
 20
-3.008748904048403
 30
0.0
  0
POINT
  5
1D39
  8
DEFPOINTS
 62
     0
 10
340.14149475398841
 20
-13.499999999999771
 30
0.0
  0
ENDBLK
  5
1D01
  8
0
  0
BLOCK
  8
0
  2
*D23
 70
     1
 10
0.0
 20
0.0
 30
0.0
  3
*D23
  1

  0
LINE
  5
1D3A
  8
2
 62
     3
 10
350.0
 20
-69.722597708488479
 30
0.0
 11
350.0
 21
-82.170239207324855
 31
0.0
  0
LINE
  5
1D3B
  8
2
 62
     3
 10
341.99999999999989
 20
-62.744578811381182
 30
0.0
 11
341.99999999999989
 21
-82.170239207324855
 31
0.0
  0
LINE
  5
1D3C
  8
2
 62
     3
 10
348.0
 20
-81.170239207324869
 30
0.0
 11
343.99999999999989
 21
-81.170239207324869
 31
0.0
  0
INSERT
  5
1D3D
  8
2
 62
     3
  2
_OPEN
 10
350.0
 20
-81.170239207324869
 30
0.0
 41
2.0
 42
2.0
 43
2.0
  0
INSERT
  5
1D3E
  8
2
 62
     3
  2
_OPEN
 10
341.99999999999989
 20
-81.170239207324869
 30
0.0
 41
2.0
 42
2.0
 43
2.0
 50
180.0
  0
INSERT
  5
1D3F
  8
241
  2
*U42
 10
0.0
 20
0.0
 30
0.0
  0
POINT
  5
1D40
  8
DEFPOINTS
 62
     0
 10
350.0
 20
-69.222597708488479
 30
0.0
  0
POINT
  5
1D41
  8
DEFPOINTS
 62
     0
 10
341.99999999999989
 20
-62.244578811381189
 30
0.0
  0
POINT
  5
1D42
  8
DEFPOINTS
 62
     0
 10
341.99999999999989
 20
-81.170239207324869
 30
0.0
  0
ENDBLK
  5
1D0F
  8
0
  0
BLOCK
  8
0
  2
*D24
 70
     1
 10
0.0
 20
0.0
 30
0.0
  3
*D24
  1

  0
LINE
  5
1E4F
  8
AM_5
 10
0.0
 20
85.750002026559372
 30
0.0
 11
0.0000000000000006
 21
94.846345356800043
 31
0.0
  0
LINE
  5
1E50
  8
AM_5
 10
23.500000000000082
 20
86.250002026559343
 30
0.0
 11
23.500000000000082
 21
94.846345356800043
 31
0.0
  0
LINE
  5
1E51
  8
AM_5
 10
2.23
 20
93.846345356800043
 30
0.0
 11
21.270000000000088
 21
93.846345356800043
 31
0.0
  0
INSERT
  5
1E52
  8
AM_5
  2
_OPEN
 10
0.0000000000000005
 20
93.846345356800043
 30
0.0
 41
2.2299999999999991
 42
2.2299999999999991
 43
2.2299999999999991
 50
180.0
  0
INSERT
  5
1E53
  8
AM_5
  2
_OPEN
 10
23.500000000000082
 20
93.846345356800043
 30
0.0
 41
2.2299999999999991
 42
2.2299999999999991
 43
2.2299999999999991
  0
INSERT
  5
1E54
  8
241
  2
*U43
 10
0.0
 20
0.0
 30
0.0
  0
POINT
  5
1E55
  8
DEFPOINTS
 62
     0
 10
0.0
 20
85.250002026559358
 30
0.0
  0
POINT
  5
1E56
  8
DEFPOINTS
 62
     0
 10
23.500000000000082
 20
85.750002026559329
 30
0.0
  0
POINT
  5
1E57
  8
DEFPOINTS
 62
     0
 10
23.500000000000082
 20
93.846345356800043
 30
0.0
  0
ENDBLK
  5
1D51
  8
0
  0
BLOCK
  8
0
  2
*U26
 70
     1
 10
0.0
 20
0.0
 30
0.0
  3
*U26
  1

  0
TEXT
  5
1F6C
  8
AM_5
 62
    40
 10
20.333333378036489
 20
-24.668842256370681
 30
0.0
 40
2.7999999999999989
  1
46
  0
ENDBLK
  5
1F6E
  8
0
  0
BLOCK
  8
0
  2
*U27
 70
     1
 10
0.0
 20
0.0
 30
0.0
  3
*U27
  1

  0
TEXT
  5
1F70
  8
AM_5
 62
    40
 10
139.20833333333329
 20
-33.83556329407179
 30
0.0
 40
2.7999999999999989
  1
46
  0
ENDBLK
  5
1F72
  8
0
  0
BLOCK
  8
0
  2
*U28
 70
     1
 10
0.0
 20
0.0
 30
0.0
  3
*U28
  1

  0
TEXT
  5
1F74
  8
AM_5
 62
    40
 10
125.9583333333333
 20
86.06596487431348
 30
0.0
 40
2.7999999999999989
  1
23.5
  0
ENDBLK
  5
1F76
  8
0
  0
BLOCK
  8
0
  2
*U29
 70
     1
 10
0.0
 20
0.0
 30
0.0
  3
*U29
  1

  0
TEXT
  5
1F78
  8
AM_5
 62
    40
 10
7.3333331098159134
 20
91.505634187396893
 30
0.0
 40
2.7999999999999989
  1
20
  0
ENDBLK
  5
1F7A
  8
0
  0
BLOCK
  8
0
  2
*U30
 70
     1
 10
0.0
 20
0.0
 30
0.0
  3
*U30
  1

  0
TEXT
  5
1F7C
  8
AM_5
 62
    40
 10
66.184370889272245
 20
72.425000780448201
 30
0.0
 40
2.7999999999999989
  1
15.25
 50
90.0
  0
ENDBLK
  5
1F7E
  8
0
  0
BLOCK
  8
0
  2
*U31
 70
     1
 10
0.0
 20
0.0
 30
0.0
  3
*U31
  1

  0
TEXT
  5
1F80
  8
AM_5
 62
    40
 10
181.3390544488482
 20
57.299999999999891
 30
0.0
 40
2.7999999999999989
  1
15.25
 50
90.0
  0
ENDBLK
  5
1F82
  8
0
  0
BLOCK
  8
0
  2
*U32
 70
     1
 10
0.0
 20
0.0
 30
0.0
  3
*U32
  1

  0
TEXT
  5
1F84
  8
241
 62
    40
 10
302.08409224631771
 20
267.60683293119502
 30
0.0
 40
2.7999999999999989
  1
20\U+00B0
 50
350.00000000000023
  7
YOKO
  0
ENDBLK
  5
1F86
  8
0
  0
BLOCK
  8
0
  2
*U33
 70
     1
 10
0.0
 20
0.0
 30
0.0
  3
*U33
  1

  0
TEXT
  5
1F88
  8
241
 62
    40
 10
333.69345241623722
 20
267.35045553219891
 30
0.0
 40
2.7999999999999989
  1
20\U+00B0
 50
349.99999999999977
  7
YOKO
  0
ENDBLK
  5
1F8A
  8
0
  0
BLOCK
  8
0
  2
*U34
 70
     1
 10
0.0
 20
0.0
 30
0.0
  3
*U34
  1

  0
TEXT
  5
1F8C
  8
241
 62
    40
 10
320.12475765583252
 20
266.24871047920072
 30
0.0
 40
2.7999999999999989
  1
20\U+00B0
 50
9.9999999999992486
  7
YOKO
  0
ENDBLK
  5
1F8E
  8
0
  0
BLOCK
  8
0
  2
*U35
 70
     1
 10
0.0
 20
0.0
 30
0.0
  3
*U35
  1

  0
TEXT
  5
1F90
  8
2
 62
    40
 10
396.73157571204121
 20
221.13073891835811
 30
0.0
 40
2.7999999999999989
  1
8
 50
90.0
  7
YOKO
  0
ENDBLK
  5
1F92
  8
0
  0
BLOCK
  8
0
  2
*U36
 70
     1
 10
0.0
 20
0.0
 30
0.0
  3
*U36
  1

  0
INSERT
  5
1F94
  8
0
  2
_OPEN
 10
-3.724624392664452
 20
-33.934065707964038
 30
0.0
 41
2.0
 42
2.0
 43
2.0
 50
134.24594846810169
  0
POLYLINE
  5
1F95
  8
0
 66
     1
 10
0.0
 20
0.0
 30
0.0
  0
VERTEX
  5
1F96
  8
0
 10
-2.3291447795747482
 20
-35.366768276346953
 30
0.0
  0
VERTEX
  5
1F97
  8
0
 10
5.8097931034556041
 20
-43.722803792415107
 30
0.0
  0
VERTEX
  5
1F98
  8
0
 10
10.809793103455601
 20
-43.722803792415107
 30
0.0
  0
SEQEND
  5
1F99
  8
0
  0
ENDBLK
  5
1F9B
  8
0
  0
BLOCK
  8
0
  2
*U37
 70
     1
 10
0.0
 20
0.0
 30
0.0
  3
*U37
  1

  0
TEXT
  5
1F9D
  8
251
 62
    40
 10
6.7523945934932259
 20
-42.7228037924151
 30
0.0
 40
2.7999999999999989
  1
C
  7
YOKO
  0
ENDBLK
  5
1F9F
  8
0
  0
BLOCK
  8
0
  2
*U38
 70
     1
 10
0.0
 20
0.0
 30
0.0
  3
*U38
  1

  0
TEXT
  5
1FA1
  8
251
 62
    40
 10
328.75239459349319
 20
13.27719620758489
 30
0.0
 40
2.7999999999999989
  1
C
  7
YOKO
  0
ENDBLK
  5
1FA3
  8
0
  0
BLOCK
  8
0
  2
*U39
 70
     1
 10
0.0
 20
0.0
 30
0.0
  3
*U39
  1

  0
TEXT
  5
1FA5
  8
241
 62
    40
 10
388.06179683641091
 20
8.5217709944544122
 30
0.0
 40
2.799999999999998
  1
20\U+00B0
 50
80.000000000000114
  7
YOKO
  0
ENDBLK
  5
1FA7
  8
0
  0
BLOCK
  8
0
  2
*U40
 70
     1
 10
0.0
 20
0.0
 30
0.0
  3
*U40
  1

  0
TEXT
  5
1FA9
  8
241
 62
    40
 10
387.80541943741468
 20
-23.087589175465101
 30
0.0
 40
2.7999999999999989
  1
20\U+00B0
 50
79.999999999999758
  7
YOKO
  0
ENDBLK
  5
1FAB
  8
0
  0
BLOCK
  8
0
  2
*U41
 70
     1
 10
0.0
 20
0.0
 30
0.0
  3
*U41
  1

  0
TEXT
  5
1FAD
  8
241
 62
    40
 10
389.78463822750922
 20
-3.5634211511160729
 30
0.0
 40
2.7999999999999989
  1
20\U+00B0
 50
279.99999999999932
  7
YOKO
  0
ENDBLK
  5
1FAF
  8
0
  0
BLOCK
  8
0
  2
*U42
 70
     1
 10
0.0
 20
0.0
 30
0.0
  3
*U42
  1

  0
TEXT
  5
1FB1
  8
2
 62
    40
 10
344.66666666666657
 20
-80.170239207324855
 30
0.0
 40
2.7999999999999989
  1
8
  7
YOKO
  0
ENDBLK
  5
1FB3
  8
0
  0
BLOCK
  8
0
  2
*U43
 70
     1
 10
0.0
 20
0.0
 30
0.0
  3
*U43
  1

  0
TEXT
  5
1FB8
  8
AM_5
 62
    40
 10
7.0833333333333783
 20
94.846345356800057
 30
0.0
 40
2.7999999999999989
  1
23.5
  0
ENDBLK
  5
1FBA
  8
0
  0
ENDSEC
  0
SECTION
  2
ENTITIES
  0
LINE
  5
1393
  8
246
  6
PHANTOM2
 10
-1.0000020265574661
 20
17.499999999999879
 30
0.0
 11
-43.000001693144043
 21
17.499999999999879
 31
0.0
  0
LINE
  5
1395
  8
246
  6
PHANTOM2
 10
-45.00000178813886
 20
42.500001192092647
 30
0.0
 11
-45.00000178813886
 21
19.5000040531155
 31
0.0
  0
LINE
  5
1397
  8
246
  6
PHANTOM2
 10
-43.000001693144043
 20
17.499999999999879
 30
0.0
 11
-45.00000178813886
 21
19.5000040531155
 31
0.0
  0
LINE
  5
1399
  8
246
  6
PHANTOM2
 10
0.0
 20
18.50000202655934
 30
0.0
 11
-1.0000020265574661
 21
17.499999999999879
 31
0.0
  0
LINE
  5
13D5
  8
246
  6
PHANTOM2
 10
-1.0000020265574661
 20
-0.0000000000001137
 30
0.0
 11
-43.000001693144043
 21
-0.0000000000001137
 31
0.0
  0
LINE
  5
13E3
  8
246
  6
PHANTOM2
 10
-45.00000178813886
 20
8.2686580664732254
 30
0.0
 11
-45.00000178813886
 21
2.0000040531155032
 31
0.0
  0
LINE
  5
13E4
  8
246
  6
PHANTOM2
 10
-43.000001693144043
 20
-0.0000000000001137
 30
0.0
 11
-45.00000178813886
 21
2.0000040531155032
 31
0.0
  0
LINE
  5
13E5
  8
246
  6
PHANTOM2
 10
0.0
 20
1.000002026559343
 30
0.0
 11
-1.0000020265574661
 21
-0.0000000000001137
 31
0.0
  0
TEXT
  5
13FB
  8
241
  6
CONTINUOUS
 10
-41.999999952499621
 20
105.0000010989604
 30
0.0
 40
4.0
  1
BWN200FB-AL
  7
YOKO
  0
TEXT
  5
13FC
  8
241
  6
CONTINUOUS
 10
-43.957067649088707
 20
98.065946941846946
 30
0.0
 40
4.0
  1
(+35/\U+03C6 adjustment of boring diameter)
  7
YOKO
  0
LINE
  5
1C1D
  8
240
 10
1.0
 20
86.250002026559386
 30
0.0
 11
23.000000000000171
 21
86.250002026559244
 31
0.0
  0
LINE
  5
1C1E
  8
240
 10
23.500000000000082
 20
85.750002026559329
 30
0.0
 11
23.500000000000028
 21
71.000002026559343
 31
0.0
  0
LINE
  5
1C1F
  8
240
 10
23.000000000000171
 20
86.250002026559244
 30
0.0
 11
23.500000000000082
 21
85.750002026559329
 31
0.0
1001
ASK_MEN_XD
1005
1C1D
1070
     1
1005
1C1E
1070
     1
1001
ASKLEADERCHILD
1000
LEADER
1005
0
1000
MYHANDLE
1005
1C1F
  0
LINE
  5
1C20
  8
240
 10
25.600000000000051
 20
71.000002026559343
 30
0.0
 11
45.499999999999822
 21
71.000002026559343
 31
0.0
  0
LINE
  5
1C21
  8
240
 10
45.999999999999822
 20
70.500002026558889
 30
0.0
 11
45.999999999999822
 21
0.5000020265593435
 31
0.0
  0
LINE
  5
1C23
  8
240
 10
45.499999999999822
 20
0.0000020265593434
 30
0.0
 11
45.999999999999822
 21
0.5000020265593435
 31
0.0
1001
ASK_MEN_XD
1005
1C3C
1070
     1
1005
1C21
1070
     1
  0
LINE
  5
1C24
  8
240
 10
45.499999999999822
 20
71.000002026559343
 30
0.0
 11
45.999999999999822
 21
70.500002026559343
 31
0.0
1001
ASK_MEN_XD
1005
1C20
1070
     1
1005
1C21
1070
     1
  0
LINE
  5
1C25
  8
240
 10
0.0
 20
1.000002026559343
 30
0.0
 11
0.0
 21
85.250002026559358
 31
0.0
  0
LINE
  5
1C26
  8
240
 10
1.0
 20
86.250002026559386
 30
0.0
 11
0.0
 21
85.250002026559358
 31
0.0
1001
ASK_MEN_XD
1005
1C1D
1070
     1
1005
1C25
1070
     1
  0
LINE
  5
1C29
  8
240
 10
25.600000000000051
 20
71.000002026559343
 30
0.0
 11
23.50000000000006
 21
71.000002026559287
 31
0.0
  0
LINE
  5
1C2A
  8
241
 10
8.8969999999999914
 20
71.000002026559343
 30
0.0
 11
8.8969999999999914
 21
85.750002026559329
 31
0.0
  0
LINE
  5
1C2B
  8
241
 10
8.3969999999999914
 20
86.250002026559386
 30
0.0
 11
8.8969999999999914
 21
85.750002026559329
 31
0.0
1001
ASKLEADERCHILD
1000
LEADER
1005
0
1000
MYHANDLE
1005
1C2B
  0
LINE
  5
1C3C
  8
240
 10
45.499999999999822
 20
0.0000020265593434
 30
0.0
 11
1.0
 21
0.0000020265593434
 31
0.0
  0
LINE
  5
1C3D
  8
240
 10
0.0
 20
1.000002026559343
 30
0.0
 11
1.0
 21
0.0000020265593434
 31
0.0
1001
ASK_MEN_XD
1005
1C25
1070
     1
1005
1C3C
1070
     1
  0
INSERT
  5
1C77
  8
241
  2
*U38
 10
0.0
 20
0.0
 30
0.0
  0
LINE
  5
1CAC
  8
241
 10
23.500000000000028
 20
71.000002026559287
 30
0.0
 11
8.8969999999999914
 21
71.000002026559343
 31
0.0
  0
LINE
  5
1CD3
  8
241
 10
8.8969999999999914
 20
71.000002026559343
 30
0.0
 11
8.7499999999999432
 21
71.000002026559343
 31
0.0
  0
LINE
  5
1D7C
  8
241
 10
23.500000000000028
 20
71.000002026559343
 30
0.0
 11
23.500000000000028
 21
5.0563015455840619
 31
0.0
  0
LINE
  5
1D7D
  8
241
 10
23.500000000000028
 20
66.838351704817597
 30
0.0
 11
45.999999999999822
 21
66.838351704817597
 31
0.0
  0
LINE
  5
1D7E
  8
241
 10
23.50000000000006
 20
64.958966463245758
 30
0.0
 11
45.999999999999822
 21
64.958966463245758
 31
0.0
  0
LINE
  5
1D7F
  8
241
 10
23.500000000000028
 20
55.05262348121601
 30
0.0
 11
45.999999999999822
 21
55.05262348121601
 31
0.0
  0
LINE
  5
1D80
  8
241
 10
23.500000000000028
 20
53.173238239644178
 30
0.0
 11
45.999999999999822
 21
53.173238239644178
 31
0.0
  0
LINE
  5
1D81
  8
241
 10
23.50000000000006
 20
31.82676581347442
 30
0.0
 11
45.999999999999822
 21
31.82676581347442
 31
0.0
  0
LINE
  5
1D82
  8
241
 10
23.500000000000028
 20
29.94738057190267
 30
0.0
 11
45.999999999999822
 21
29.94738057190267
 31
0.0
  0
LINE
  5
1D83
  8
241
 10
23.500000000000028
 20
8.7145617639461648
 30
0.0
 11
45.999999999999822
 21
8.7145617639461648
 31
0.0
  0
LINE
  5
1D84
  8
241
 10
23.500000000000028
 20
5.0563015455840619
 30
0.0
 11
45.999999999999822
 21
5.0563015455840619
 31
0.0
  0
LINE
  5
1D88
  8
241
 10
0.0
 20
5.4766975865622101
 30
0.0
 11
23.500000000000028
 21
5.4766975865622101
 31
0.0
  0
LINE
  5
1D89
  8
241
 10
1.0
 20
0.0000020265593434
 30
0.0
 11
1.0
 21
5.4766975865622021
 31
0.0
  0
VIEWPORT
  5
22
 67
     1
  8
0
 10
261.51769911504419
 20
148.5
 30
0.0
 40
523.0353982300885
 41
297.0
 68
     1
 69
     1
1001
ACAD
1000
MVIEW
1002
{
1070
    16
1010
0.0
1020
0.0
1030
0.0
1010
0.0
1020
0.0
1030
1.0
1040
0.0
1040
297.0
1040
261.51769911504419
1040
148.5
1040
50.0
1040
0.0
1040
0.0
1070
     0
1070
   100
1070
     1
1070
     1
1070
     0
1070
     0
1070
     0
1070
     0
1040
0.0
1040
0.0
1040
0.0
1040
1.0
1040
1.0
1040
10.0
1040
10.0
1070
     0
1002
{
1002
}
1002
}
1001
GENIUS_GENODEF_13
1002
{
1000
HIER
1070
     0
1002
}
1002
{
1000
MANEDIT
1070
     0
1002
}
1002
{
1000
NOSEL
1070
     0
1002
}
1002
{
1000
BEHIND
1070
     0
1002
}
1002
{
1000
OTHER
1070
     0
1002
}
1002
{
1000
REACTOR
1002
}
1001
GENIUS_GENOBJ-N-SDF_13
1002
{
1000
OWNER
1000
GEN
1002
}
1001
GENIUS_GENSCREG_15
1000
PF
1040
1.0
1000
DF
1040
1.0
1000
MIN
1011
0.0
1021
0.0
1031
0.0
1021
0.0
1031
0.0
1000
MAX
1011
523.0353982300885
1021
0.0
1031
0.0
1021
297.0
1031
0.0
1000
FLAGS
1070
     4
  0
ENDSEC
  0
EOF
