  0
SECTION
  2
HEADER
  9
$ACADVER
  1
AC1009
  9
$INSBASE
 10
0.0
 20
0.0
 30
0.0
  9
$EXTMIN
 10
-62.047619047619051
 20
-43.0
 30
0.0
  9
$EXTMAX
 10
71.0
 20
61.0
 30
0.0
  9
$LIMMIN
 10
0.0
 20
0.0
  9
$LIMMAX
 10
297.0
 20
210.0
  9
$ORTHOMODE
 70
     0
  9
$REGENMODE
 70
     1
  9
$FILLMODE
 70
     1
  9
$QTEXTMODE
 70
     0
  9
$MIRRTEXT
 70
     1
  9
$DRAGMODE
 70
     2
  9
$LTSCALE
 40
10.0
  9
$OSMODE
 70
   639
  9
$ATTMODE
 70
     1
  9
$TEXTSIZE
 40
3.0
  9
$TRACEWID
 40
1.0
  9
$TEXTSTYLE
  7
YOKO
  9
$CLAYER
  8
240
  9
$CELTYPE
  6
BYLAYER
  9
$CECOLOR
 62
   256
  9
$DIMSCALE
 40
1.0
  9
$DIMASZ
 40
2.2299999999999991
  9
$DIMEXO
 40
0.5
  9
$DIMDLI
 40
2.5
  9
$DIMRND
 40
0.0
  9
$DIMDLE
 40
0.0
  9
$DIMEXE
 40
1.0
  9
$DIMTP
 40
0.0
  9
$DIMTM
 40
0.0
  9
$DIMTXT
 40
3.0
  9
$DIMCEN
 40
0.0
  9
$DIMTSZ
 40
0.0
  9
$DIMTOL
 70
     0
  9
$DIMLIM
 70
     0
  9
$DIMTIH
 70
     0
  9
$DIMTOH
 70
     0
  9
$DIMSE1
 70
     0
  9
$DIMSE2
 70
     0
  9
$DIMTAD
 70
     3
  9
$DIMZIN
 70
     8
  9
$DIMBLK
  1
OPEN
  9
$DIMASO
 70
     1
  9
$DIMSHO
 70
     1
  9
$DIMPOST
  1

  9
$DIMAPOST
  1

  9
$DIMALT
 70
     0
  9
$DIMALTD
 70
     2
  9
$DIMALTF
 40
25.399999999999999
  9
$DIMLFAC
 40
1.0
  9
$DIMTOFL
 70
     1
  9
$DIMTVP
 40
0.0
  9
$DIMTIX
 70
     0
  9
$DIMSOXD
 70
     0
  9
$DIMSAH
 70
     0
  9
$DIMBLK1
  1

  9
$DIMBLK2
  1

  9
$DIMSTYLE
  2
BIGT
  9
$DIMCLRD
 70
   256
  9
$DIMCLRE
 70
   256
  9
$DIMCLRT
 70
    40
  9
$DIMTFAC
 40
1.0
  9
$DIMGAP
 40
1.0
  9
$LUNITS
 70
     2
  9
$LUPREC
 70
     2
  9
$SKETCHINC
 40
1.0
  9
$FILLETRAD
 40
3.0
  9
$AUNITS
 70
     0
  9
$AUPREC
 70
     3
  9
$MENU
  1
.
  9
$ELEVATION
 40
0.0
  9
$PELEVATION
 40
0.0
  9
$THICKNESS
 40
0.0
  9
$LIMCHECK
 70
     0
  9
$BLIPMODE
 70
     0
  9
$CHAMFERA
 40
10.0
  9
$CHAMFERB
 40
10.0
  9
$SKPOLY
 70
     0
  9
$TDCREATE
 40
2452171.6041697338
  9
$TDUPDATE
 40
2453573.426569364
  9
$TDINDWG
 40
0.0976195486
  9
$TDUSRTIMER
 40
0.097619375
  9
$USRTIMER
 70
     1
  9
$ANGBASE
 50
0.0
  9
$ANGDIR
 70
     0
  9
$PDMODE
 70
    35
  9
$PDSIZE
 40
-5.0
  9
$PLINEWID
 40
0.0
  9
$COORDS
 70
     0
  9
$SPLFRAME
 70
     0
  9
$SPLINETYPE
 70
     6
  9
$SPLINESEGS
 70
     8
  9
$ATTDIA
 70
     1
  9
$ATTREQ
 70
     1
  9
$HANDLING
 70
     1
  9
$HANDSEED
  5
1687
  9
$SURFTAB1
 70
     6
  9
$SURFTAB2
 70
     6
  9
$SURFTYPE
 70
     6
  9
$SURFU
 70
     6
  9
$SURFV
 70
     6
  9
$UCSNAME
  2

  9
$UCSORG
 10
0.0
 20
0.0
 30
0.0
  9
$UCSXDIR
 10
1.0
 20
0.0
 30
0.0
  9
$UCSYDIR
 10
0.0
 20
1.0
 30
0.0
  9
$PUCSNAME
  2

  9
$PUCSORG
 10
0.0
 20
0.0
 30
0.0
  9
$PUCSXDIR
 10
1.0
 20
0.0
 30
0.0
  9
$PUCSYDIR
 10
0.0
 20
1.0
 30
0.0
  9
$USERI1
 70
     1
  9
$USERI2
 70
     0
  9
$USERI3
 70
     0
  9
$USERI4
 70
     0
  9
$USERI5
 70
     0
  9
$USERR1
 40
0.0
  9
$USERR2
 40
0.0
  9
$USERR3
 40
0.0
  9
$USERR4
 40
0.0
  9
$USERR5
 40
0.0
  9
$WORLDVIEW
 70
     1
  9
$SHADEDGE
 70
     3
  9
$SHADEDIF
 70
    70
  9
$TILEMODE
 70
     1
  9
$MAXACTVP
 70
    16
  9
$PLIMCHECK
 70
     0
  9
$PEXTMIN
 10
1.0000000000000000E+020
 20
1.0000000000000000E+020
 30
1.0000000000000000E+020
  9
$PEXTMAX
 10
-1.0000000000000000E+020
 20
-1.0000000000000000E+020
 30
-1.0000000000000000E+020
  9
$PLIMMIN
 10
0.0
 20
0.0
  9
$PLIMMAX
 10
420.0
 20
297.0
  9
$UNITMODE
 70
     0
  9
$VISRETAIN
 70
     0
  9
$PLINEGEN
 70
     0
  9
$PSLTSCALE
 70
     1
  0
ENDSEC
  0
SECTION
  2
TABLES
  0
TABLE
  2
VPORT
 70
     3
  0
VPORT
  2
*ACTIVE
 70
     0
 10
0.0
 20
0.0
 11
1.0
 21
1.0
 12
4.4799181038010678
 22
9.0025105731358508
 13
0.0
 23
0.0
 14
7.0
 24
7.0
 15
7.0
 25
7.0
 16
0.0
 26
0.0
 36
1.0
 17
0.0
 27
0.0
 37
0.0
 40
104.6414732694118
 41
1.5029527559055109
 42
50.0
 43
0.0
 44
0.0
 50
0.0
 51
0.0
 71
     0
 72
  2000
 73
     1
 74
     0
 75
     0
 76
     0
 77
     0
 78
     0
  0
ENDTAB
  0
TABLE
  2
LTYPE
 70
    19
  0
LTYPE
  2
CONTINUOUS
 70
     0
  3
Solid line
 72
    65
 73
     0
 40
0.0
  0
LTYPE
  2
CENTER2
 70
     0
  3
___ _ ___ _ ___ _ ___ _ ___ _ ___ _ ___ _ ___ _
 72
    65
 73
     4
 40
1.125
 49
0.75
 49
-0.125
 49
0.125
 49
-0.125
  0
LTYPE
  2
HIDDEN2
 70
     0
  3
_ _ _ _ _ _ _ _ _ _ _ _ _ _ _ _ _ _ _ _ _ _ _ _
 72
    65
 73
     2
 40
0.1875
 49
0.125
 49
-0.0625
  0
LTYPE
  2
PHANTOM2
 70
     0
  3
___ _ _ ___ _ _ ___ _ _ ___ _ _ ___ _ _ ___ _ _
 72
    65
 73
     6
 40
1.25
 49
0.625
 49
-0.125
 49
0.125
 49
-0.125
 49
0.125
 49
-0.125
  0
LTYPE
  2
HIDDEN
 70
     0
  3
Hidden __ __ __ __ __ __ __ __ __ __ __ __ __ _
 72
    65
 73
     2
 40
9.5249999999999986
 49
6.3499999999999979
 49
-3.174999999999998
  0
LTYPE
  2
CENTER
 70
     0
  3
Center ____ _ ____ _ ____ _ ____ _ ____ _ ____
 72
    65
 73
     4
 40
50.799999999999997
 49
31.75
 49
-6.3499999999999979
 49
6.3499999999999979
 49
-6.3499999999999979
  0
LTYPE
  2
AMCONSTR
 70
     0
  3
_______________________
 72
    65
 73
     2
 40
9999.0
 49
9999.0
 49
0.0
  0
LTYPE
  2
AMZIGZAG2
 70
     0
  3
/\/-/\/-/\/-/\/-/\/-/\/
 72
    65
 73
     2
 40
0.4401
 49
0.0001
 49
-0.4400000000000001
  0
LTYPE
  2
ACANSTGB
 70
     0
  3
__ . . __ . .
 72
    65
 73
     6
 40
0.35433070866
 49
0.15748031496
 49
-0.03937007874
 49
0.03937007874
 49
-0.03937007874
 49
0.03937007874
 49
-0.03937007874
  0
LTYPE
  2
ACANSTGL
 70
     0
  3
_ _ _ _ _
 72
    65
 73
     2
 40
0.11811023622
 49
0.07874015748
 49
-0.03937007874
  0
ENDTAB
  0
TABLE
  2
LAYER
 70
    10
  0
LAYER
  2
0
 70
     0
 62
     7
  6
CONTINUOUS
  0
LAYER
  2
240
 70
     0
 62
     4
  6
CONTINUOUS
  0
LAYER
  2
241
 70
     0
 62
   211
  6
CONTINUOUS
  0
LAYER
  2
242
 70
     0
 62
     3
  6
CONTINUOUS
  0
LAYER
  2
243
 70
     0
 62
   211
  6
HIDDEN2
  0
LAYER
  2
245
 70
     0
 62
     2
  6
CENTER2
  0
LAYER
  2
246
 70
     0
 62
     3
  6
PHANTOM2
  0
LAYER
  2
247
 70
     0
 62
    60
  6
CONTINUOUS
  0
LAYER
  2
250
 70
     0
 62
     3
  6
CONTINUOUS
  0
LAYER
  2
DEFPOINTS
 70
     0
 62
     7
  6
CONTINUOUS
  0
ENDTAB
  0
TABLE
  2
STYLE
 70
     7
  0
STYLE
  2
STANDARD
 70
     0
 40
0.0
 41
1.0
 50
0.0
 71
     0
 42
3.0
  3
romans.shx
  4
BIGFONT.SHX
  0
STYLE
  2
YOKO
 70
     0
 40
0.0
 41
1.0
 50
0.0
 71
     0
 42
3.0
  3
romans.shx
  4
extfont.shx
  0
STYLE
  2

 70
     1
 40
0.0
 41
1.0
 50
0.0
 71
     0
 42
3.0
  3
ltypeshp.shx
  4

  0
STYLE
  2
ACANSTS
 70
     0
 40
1.0
 41
1.0
 50
0.0
 71
     0
 42
3.0
  3
romans.shx
  4
extfont.shx
  0
STYLE
  2
ACANSGDT
 70
     0
 40
0.0
 41
1.0
 50
0.0
 71
     0
 42
3.0
  3
amgdtans.shx
  4

  0
ENDTAB
  0
TABLE
  2
VIEW
 70
     0
  0
ENDTAB
  0
TABLE
  2
UCS
 70
     0
  0
ENDTAB
  0
TABLE
  2
APPID
 70
    19
  0
APPID
  2
ACAD
 70
     0
  0
APPID
  2
GLOBAL
 70
     0
  0
APPID
  2
DETAIL
 70
     0
  0
APPID
  2
GRPNAME
 70
     0
  0
APPID
  2
GPARA
 70
     0
  0
APPID
  2
ITEMNAME
 70
     0
  0
APPID
  2
HATCH_TYPE
 70
     0
  0
APPID
  2
HATCH_DISPLAY
 70
     0
  0
APPID
  2
HATCH_DISTANCE
 70
     0
  0
APPID
  2
MCAD_NO_VIS
 70
     0
  0
APPID
  2
ACAD_TEMP_GRAPHIC
 70
     0
  0
APPID
  2
AD_DRAW
 70
     0
  0
APPID
  2
ACATTRIBSERVICES
 70
     0
  0
APPID
  2
DESIGNERASSEMBLIES
 70
     0
  0
APPID
  2
ACADM_DIM_EDIT
 70
     0
  0
APPID
  2
AMDT_DM_ADJ
 70
     0
  0
APPID
  2
GENIUS_GENSCREG_15
 70
     0
  0
APPID
  2
GENIUS_GENODEF_13
 70
     0
  0
APPID
  2
GENIUS_GENOBJ-N-SDF_13
 70
     0
  0
ENDTAB
  0
TABLE
  2
DIMSTYLE
 70
    14
  0
DIMSTYLE
  2
BIGT
 70
     0
  3

  4

  5

  6

  7

 40
1.0
 41
2.2299999999999991
 42
0.5
 43
2.5
 44
1.0
 45
0.0
 46
0.0
 47
0.0
 48
0.0
140
3.5
141
0.0
142
0.0
143
25.399999999999999
144
1.0
145
0.0
146
1.0
147
1.0
 71
     0
 72
     0
 73
     0
 74
     0
 75
     0
 76
     0
 77
     3
 78
     9
170
     0
171
     2
172
     1
173
     0
174
     0
175
     0
176
   256
177
   256
178
    40
  0
DIMSTYLE
  2
AM_ANSI
 70
     0
  3

  4
mm
  5

  6

  7

 40
1.0
 41
0.1
 42
0.05
 43
0.5
 44
0.1
 45
0.0
 46
0.0
 47
0.1
 48
0.1
140
0.12
141
0.0
142
0.0
143
25.399999999999999
144
1.0
145
0.0
146
0.71
147
0.06
 71
     0
 72
     0
 73
     1
 74
     1
 75
     0
 76
     0
 77
     0
 78
     7
170
     0
171
     2
172
     0
173
     0
174
     0
175
     0
176
   256
177
   256
178
     2
  0
DIMSTYLE
  2
AM_ANSI$3
 70
     0
  3

  4
mm
  5

  6

  7

 40
1.0
 41
0.1
 42
0.05
 43
0.5
 44
0.1
 45
0.0
 46
0.0
 47
0.1
 48
0.1
140
0.12
141
0.0
142
0.0
143
25.399999999999999
144
1.0
145
0.0
146
0.71
147
0.06
 71
     0
 72
     0
 73
     1
 74
     1
 75
     0
 76
     0
 77
     0
 78
     7
170
     0
171
     2
172
     0
173
     0
174
     0
175
     0
176
   256
177
   256
178
     2
  0
DIMSTYLE
  2
AM_ANSI$4
 70
     0
  3

  4
mm
  5

  6

  7

 40
1.0
 41
0.1
 42
0.05
 43
0.5
 44
0.1
 45
0.0
 46
0.0
 47
0.1
 48
0.1
140
0.12
141
0.0
142
0.0
143
25.399999999999999
144
1.0
145
0.0
146
0.71
147
0.06
 71
     0
 72
     0
 73
     1
 74
     1
 75
     0
 76
     0
 77
     0
 78
     7
170
     0
171
     2
172
     0
173
     0
174
     0
175
     0
176
   256
177
   256
178
     2
  0
DIMSTYLE
  2
AM_ANSI$7
 70
     0
  3

  4
mm
  5

  6

  7

 40
1.0
 41
0.1
 42
0.05
 43
0.5
 44
0.1
 45
0.0
 46
0.0
 47
0.1
 48
0.1
140
0.24
141
0.0
142
0.0
143
25.399999999999999
144
1.0
145
0.0
146
0.71
147
0.06
 71
     0
 72
     0
 73
     1
 74
     1
 75
     0
 76
     0
 77
     0
 78
     7
170
     0
171
     2
172
     0
173
     0
174
     0
175
     0
176
   256
177
   256
178
     2
  0
DIMSTYLE
  2
AM_ANSI$SF
 70
     0
  3

  4
mm
  5

  6

  7

 40
1.0
 41
0.1
 42
0.05
 43
0.5
 44
0.1
 45
0.0
 46
0.0
 47
0.1
 48
0.1
140
0.12
141
0.0
142
0.0
143
25.399999999999999
144
1.0
145
0.0
146
0.71
147
0.06
 71
     0
 72
     0
 73
     1
 74
     1
 75
     1
 76
     1
 77
     0
 78
     7
170
     0
171
     2
172
     0
173
     0
174
     0
175
     0
176
   256
177
   256
178
     2
  0
DIMSTYLE
  2
AM_ANSI$SH
 70
     0
  3

  4
mm
  5

  6
GENAXEH
  7

 40
1.0
 41
0.1
 42
0.05
 43
0.5
 44
0.1
 45
0.0
 46
0.0
 47
0.1
 48
0.1
140
0.12
141
0.0
142
0.0
143
25.399999999999999
144
1.0
145
0.0
146
0.71
147
0.06
 71
     0
 72
     0
 73
     1
 74
     1
 75
     1
 76
     1
 77
     0
 78
     7
170
     0
171
     2
172
     0
173
     1
174
     0
175
     0
176
   256
177
   256
178
     2
  0
ENDTAB
  0
ENDSEC
  0
SECTION
  2
BLOCKS
  0
BLOCK
  8
0
  2
$MODEL_SPACE
 70
     0
 10
0.0
 20
0.0
 30
0.0
  3
$MODEL_SPACE
  1

  0
ENDBLK
  5
1574
  8
0
  0
BLOCK
 67
     1
  8
0
  2
$PAPER_SPACE
 70
     0
 10
0.0
 20
0.0
 30
0.0
  3
$PAPER_SPACE
  1

  0
ENDBLK
  5
1570
 67
     1
  8
0
  0
BLOCK
  8
0
  2
_OPEN
 70
     0
 10
0.0
 20
0.0
 30
0.0
  3
_OPEN
  1

  0
LINE
  5
595
  8
0
  6
BYBLOCK
 62
     0
 10
-1.0
 20
0.1666666666666666
 30
0.0
 11
0.0
 21
0.0
 31
0.0
  0
LINE
  5
596
  8
0
  6
BYBLOCK
 62
     0
 10
-1.0
 20
-0.1666666666666666
 30
0.0
 11
0.0
 21
0.0
 31
0.0
  0
LINE
  5
597
  8
0
  6
BYBLOCK
 62
     0
 10
0.0
 20
0.0
 30
0.0
 11
-1.0
 21
0.0
 31
0.0
  0
ENDBLK
  5
599
  8
0
  0
BLOCK
  8
0
  2
GENAXEH
 70
     0
 10
0.0
 20
0.0
 30
0.0
  3
GENAXEH
  1

  0
LINE
  5
11FD
  8
0
 10
-1.0
 20
0.0
 30
0.0
 11
1.0
 21
0.0
 31
0.0
  0
ENDBLK
  5
11FF
  8
0
  0
BLOCK
  8
0
  2
A$C1B486F61
 70
     0
 10
0.0
 20
0.0
 30
0.0
  3
A$C1B486F61
  1

  0
ARC
  5
138A
  8
240
 10
44.5
 20
11.59289321881344
 30
0.0
 40
0.5
 50
0.0
 51
45.0
  0
ARC
  5
138B
  8
240
 10
44.051471862575902
 20
11.900000000000199
 30
0.0
 40
0.5999999999999888
 50
45.0
 51
90.000000000003226
  0
LINE
  5
138C
  8
240
 10
44.85355339059327
 20
11.946446609406721
 30
0.0
 11
44.475735931287879
 21
12.32426406871212
 31
0.0
  0
LINE
  5
138D
  8
241
 10
41.0
 20
11.49709263010231
 30
0.0
 11
41.0
 21
9.9970926301023741
 31
0.0
  0
LINE
  5
138E
  8
246
 10
43.299999999999997
 20
6.25
 30
0.0
 11
43.399999999999977
 21
6.25
 31
0.0
  0
LINE
  5
138F
  8
246
 10
41.39999999999997
 20
5.25
 30
0.0
 11
43.299999999999997
 21
5.25
 31
0.0
  0
LINE
  5
1390
  8
241
 10
41.0
 20
-1.5
 30
0.0
 11
41.0
 21
0.0
 31
0.0
  0
LINE
  5
1391
  8
241
 10
41.0
 20
1.5
 30
0.0
 11
41.0
 21
0.0
 31
0.0
  0
LINE
  5
1392
  8
246
 10
41.39999999999997
 20
5.25
 30
0.0
 11
41.39999999999997
 21
6.25
 31
0.0
  0
LINE
  5
1393
  8
240
 10
45.0
 20
0.0
 30
0.0
 11
45.0
 21
11.59289321881344
 31
0.0
  0
LINE
  5
1394
  8
246
 10
45.0
 20
5.326239569296602
 30
0.0
 11
43.399999999999977
 21
6.25
 31
0.0
  0
LINE
  5
1395
  8
246
 10
43.299999999999997
 20
5.25
 30
0.0
 11
43.299999999999997
 21
6.25
 31
0.0
  0
LINE
  5
1396
  8
246
 10
41.39999999999997
 20
-5.25
 30
0.0
 11
41.39999999999997
 21
-6.25
 31
0.0
  0
LINE
  5
1397
  8
246
 10
43.299999999999997
 20
-5.25
 30
0.0
 11
43.299999999999997
 21
-6.25
 31
0.0
  0
LINE
  5
1398
  8
246
 10
43.299999999999997
 20
-6.25
 30
0.0
 11
43.399999999999977
 21
-6.25
 31
0.0
  0
LINE
  5
1399
  8
246
 10
41.39999999999997
 20
-5.25
 30
0.0
 11
43.299999999999997
 21
-5.25
 31
0.0
  0
LINE
  5
139A
  8
246
 10
45.0
 20
-5.326239569296602
 30
0.0
 11
43.399999999999977
 21
-6.25
 31
0.0
  0
ARC
  5
139B
  8
240
 10
44.05147186257603
 20
-11.900000000000141
 30
0.0
 40
0.5999999999999944
 50
269.9999999999967
 51
315.0
  0
LINE
  5
139C
  8
240
 10
44.475735931287879
 20
-12.324264068712059
 30
0.0
 11
44.85355339059327
 21
-11.946446609406721
 31
0.0
  0
ARC
  5
139D
  8
240
 10
44.5
 20
-11.59289321881344
 30
0.0
 40
0.500000000000004
 50
315.0
 51
0.0
  0
LINE
  5
139E
  8
241
 10
41.0
 20
-11.49709263010231
 30
0.0
 11
41.0
 21
-9.9970926301023741
 31
0.0
  0
LINE
  5
139F
  8
240
 10
45.0
 20
0.0
 30
0.0
 11
45.0
 21
-11.59289321881344
 31
0.0
  0
LINE
  5
13A0
  8
241
 10
44.051471862575958
 20
12.138126773888359
 30
0.0
 11
44.051471862575958
 21
-12.18543046357615
 31
0.0
  0
LINE
  5
13A1
  8
240
 10
17.763274656126828
 20
23.0
 30
0.0
 11
21.200000000000038
 21
23.0
 31
0.0
  0
LINE
  5
13A2
  8
240
 10
22.0
 20
15.25000000000005
 30
0.0
 11
22.0
 21
22.200000000000038
 31
0.0
  0
LINE
  5
13A3
  8
243
 10
19.0
 20
16.300000000000001
 30
0.0
 11
19.0
 21
23.0
 31
0.0
  0
ARC
  5
13A4
  8
240
 10
21.200000000000038
 20
22.200000000000038
 30
0.0
 40
0.799999999999983
 50
0.0
 51
90.0
  0
LINE
  5
13A5
  8
240
 10
9.4367253438731495
 20
23.0
 30
0.0
 11
9.6816373280634007
 21
22.85860000000002
 31
0.0
  0
LINE
  5
13A6
  8
240
 10
11.89999999999997
 20
19.0
 30
0.0
 11
15.30000000000001
 21
19.0
 31
0.0
  0
LINE
  5
13A7
  8
240
 10
15.30000000000001
 20
19.016283142591568
 30
0.0
 11
17.5
 21
22.82679491924312
 31
0.0
  0
LINE
  5
13A8
  8
240
 10
11.89999999999997
 20
19.016283142591519
 30
0.0
 11
9.6816373280634007
 21
22.85860000000002
 31
0.0
  0
LINE
  5
13A9
  8
240
 10
0.5
 20
15.94791838842974
 30
0.0
 11
2.0
 21
15.94791838842974
 31
0.0
  0
LINE
  5
13AA
  8
240
 10
2.0
 20
22.200000000000038
 30
0.0
 11
2.0
 21
15.94791838842974
 31
0.0
  0
ARC
  5
13AB
  8
240
 10
2.8000000000000109
 20
22.200000000000038
 30
0.0
 40
0.8000000000000112
 50
90.0
 51
180.0
  0
LINE
  5
13AC
  8
240
 10
2.8000000000000109
 20
23.0
 30
0.0
 11
9.4367253438731495
 21
23.0
 31
0.0
  0
LINE
  5
13AD
  8
243
 10
2.0
 20
16.300000000000001
 30
0.0
 11
19.0
 21
16.300000000000001
 31
0.0
  0
LINE
  5
13AE
  8
240
 10
17.518362671936579
 20
22.85860000000002
 30
0.0
 11
17.763274656126828
 21
23.0
 31
0.0
  0
ARC
  5
13AF
  8
240
 10
34.89999999999997
 20
11.89999999999997
 30
0.0
 40
0.5999999999999944
 50
90.0
 51
180.0
  0
LINE
  5
13B0
  8
240
 10
34.0
 20
9.5
 30
0.0
 11
34.0
 21
8.0
 31
0.0
  0
LINE
  5
13B1
  8
240
 10
34.0
 20
9.5
 30
0.0
 11
34.300000000000011
 21
9.8000000000000131
 31
0.0
  0
LINE
  5
13B2
  8
242
 10
31.5
 20
7.5
 30
0.0
 11
31.0
 21
8.0
 31
0.0
  0
LINE
  5
13B3
  8
240
 10
34.0
 20
8.0
 30
0.0
 11
30.5
 21
8.0
 31
0.0
  0
LINE
  5
13B4
  8
242
 10
34.0
 20
7.5
 30
0.0
 11
31.5
 21
7.5
 31
0.0
  0
LINE
  5
13B5
  8
240
 10
29.5
 20
11.25
 30
0.0
 11
29.5
 21
9.0
 31
0.0
  0
LINE
  5
13B6
  8
240
 10
34.300000000000011
 20
9.8000000000000131
 30
0.0
 11
34.300000000000011
 21
11.89999999999997
 31
0.0
  0
LINE
  5
13B7
  8
241
 10
29.5
 20
9.0
 30
0.0
 11
29.5
 21
0.0
 31
0.0
  0
LINE
  5
13B8
  8
241
 10
31.5
 20
7.5
 30
0.0
 11
31.5
 21
0.0
 31
0.0
  0
LINE
  5
13B9
  8
241
 10
34.300000000000011
 20
9.8000000000000131
 30
0.0
 11
34.300000000000011
 21
0.0
 31
0.0
  0
LINE
  5
13BA
  8
241
 10
34.0
 20
8.0
 30
0.0
 11
34.0
 21
0.0
 31
0.0
  0
LINE
  5
13BB
  8
240
 10
25.0
 20
12.25000000000005
 30
0.0
 11
28.5
 21
12.25
 31
0.0
  0
ARC
  5
13BC
  8
240
 10
30.5
 20
9.0
 30
0.0
 40
1.0
 50
180.0
 51
270.0
  0
ARC
  5
13BD
  8
240
 10
28.5
 20
11.25
 30
0.0
 40
1.0
 50
0.0
 51
90.0
  0
LINE
  5
13BE
  8
240
 10
34.0
 20
-9.5
 30
0.0
 11
34.0
 21
-8.0
 31
0.0
  0
LINE
  5
13BF
  8
240
 10
34.0
 20
-9.5
 30
0.0
 11
34.300000000000011
 21
-9.8000000000000131
 31
0.0
  0
LINE
  5
13C0
  8
242
 10
31.5
 20
-7.5
 30
0.0
 11
31.0
 21
-8.0
 31
0.0
  0
LINE
  5
13C1
  8
240
 10
34.0
 20
-8.0
 30
0.0
 11
30.5
 21
-8.0
 31
0.0
  0
LINE
  5
13C2
  8
242
 10
34.0
 20
-7.5
 30
0.0
 11
31.5
 21
-7.5
 31
0.0
  0
ARC
  5
13C3
  8
240
 10
34.89999999999997
 20
-11.89999999999997
 30
0.0
 40
0.5999999999999944
 50
180.0
 51
270.0
  0
LINE
  5
13C4
  8
240
 10
29.5
 20
-11.25
 30
0.0
 11
29.5
 21
-9.0
 31
0.0
  0
LINE
  5
13C5
  8
240
 10
34.300000000000011
 20
-11.89999999999997
 30
0.0
 11
34.300000000000011
 21
-9.8000000000000131
 31
0.0
  0
LINE
  5
13C6
  8
240
 10
25.000000000000028
 20
-12.25
 30
0.0
 11
28.5
 21
-12.25
 31
0.0
  0
ARC
  5
13C7
  8
240
 10
25.000000000000028
 20
-15.25
 30
0.0
 40
3.0
 50
90.0
 51
180.0
  0
ARC
  5
13C8
  8
240
 10
30.5
 20
-9.0
 30
0.0
 40
1.0
 50
90.0
 51
180.0
  0
ARC
  5
13C9
  8
240
 10
28.5
 20
-11.25
 30
0.0
 40
0.9999999999999856
 50
270.0
 51
0.0
  0
LINE
  5
13CA
  8
241
 10
31.5
 20
-7.5
 30
0.0
 11
31.5
 21
0.0
 31
0.0
  0
LINE
  5
13CB
  8
241
 10
34.0
 20
-8.0
 30
0.0
 11
34.0
 21
0.0
 31
0.0
  0
LINE
  5
13CC
  8
241
 10
34.300000000000011
 20
-9.8000000000000131
 30
0.0
 11
34.300000000000011
 21
0.0
 31
0.0
  0
LINE
  5
13CD
  8
241
 10
29.5
 20
-9.0
 30
0.0
 11
29.5
 21
0.0
 31
0.0
  0
LINE
  5
13CE
  8
246
 10
27.0
 20
4.7364990121743631
 30
0.0
 11
27.0
 21
-4.736499012174133
 31
0.0
  0
LINE
  5
13CF
  8
246
 10
10.0
 20
4.0
 30
0.0
 11
9.5
 21
4.5
 31
0.0
  0
LINE
  5
13D0
  8
246
 10
7.6933756729740432
 20
1.4433756729740701
 30
0.0
 11
7.6933756729740432
 21
-1.4433756729740701
 31
0.0
  0
LINE
  5
13D1
  8
246
 10
7.6933756729740681
 20
1.4433756729740701
 30
0.0
 11
10.0
 21
3.75
 31
0.0
  0
LINE
  5
13D2
  8
246
 10
5.821367205045874
 20
1.4433756729740701
 30
0.0
 11
5.821367205045874
 21
-1.4433756729740701
 31
0.0
  0
LINE
  5
13D3
  8
246
 10
5.5
 20
-2.0
 30
0.0
 11
5.5
 21
-1.029999694814931
 31
0.0
  0
LINE
  5
13D4
  8
246
 10
5.4999999999999698
 20
-2.0
 30
0.0
 11
5.821367205045874
 21
-1.4433756729740701
 31
0.0
  0
LINE
  5
13D5
  8
246
 10
5.5
 20
2.0
 30
0.0
 11
5.5
 21
1.029999694814931
 31
0.0
  0
LINE
  5
13D6
  8
246
 10
5.4999999999999698
 20
2.0
 30
0.0
 11
5.821367205045874
 21
1.4433756729740701
 31
0.0
  0
LINE
  5
13D7
  8
246
 10
-2.0
 20
3.899999999999975
 30
0.0
 11
-0.0000000000000284
 21
3.899999999999975
 31
0.0
  0
ARC
  5
13D8
  8
246
 10
-2.0
 20
2.899999999999975
 30
0.0
 40
1.0
 50
90.0
 51
180.0
  0
LINE
  5
13D9
  8
246
 10
0.5999999999999944
 20
4.5
 30
0.0
 11
-0.0000000000000284
 21
3.899999999999975
 31
0.0
  0
LINE
  5
13DA
  8
246
 10
-3.0
 20
2.0
 30
0.0
 11
5.5
 21
2.0
 31
0.0
  0
LINE
  5
13DB
  8
246
 10
-3.0
 20
-2.0
 30
0.0
 11
5.5
 21
-2.0
 31
0.0
  0
LINE
  5
13DC
  8
246
 10
0.5999999999999944
 20
4.5
 30
0.0
 11
9.5
 21
4.5
 31
0.0
  0
LINE
  5
13DD
  8
246
 10
0.2999999999999829
 20
4.2000000000000428
 30
0.0
 11
9.7999999999999812
 21
4.2000000000000428
 31
0.0
  0
LINE
  5
13DE
  8
246
 10
7.6933756729740432
 20
1.4433756729740701
 30
0.0
 11
5.821367205045874
 21
1.4433756729740701
 31
0.0
  0
LINE
  5
13DF
  8
246
 10
7.6933756729740432
 20
0.7216878364870354
 30
0.0
 11
5.821367205045874
 21
0.7216878364870354
 31
0.0
  0
LINE
  5
13E0
  8
246
 10
7.6933756729740432
 20
-1.4433756729740701
 30
0.0
 11
5.821367205045874
 21
-1.4433756729740701
 31
0.0
  0
LINE
  5
13E1
  8
246
 10
7.6933756729740432
 20
-0.7216878364870354
 30
0.0
 11
5.821367205045874
 21
-0.7216878364870354
 31
0.0
  0
LINE
  5
13E2
  8
246
 10
9.5
 20
-4.5
 30
0.0
 11
10.0
 21
-4.0
 31
0.0
  0
LINE
  5
13E3
  8
247
 10
7.2055812613182271
 20
-14.378653960960831
 30
0.0
 11
7.3833881155662739
 21
-14.20083566262098
 31
0.0
1001
ACAD
1000
ASC_BOUNDS
1002
{
1070
    19
1005
141E
1002
}
  0
ARC
  5
13E4
  8
247
 10
6.7316581741981718
 20
-14.975760894554581
 30
0.0
 40
0.3182872831821442
 50
254.00027305718419
 51
74.000273057184273
1001
ACAD
1000
ASC_BOUNDS
1002
{
1070
    19
1005
141E
1002
}
  0
ARC
  5
13E5
  8
247
 10
6.5952560440712187
 20
-18.452739196556529
 30
0.0
 40
0.4546969681978227
 50
351.66285421114878
 51
156.33819215911009
  0
LINE
  5
13E6
  8
247
 10
6.1787852511727692
 20
-18.270252453063279
 30
0.0
 11
7.0451477916143981
 21
-18.518669071278332
 31
0.0
  0
ARC
  5
13E7
  8
247
 10
6.6255714432411423
 20
-18.114554839867079
 30
0.0
 40
0.7578163146972659
 50
0.0
 51
130.32984065416761
  0
LINE
  5
13E8
  8
247
 10
7.3833881155663299
 20
-18.220233047678789
 30
0.0
 11
6.5264093982073073
 21
-17.363254330319759
 31
0.0
  0
LINE
  5
13E9
  8
247
 10
7.3833881155662739
 20
-18.55699265221886
 30
0.0
 11
6.271131175708601
 21
-17.44473571236119
 31
0.0
  0
LINE
  5
13EA
  8
247
 10
7.3833881155662739
 20
-17.196612792747938
 30
0.0
 11
7.3833881155662739
 21
-16.518619018333862
 31
0.0
  0
LINE
  5
13EB
  8
247
 10
7.3265705580541258
 20
-17.826655885626501
 30
0.0
 11
6.9134703974817731
 21
-17.413555725054149
 31
0.0
  0
ARC
  5
13EC
  8
247
 10
6.3982231156044227
 20
-14.94321389748427
 30
0.0
 40
0.9851760864257813
 50
253.99975070172769
 51
34.963873291630819
1001
ACAD
1000
ASC_BOUNDS
1002
{
1070
    19
1005
141E
1002
}
  0
LINE
  5
13ED
  8
247
 10
6.1405593887977821
 20
-14.72742410256239
 30
0.0
 11
6.1405593887977821
 21
-14.475150542992081
 31
0.0
1001
ACAD
1000
ASC_BOUNDS
1002
{
1070
    19
1005
141E
1002
}
  0
LINE
  5
13EE
  8
247
 10
6.8193885819130156
 20
-14.669803100365121
 30
0.0
 11
6.1405593887977821
 21
-14.475150542992081
 31
0.0
1001
ACAD
1000
ASC_BOUNDS
1002
{
1070
    19
1005
141E
1002
}
  0
LINE
  5
13EF
  8
246
 10
-2.0
 20
-3.899999999999975
 30
0.0
 11
-0.0000000000000284
 21
-3.899999999999975
 31
0.0
  0
ARC
  5
13F0
  8
246
 10
-2.0
 20
-2.899999999999975
 30
0.0
 40
1.0
 50
180.0
 51
270.0
  0
LINE
  5
13F1
  8
246
 10
0.5999999999999944
 20
-4.5
 30
0.0
 11
-0.0000000000000284
 21
-3.899999999999975
 31
0.0
  0
LINE
  5
13F2
  8
247
 10
5.8374282852821571
 20
-14.640506225365121
 30
0.0
 11
5.8374282852821571
 21
-13.757537322777241
 31
0.0
1001
ACAD
1000
ASC_BOUNDS
1002
{
1070
    19
1005
141E
1002
}
  0
POLYLINE
  5
13F3
  8
247
 66
     1
 10
0.0
 20
0.0
 30
0.0
 70
     1
1001
HATCH_DISTANCE
1040
1.0
1001
HATCH_DISPLAY
1070
     0
1001
HATCH_TYPE
1070
     7
  0
VERTEX
  5
13F4
  8
247
 10
4.9973175064735633
 20
-13.692477660911999
 30
0.0
  0
VERTEX
  5
13F5
  8
247
 10
4.7078163162880147
 20
-13.783767181175669
 30
0.0
  0
VERTEX
  5
13F6
  8
247
 10
4.7078163162880147
 20
-13.783767181175669
 30
0.0
  0
VERTEX
  5
13F7
  8
247
 10
4.9973175064735633
 20
-13.692477660911999
 30
0.0
  0
SEQEND
  5
13F8
  8
247
  0
POLYLINE
  5
13F9
  8
247
 66
     1
 10
0.0
 20
0.0
 30
0.0
 70
     1
  0
VERTEX
  5
13FA
  8
247
 10
4.9973175064735633
 20
-13.692477660911999
 30
0.0
  0
VERTEX
  5
13FB
  8
247
 10
4.7078163162880147
 20
-13.783767181175669
 30
0.0
  0
VERTEX
  5
13FC
  8
247
 10
4.7078163162880147
 20
-13.783767181175669
 30
0.0
  0
VERTEX
  5
13FD
  8
247
 10
4.9973175064735633
 20
-13.692477660911999
 30
0.0
  0
SEQEND
  5
13FE
  8
247
  0
POLYLINE
  5
13FF
  8
247
 66
     1
 10
0.0
 20
0.0
 30
0.0
 70
     1
1001
HATCH_DISTANCE
1040
1.0
1001
HATCH_DISPLAY
1070
     0
1001
HATCH_TYPE
1070
     7
  0
VERTEX
  5
1400
  8
247
 10
4.9973175064735633
 20
-13.692477660911999
 30
0.0
  0
VERTEX
  5
1401
  8
247
 10
4.7078163162880147
 20
-13.783767181175669
 30
0.0
  0
VERTEX
  5
1402
  8
247
 10
4.7078163162880147
 20
-13.783767181175669
 30
0.0
  0
VERTEX
  5
1403
  8
247
 10
4.9973175064735633
 20
-13.692477660911999
 30
0.0
  0
SEQEND
  5
1404
  8
247
  0
LINE
  5
1405
  8
247
 10
5.0428993241005147
 20
-13.837027984398331
 30
0.0
 11
4.7533981339149678
 21
-13.928317504661999
 31
0.0
1001
ACAD
1000
ASC_BOUNDS
1002
{
1070
    19
1005
141E
1002
}
  0
LINE
  5
1406
  8
247
 10
4.9973175064735633
 20
-13.692477660911999
 30
0.0
 11
4.7078163162880147
 21
-13.783767181175669
 31
0.0
1001
ACAD
1000
ASC_BOUNDS
1002
{
1070
    19
1005
1464
1002
}
  0
POLYLINE
  5
1407
  8
247
 66
     1
 10
0.0
 20
0.0
 30
0.0
 70
     1
  0
VERTEX
  5
1408
  8
247
 10
4.9973175064735633
 20
-13.692477660911999
 30
0.0
  0
VERTEX
  5
1409
  8
247
 10
4.7078163162880147
 20
-13.783767181175669
 30
0.0
  0
VERTEX
  5
140A
  8
247
 10
4.7078163162880147
 20
-13.783767181175669
 30
0.0
  0
VERTEX
  5
140B
  8
247
 10
4.9973175064735633
 20
-13.692477660911999
 30
0.0
  0
SEQEND
  5
140C
  8
247
  0
ARC
  5
140D
  8
247
 10
6.2466575638466111
 20
-13.37802835060927
 30
0.0
 40
1.591427564620969
 50
200.22964506332011
 51
208.57168892371649
1001
ACAD
1000
ASC_BOUNDS
1002
{
1070
    19
1005
141E
1002
}
  0
ARC
  5
140E
  8
247
 10
6.2466575638466111
 20
-13.37802835060927
 30
0.0
 40
1.288299322128293
 50
200.87218340207721
 51
222.5419489373881
1001
ACAD
1000
ASC_BOUNDS
1002
{
1070
    19
1005
141E
1002
}
  0
LINE
  5
140F
  8
247
 10
4.988665773075124
 20
-16.620311218040911
 30
0.0
 11
4.655230714481374
 21
-16.52469583107802
 31
0.0
  0
LINE
  5
1410
  8
247
 10
4.988665773075124
 20
-16.620311218040911
 30
0.0
 11
4.988665773075124
 21
-16.509932952660051
 31
0.0
  0
LINE
  5
1411
  8
247
 10
5.0008634214063363
 20
-17.85826598075942
 30
0.0
 11
4.6882359417720041
 21
-17.54563850112509
 31
0.0
  0
LINE
  5
1412
  8
247
 10
5.1782897397981742
 20
-17.698932694611131
 30
0.0
 11
4.800307656255141
 21
-17.320950611068088
 31
0.0
  0
LINE
  5
1413
  8
247
 10
4.655230714481374
 20
-18.747882323997761
 30
0.0
 11
4.6552307144814886
 21
-17.769995446813191
 31
0.0
  0
LINE
  5
1414
  8
247
 10
5.4761965433627298
 20
-17.660079893635611
 30
0.0
 11
4.9689359057967382
 21
-17.152819256069609
 31
0.0
  0
LINE
  5
1415
  8
247
 10
4.9662848986554859
 20
-17.9225731181076
 30
0.0
 11
5.8326217426808844
 21
-18.17098564962259
 31
0.0
  0
ARC
  5
1416
  8
247
 10
5.3827430741005156
 20
-18.105056243675669
 30
0.0
 40
0.4546839594841006
 50
351.66260168792923
 51
156.3381550951899
  0
LINE
  5
1417
  8
247
 10
4.655230714481374
 20
-16.52469583107802
 30
0.0
 11
4.655230714481374
 21
-15.73633523537489
 31
0.0
  0
LINE
  5
1418
  8
240
 10
0.5
 20
-15.94791838842974
 30
0.0
 11
2.0
 21
-15.94791838842974
 31
0.0
  0
ARC
  5
1419
  8
247
 10
5.3069602982216111
 20
-14.56722970558973
 30
0.0
 40
0.3182875066995621
 50
91.710121382064344
 51
253.9983983544486
1001
ACAD
1000
ASC_BOUNDS
1002
{
1070
    19
1005
141E
1002
}
  0
ARC
  5
141A
  8
247
 10
5.6403953568153611
 20
-14.7259134824452
 30
0.0
 40
0.9851660728454588
 50
143.44401219705779
 51
254.00018438768541
1001
ACAD
1000
ASC_BOUNDS
1002
{
1070
    19
1005
141E
1002
}
  0
LINE
  5
141B
  8
246
 10
0.5999999999999944
 20
-4.5
 30
0.0
 11
9.5
 21
-4.5
 31
0.0
  0
LINE
  5
141C
  8
247
 10
7.3833881155662739
 20
-14.20083566262098
 30
0.0
 11
5.8374282852821571
 21
-13.757537322777241
 31
0.0
1001
ACAD
1000
ASC_BOUNDS
1002
{
1070
    19
1005
141E
1002
}
  0
ARC
  5
141D
  8
247
 10
6.2466575638466111
 20
-13.37802835060927
 30
0.0
 40
1.591426849365233
 50
0.0
 51
194.77079396609381
1001
ACAD
1000
ASC_BOUNDS
1002
{
1070
    19
1005
1464
1002
}
  0
INSERT
  5
141E
  8
247
  6
CONTINUOUS
  2
*X22
 10
0.0
 20
0.0
 30
0.0
1001
ACAD
1000
HATCH
1002
{
1070
    19
1000
ANSI31
1040
0.075
1040
1.570796326794895
1000
ASC_BOUNDS
1070
     1
1070
     2
1070
    15
1005
140D
1005
141A
1005
1437
1005
13EC
1005
13E3
1005
141C
1005
13F2
1005
1436
1005
13ED
1005
13EE
1005
13E4
1005
1438
1005
1419
1005
140E
1005
1405
1000
ASC_SEEDPOINT
1011
19.650577260654469
1021
0.0
1031
0.0
1021
-110.9729676778492
1031
0.0
1000
R14_HATCH_DATA
1000
141E
1011
1.0
1021
0.0
1031
0.0
1021
0.0
1031
0.0
1011
0.0
1021
0.0
1031
0.0
1021
1.0
1031
0.0
1011
0.0
1021
0.0
1031
0.0
1021
0.0
1031
1.0
1040
0.0
1010
0.0
1020
0.0
1030
1.0
1000
ANSI31
1070
     0
1070
     1
1071
        1
1071
       33
1071
       15
1070
     1
1040
5.0428993241005147
1040
-13.837027984398331
1040
4.7533981339149678
1040
-13.928317504661999
1070
     2
1040
6.2466575638466111
1040
-13.37802835060927
1040
1.288299322128293
1040
3.50588097603615
1040
3.8840897327625181
1070
     1
1070
     2
1040
5.3069602982216111
1040
-14.56722970558973
1040
0.3182875066995621
1040
1.600643575520674
1040
4.4331083460772751
1070
     1
1070
     1
1040
6.6439277664833281
1040
-15.28171868874403
1040
5.2192184464149678
1040
-14.87318749977919
1070
     2
1040
6.7316581741981718
1040
-14.975760894554581
1040
0.3182872831821442
1040
4.4331410658125074
1040
7.5747337194022997
1070
     1
1070
     1
1040
6.8193885819130156
1040
-14.669803100365121
1040
6.1405593887977821
1040
-14.475150542992081
1070
     1
1040
6.1405593887977821
1040
-14.72742410256239
1040
6.1405593887977821
1040
-14.475150542992081
1070
     1
1040
6.1405593887977821
1040
-14.72742410256239
1040
5.8374282852821571
1040
-14.640506225365121
1070
     1
1040
5.8374282852821571
1040
-14.640506225365121
1040
5.8374282852821571
1040
-13.757537322777241
1070
     1
1040
7.3833881155662739
1040
-14.20083566262098
1040
5.8374282852821571
1040
-13.757537322777241
1070
     1
1040
7.2055812613182271
1040
-14.378653960960831
1040
7.3833881155662739
1040
-14.20083566262098
1070
     2
1040
6.3982231156044227
1040
-14.94321389748427
1040
0.9851760864257813
1040
4.4331319489899252
1040
6.8934200153686511
1070
     1
1070
     2
1040
6.4500190750770781
1040
-13.3325037534413
1040
2.5780792236328121
1040
4.2796376880404372
1040
4.5866349702432574
1070
     1
1070
     2
1040
5.6403953568153611
1040
-14.7259134824452
1040
0.9851660728454588
1040
2.5035703051095641
1040
4.4331395182378071
1070
     1
1070
     2
1040
6.2466575638466111
1040
-13.37802835060927
1040
1.591427564620969
1040
3.4946665664545442
1040
3.640262698164241
1070
     1
1071
       15
1005
1405
1005
140E
1005
1419
1005
1438
1005
13E4
1005
13EE
1005
13ED
1005
1436
1005
13F2
1005
141C
1005
13E3
1005
13EC
1005
1437
1005
141A
1005
140D
1070
     0
1070
     1
1040
1.570796326794895
1040
0.075
1070
     0
1070
     1
1040
2.3561944901923431
1040
19.650577260654469
1040
-110.9729676778492
1040
-0.1683798022700466
1040
-0.1683798022700466
1070
     0
1071
        1
1040
19.650577260654469
1040
-110.9729676778492
1040
0.0
1002
}
  0
LINE
  5
141F
  8
247
 10
7.3833881155662739
 20
-16.518619018333862
 30
0.0
 11
4.655230714481374
 21
-15.73633523537489
 31
0.0
  0
INSERT
  5
1420
  8
247
  6
CONTINUOUS
  2
*X23
 10
0.0
 20
0.0
 30
0.0
1001
ACAD
1000
HATCH
1002
{
1070
    19
1000
ANSI31
1040
0.075
1040
1.570796326794895
1000
R14_HATCH_DATA
1000
1420
1011
1.0
1021
0.0
1031
0.0
1021
0.0
1031
0.0
1011
0.0
1021
0.0
1031
0.0
1021
1.0
1031
0.0
1011
0.0
1021
0.0
1031
0.0
1021
0.0
1031
1.0
1040
0.0
1010
0.0
1020
0.0
1030
1.0
1000
ANSI31
1070
     0
1070
     0
1071
        1
1071
        7
1070
     0
1070
     1
1071
        6
1040
4.655230714481374
1040
-15.73633523537489
1040
4.655230714481374
1040
-16.52469583107802
1040
4.988665773075124
1040
-16.620311218040911
1040
4.988665773075124
1040
-16.509932952660101
1040
7.3833881155662739
1040
-17.196612792747938
1040
7.3833881155662739
1040
-16.518619018333862
1071
        0
1070
     0
1070
     1
1040
1.570796326794895
1040
0.075
1070
     0
1070
     1
1040
2.3561944901923431
1040
19.650577260654469
1040
-110.9729676778492
1040
-0.1683798022700466
1040
-0.1683798022700466
1070
     0
1040
0.0134348504236232
1071
        1
1040
5.947874004480127
1040
-16.44507193407901
1040
0.0
1002
}
  0
POLYLINE
  5
1421
  8
247
 66
     1
 10
0.0
 20
0.0
 30
0.0
 70
     1
  0
VERTEX
  5
1422
  8
247
 10
4.655230714481374
 20
-16.52469583107802
 30
0.0
  0
VERTEX
  5
1423
  8
247
 10
4.988665773075124
 20
-16.620311218040911
 30
0.0
  0
VERTEX
  5
1424
  8
247
 10
4.988665773075124
 20
-16.509932952660051
 30
0.0
  0
VERTEX
  5
1425
  8
247
 10
7.3833881155662739
 20
-17.196612792747938
 30
0.0
  0
VERTEX
  5
1426
  8
247
 10
7.3833881155662739
 20
-16.518619018333862
 30
0.0
  0
VERTEX
  5
1427
  8
247
 10
4.655230714481374
 20
-15.73633523537489
 30
0.0
  0
SEQEND
  5
1428
  8
247
  0
POLYLINE
  5
1429
  8
247
 66
     1
 10
0.0
 20
0.0
 30
0.0
 70
     1
1001
HATCH_DISTANCE
1040
1.0
1001
HATCH_DISPLAY
1070
     0
1001
HATCH_TYPE
1070
     7
  0
VERTEX
  5
142A
  8
247
 10
4.655230714481374
 20
-16.52469583107802
 30
0.0
  0
VERTEX
  5
142B
  8
247
 10
4.988665773075124
 20
-16.620311218040911
 30
0.0
  0
VERTEX
  5
142C
  8
247
 10
4.988665773075124
 20
-16.509932952660051
 30
0.0
  0
VERTEX
  5
142D
  8
247
 10
7.3833881155662739
 20
-17.196612792747938
 30
0.0
  0
VERTEX
  5
142E
  8
247
 10
7.3833881155662739
 20
-16.518619018333862
 30
0.0
  0
VERTEX
  5
142F
  8
247
 10
4.655230714481374
 20
-15.73633523537489
 30
0.0
  0
SEQEND
  5
1430
  8
247
  0
LINE
  5
1431
  8
247
 10
7.3833881155662739
 20
-17.196612792747938
 30
0.0
 11
4.988665773075124
 21
-16.509932952660051
 31
0.0
  0
ARC
  5
1432
  8
247
 10
6.2466575638466111
 20
-13.37802835060927
 30
0.0
 40
1.288295745849608
 50
0.0
 51
194.1274364964118
1001
ACAD
1000
ASC_BOUNDS
1002
{
1070
    19
1005
1464
1002
}
  0
ARC
  5
1433
  8
247
 10
5.4130470291786406
 20
-17.76687188698622
 30
0.0
 40
0.7578227519989014
 50
17.669577547398148
 51
180.2361598426715
  0
LINE
  5
1434
  8
247
 10
6.2789581632879372
 20
-18.12608190902068
 30
0.0
 11
5.19420995568822
 21
-17.04133370142096
 31
0.0
  0
LINE
  5
1435
  8
247
 10
6.4981649180095351
 20
-18.0085290592022
 30
0.0
 11
5.5041852420781092
 21
-17.014549383270761
 31
0.0
  0
LINE
  5
1436
  8
247
 10
6.1405593887977821
 20
-14.72742410256239
 30
0.0
 11
5.8374282852821571
 21
-14.640506225365121
 31
0.0
1001
ACAD
1000
ASC_BOUNDS
1002
{
1070
    19
1005
141E
1002
}
  0
ARC
  5
1437
  8
247
 10
6.4500190750770781
 20
-13.3325037534413
 30
0.0
 40
2.5780792236328121
 50
245.20517736984229
 51
262.7948259620506
1001
ACAD
1000
ASC_BOUNDS
1002
{
1070
    19
1005
141E
1002
}
  0
LINE
  5
1438
  8
247
 10
6.6439277664833281
 20
-15.28171868874403
 30
0.0
 11
5.2192184464149678
 21
-14.87318749977919
 31
0.0
1001
ACAD
1000
ASC_BOUNDS
1002
{
1070
    19
1005
141E
1002
}
  0
LINE
  5
1439
  8
246
 10
0.3000000000000114
 20
-4.2000000000000428
 30
0.0
 11
9.7999999999999812
 21
-4.2000000000000428
 31
0.0
  0
LINE
  5
143A
  8
246
 10
-3.0
 20
-2.899999999999975
 30
0.0
 11
-3.0
 21
2.899999999999975
 31
0.0
  0
LINE
  5
143B
  8
246
 10
10.0
 20
4.0
 30
0.0
 11
10.0
 21
-4.0
 31
0.0
  0
LINE
  5
143C
  8
246
 10
7.6933756729740681
 20
-1.4433756729740701
 30
0.0
 11
10.0
 21
-3.75
 31
0.0
  0
LINE
  5
143D
  8
243
 10
2.0
 20
-16.300000000000001
 30
0.0
 11
19.0
 21
-16.300000000000001
 31
0.0
  0
TEXT
  5
143E
  8
247
 10
7.405889219459822
 20
-10.77930222570148
 30
0.0
 40
2.5
  1
BT30-NBS8-45
 50
90.0
  7
YOKO
 11
7.405889219459822
 21
-10.77930222570148
 31
0.0
 73
     1
  0
ARC
  5
143F
  8
240
 10
25.0
 20
15.25000000000005
 30
0.0
 40
3.0
 50
180.0
 51
270.0
  0
LINE
  5
1440
  8
245
 10
0.0
 20
15.875
 30
0.0
 11
0.0
 21
-15.875
 31
0.0
  0
LINE
  5
1441
  8
241
 10
0.5
 20
-15.94791838842974
 30
0.0
 11
0.5
 21
15.94791838842974
 31
0.0
  0
LINE
  5
1442
  8
241
 10
2.0
 20
-15.94791838842974
 30
0.0
 11
2.0
 21
15.94791838842974
 31
0.0
  0
LINE
  5
1443
  8
241
 10
21.999999999999918
 20
-17.25
 30
0.0
 11
22.000000000000021
 21
17.25
 31
0.0
  0
LINE
  5
1444
  8
246
 10
41.39999999999997
 20
-6.25
 30
0.0
 11
27.0
 21
-4.7364990121742494
 31
0.0
  0
LINE
  5
1445
  8
241
 10
41.0
 20
-9.9970926301023741
 30
0.0
 11
34.300000000000011
 21
-9.9970926301023741
 31
0.0
  0
LINE
  5
1446
  8
241
 10
41.0
 20
-11.49709263010231
 30
0.0
 11
34.300000000000011
 21
-11.497092630102371
 31
0.0
  0
LINE
  5
1447
  8
246
 10
41.39999999999997
 20
6.25
 30
0.0
 11
27.0
 21
4.7364990121743054
 31
0.0
  0
LINE
  5
1448
  8
241
 10
41.0
 20
1.5
 30
0.0
 11
34.300000000000011
 21
1.5
 31
0.0
  0
LINE
  5
1449
  8
241
 10
41.0
 20
-1.5
 30
0.0
 11
34.300000000000011
 21
-1.5
 31
0.0
  0
LINE
  5
144A
  8
241
 10
41.0
 20
11.49709263010231
 30
0.0
 11
34.300000000000011
 21
11.49709263010231
 31
0.0
  0
LINE
  5
144B
  8
241
 10
41.0
 20
9.9970926301023741
 30
0.0
 11
34.300000000000011
 21
9.9970926301023741
 31
0.0
  0
LINE
  5
144C
  8
240
 10
34.89999999999997
 20
12.5
 30
0.0
 11
44.051471862575902
 21
12.50000000000022
 31
0.0
  0
LINE
  5
144D
  8
240
 10
34.89999999999997
 20
-12.5
 30
0.0
 11
44.051471862575958
 21
-12.500000000000171
 31
0.0
  0
LINE
  5
144E
  8
246
 10
45.0
 20
4.0
 30
0.0
 11
27.0
 21
4.0
 31
0.0
  0
LINE
  5
144F
  8
246
 10
45.0
 20
-4.0
 30
0.0
 11
27.0
 21
-4.0
 31
0.0
  0
LINE
  5
1450
  8
240
 10
21.200000000000038
 20
-23.0
 30
0.0
 11
17.763274656126828
 21
-23.0
 31
0.0
  0
ARC
  5
1451
  8
240
 10
21.200000000000038
 20
-22.199999999999982
 30
0.0
 40
0.8000000000000112
 50
270.0
 51
0.0
  0
LINE
  5
1452
  8
240
 10
15.30000000000001
 20
-19.016283142591568
 30
0.0
 11
17.518362671936579
 21
-22.85859999999996
 31
0.0
  0
LINE
  5
1453
  8
240
 10
9.4367253438732082
 20
-23.0
 30
0.0
 11
9.6816373280634593
 21
-22.85859999999996
 31
0.0
  0
LINE
  5
1454
  8
240
 10
11.89999999999997
 20
-19.016283142591519
 30
0.0
 11
9.6816373280634593
 21
-22.85859999999996
 31
0.0
  0
LINE
  5
1455
  8
240
 10
11.89999999999997
 20
-19.0
 30
0.0
 11
15.30000000000001
 21
-19.0
 31
0.0
  0
LINE
  5
1456
  8
247
 10
4.655230714481374
 20
-18.905547576683489
 30
0.0
 11
4.958361817996999
 21
-18.992465453880751
 31
0.0
1001
ACAD
1000
ASC_BOUNDS
1002
{
1070
    19
1005
1464
1002
}
  0
LINE
  5
1457
  8
247
 10
4.655230714481374
 20
-19.531550842064341
 30
0.0
 11
4.655230714481374
 21
-18.905547576683489
 31
0.0
1001
ACAD
1000
ASC_BOUNDS
1002
{
1070
    19
1005
1464
1002
}
  0
LINE
  5
1458
  8
247
 10
4.958361817996999
 20
-19.531550842064341
 30
0.0
 11
4.958361817996999
 21
-18.992465453880751
 31
0.0
1001
ACAD
1000
ASC_BOUNDS
1002
{
1070
    19
1005
1464
1002
}
  0
ARC
  5
1459
  8
240
 10
2.8000000000000109
 20
-22.199999999999982
 30
0.0
 40
0.8000000000000112
 50
180.0
 51
270.0
  0
ARC
  5
145A
  8
247
 10
6.2466575638466111
 20
-19.531550842064341
 30
0.0
 40
1.591426849365233
 50
180.0
 51
0.0
1001
ACAD
1000
ASC_BOUNDS
1002
{
1070
    19
1005
1464
1002
}
  0
ARC
  5
145B
  8
247
 10
6.2466575638466111
 20
-19.531550842064341
 30
0.0
 40
1.288295745849608
 50
180.0
 51
0.0
1001
ACAD
1000
ASC_BOUNDS
1002
{
1070
    19
1005
1464
1002
}
  0
LINE
  5
145C
  8
240
 10
9.4367253438732082
 20
-23.0
 30
0.0
 11
2.8000000000000109
 21
-23.0
 31
0.0
  0
LINE
  5
145D
  8
240
 10
17.518362671936579
 20
-22.85859999999996
 30
0.0
 11
17.763274656126828
 21
-23.0
 31
0.0
  0
LINE
  5
145E
  8
241
 10
17.600000000000019
 20
22.90573333333333
 30
0.0
 11
17.600000000000019
 21
-22.90573333333333
 31
0.0
  0
LINE
  5
145F
  8
241
 10
9.6000000000000245
 20
22.90573333333327
 30
0.0
 11
9.6000000000000245
 21
-22.90573333333333
 31
0.0
  0
LINE
  5
1460
  8
241
 10
15.30000000000001
 20
-19.0
 30
0.0
 11
15.30000000000001
 21
19.0
 31
0.0
  0
LINE
  5
1461
  8
241
 10
11.89999999999997
 20
-19.0
 30
0.0
 11
11.89999999999997
 21
19.0
 31
0.0
  0
LINE
  5
1462
  8
240
 10
22.0
 20
-22.199999999999982
 30
0.0
 11
22.000000000000021
 21
-15.25
 31
0.0
  0
LINE
  5
1463
  8
243
 10
19.0
 20
-16.300000000000001
 30
0.0
 11
19.0
 21
-23.0
 31
0.0
  0
INSERT
  5
1464
  8
247
  6
CONTINUOUS
  2
*X24
 10
0.0
 20
0.0
 30
0.0
1001
ACAD
1000
HATCH
1002
{
1070
    19
1000
ANSI31
1040
0.075
1040
1.570796326794895
1000
ASC_BOUNDS
1070
     1
1070
     2
1070
    10
1005
1406
1005
1432
1005
141D
1005
1470
1005
1471
1005
145A
1005
145B
1005
1458
1005
1457
1005
1456
1000
ASC_SEEDPOINT
1011
19.650577260654469
1021
0.0
1031
0.0
1021
-110.9729676778492
1031
0.0
1000
R14_HATCH_DATA
1000
1464
1011
1.0
1021
0.0
1031
0.0
1021
0.0
1031
0.0
1011
0.0
1021
0.0
1031
0.0
1021
1.0
1031
0.0
1011
0.0
1021
0.0
1031
0.0
1021
0.0
1031
1.0
1040
0.0
1010
0.0
1020
0.0
1030
1.0
1000
ANSI31
1070
     0
1070
     1
1071
        1
1071
       33
1071
       10
1070
     1
1040
4.655230714481374
1040
-18.905547576683489
1040
4.958361817996999
1040
-18.992465453880751
1070
     1
1040
4.655230714481374
1040
-19.531550842064341
1040
4.655230714481374
1040
-18.905547576683489
1070
     1
1040
4.958361817996999
1040
-19.531550842064341
1040
4.958361817996999
1040
-18.992465453880751
1070
     2
1040
6.2466575638466111
1040
-19.531550842064341
1040
1.288295745849608
1040
3.1415926535897918
1040
6.2831853071795853
1070
     1
1070
     2
1040
6.2466575638466111
1040
-19.531550842064341
1040
1.591426849365233
1040
3.1415926535897918
1040
6.2831853071795853
1070
     1
1070
     1
1040
7.838084763038295
1040
-19.531550842064341
1040
7.838084763038295
1040
-13.37802835060927
1070
     1
1040
7.5349536673240891
1040
-19.531550842064341
1040
7.5349536673240891
1040
-13.37802835060927
1070
     2
1040
6.2466575638466111
1040
-13.37802835060927
1040
1.591426849365233
1040
0.0
1040
3.3993916414318419
1070
     1
1070
     2
1040
6.2466575638466111
1040
-13.37802835060927
1040
1.288295745849608
1040
0.0
1040
3.3881629353185909
1070
     1
1070
     1
1040
4.9973175064735633
1040
-13.692477660911999
1040
4.7078163162880147
1040
-13.783767181175669
1071
       10
1005
1456
1005
1457
1005
1458
1005
145B
1005
145A
1005
1471
1005
1470
1005
141D
1005
1432
1005
1406
1070
     0
1070
     1
1040
1.570796326794895
1040
0.075
1070
     0
1070
     1
1040
2.3561944901923431
1040
19.650577260654469
1040
-110.9729676778492
1040
-0.1683798022700466
1040
-0.1683798022700466
1070
     0
1071
        1
1040
19.650577260654469
1040
-110.9729676778492
1040
0.0
1002
}
  0
LINE
  5
1465
  8
240
 10
2.0
 20
-22.199999999999982
 30
0.0
 11
2.0
 21
-15.94791838842974
 31
0.0
  0
LINE
  5
1466
  8
247
 10
7.3833881155662739
 20
-19.230511861299071
 30
0.0
 11
6.521355708882651
 21
-18.36847945461539
 31
0.0
  0
LINE
  5
1467
  8
247
 10
7.1102988955630622
 20
-19.294182245835941
 30
0.0
 11
5.8277194241406383
 21
-18.011602774413461
 31
0.0
  0
LINE
  5
1468
  8
247
 10
7.3833881155662739
 20
-19.372489410179519
 30
0.0
 11
4.9583618179979112
 21
-18.677123504418201
 31
0.0
  0
LINE
  5
1469
  8
247
 10
4.655230714481374
 20
-18.747882323997761
 30
0.0
 11
4.958361817996999
 21
-18.834800201195549
 31
0.0
  0
LINE
  5
146A
  8
247
 10
4.9583618179970568
 20
-18.826043190970381
 30
0.0
 11
4.6552307144814318
 21
-18.522912087454738
 31
0.0
  0
LINE
  5
146B
  8
247
 10
5.221717990694799
 20
-18.752639759128041
 30
0.0
 11
4.6552307144814318
 21
-18.186152482914672
 31
0.0
  0
LINE
  5
146C
  8
247
 10
4.958361817996999
 20
-18.834800201195549
 30
0.0
 11
4.9583618179979112
 21
-18.677123504418201
 31
0.0
  0
LINE
  5
146D
  8
247
 10
5.6938632169118932
 20
-18.888025380805001
 30
0.0
 11
4.6552307144814886
 21
-17.849392878374651
 31
0.0
  0
LINE
  5
146E
  8
247
 10
6.166008443128927
 20
-19.023411002481961
 30
0.0
 11
5.104923707576174
 21
-17.96232626692921
 31
0.0
  0
LINE
  5
146F
  8
247
 10
6.638153669346023
 20
-19.158796624158981
 30
0.0
 11
5.5770644650861509
 21
-18.097707419899091
 31
0.0
  0
LINE
  5
1470
  8
247
 10
7.5349536673240891
 20
-19.531550842064341
 30
0.0
 11
7.5349536673240891
 21
-13.37802835060927
 31
0.0
1001
ACAD
1000
ASC_BOUNDS
1002
{
1070
    19
1005
1464
1002
}
  0
LINE
  5
1471
  8
247
 10
7.838084763038295
 20
-19.531550842064341
 30
0.0
 11
7.838084763038295
 21
-13.37802835060927
 31
0.0
1001
ACAD
1000
ASC_BOUNDS
1002
{
1070
    19
1005
1464
1002
}
  0
LINE
  5
1472
  8
247
 10
7.3833881155662739
 20
-18.893752256759001
 30
0.0
 11
6.993493959194609
 21
-18.503858100387319
 31
0.0
  0
LINE
  5
1473
  8
247
 10
7.3833881155662739
 20
-19.372489410179519
 30
0.0
 11
7.3833881155662739
 21
-18.114554839867079
 31
0.0
  0
ARC
  5
1474
  8
240
 10
-47.899999999999977
 20
8.3841292718131513
 30
0.0
 40
0.4999999999999967
 50
98.297338160597704
 51
180.0
  0
LINE
  5
1475
  8
240
 10
-48.399999999999977
 20
8.3841292718131513
 30
0.0
 11
-48.399999999999977
 21
8.25
 31
0.0
  0
LINE
  5
1476
  8
240
 10
-48.399999999999977
 20
-8.3841292718131513
 30
0.0
 11
-48.399999999999977
 21
-8.2499999999999432
 31
0.0
  0
ARC
  5
1477
  8
240
 10
-47.899999999999977
 20
-8.3841292718131513
 30
0.0
 40
0.5
 50
180.0
 51
261.70266183940231
  0
LINE
  5
1478
  8
240
 10
-48.399999999999977
 20
-8.2499999999999432
 30
0.0
 11
-48.399999999999977
 21
8.25
 31
0.0
  0
LINE
  5
1479
  8
245
 10
-51.08963784654577
 20
0.0
 30
0.0
 11
51.332529679250449
 21
0.0
 31
0.0
  0
LINE
  5
147A
  8
240
 10
-47.97215511479645
 20
-8.8788955190539127
 30
0.0
 11
0.5
 21
-15.94791838842974
 31
0.0
  0
LINE
  5
147B
  8
240
 10
-47.97215511479645
 20
8.8788955190538541
 30
0.0
 11
0.5
 21
15.94791838842974
 31
0.0
  0
ENDBLK
  5
147E
  8
0
  0
BLOCK
  8
0
  2
*X22
 70
     1
 10
0.0
 20
0.0
 30
0.0
  3
*X22
  1

  0
LINE
  5
1505
  8
0
 62
     0
 10
7.2258723170623744
 20
-14.358361599233801
 30
0.0
 11
6.9416914828499747
 21
-14.07418076502139
 31
0.0
  0
LINE
  5
1506
  8
0
 62
     0
 10
7.378791255835579
 20
-14.8480401425471
 30
0.0
 11
6.4695458374321433
 21
-13.938794724143669
 31
0.0
  0
LINE
  5
1507
  8
0
 62
     0
 10
6.899016228747497
 20
-14.705024719999111
 30
0.0
 11
5.9974001920143323
 21
-13.80340868326593
 31
0.0
  0
LINE
  5
1508
  8
0
 62
     0
 10
7.3582752265834648
 20
-15.164283717835071
 30
0.0
 11
7.0023943487536542
 21
-14.808402840005259
 31
0.0
  0
LINE
  5
1509
  8
0
 62
     0
 10
6.4095006848946507
 20
-14.552268780686351
 30
0.0
 11
5.8374282852821571
 21
-13.98019638107386
 31
0.0
  0
LINE
  5
150A
  8
0
 62
     0
 10
7.2662978671887393
 20
-15.40906596298044
 30
0.0
 11
7.0016111923161191
 21
-15.144379288107819
 31
0.0
  0
LINE
  5
150B
  8
0
 62
     0
 10
6.1405593887977901
 20
-14.62008708912958
 30
0.0
 11
5.8374282852821651
 21
-14.31695598561396
 31
0.0
  0
LINE
  5
150C
  8
0
 62
     0
 10
7.1268099623661101
 20
-15.6063376626979
 30
0.0
 11
6.8057715610327634
 21
-15.28529926136455
 31
0.0
  0
LINE
  5
150D
  8
0
 62
     0
 10
5.0576135961299169
 20
-13.87390090100182
 30
0.0
 11
5.0260529205484801
 21
-13.84234022542037
 31
0.0
  0
LINE
  5
150E
  8
0
 62
     0
 10
6.945865063159955
 20
-15.762152368031851
 30
0.0
 11
6.393670993462143
 21
-15.20995829833404
 31
0.0
  0
LINE
  5
150F
  8
0
 62
     0
 10
5.141986775443903
 20
-14.295033684855881
 30
0.0
 11
4.770026962862282
 21
-13.92307387227425
 31
0.0
  0
LINE
  5
1510
  8
0
 62
     0
 10
6.7209748353949692
 20
-15.874021744806941
 30
0.0
 11
5.9215248878480011
 21
-15.074571797259971
 31
0.0
  0
LINE
  5
1511
  8
0
 62
     0
 10
4.9985899690189211
 20
-14.488396482970989
 30
0.0
 11
4.7716074644841981
 21
-14.261413978436259
 31
0.0
  0
LINE
  5
1512
  8
0
 62
     0
 10
6.4377886558501327
 20
-15.92759516980219
 30
0.0
 11
5.4493787822338291
 21
-14.93918529618589
 31
0.0
  0
LINE
  5
1513
  8
0
 62
     0
 10
6.0533119591272477
 20
-15.879878077619431
 30
0.0
 11
4.6799662293575448
 21
-14.506532347849721
 31
0.0
  0
LINE
  5
1514
  8
0
 62
     0
 10
5.6047505832183404
 20
-15.768076306250601
 30
0.0
 11
4.6600634311350433
 21
-14.8233891541673
 31
0.0
  0
ENDBLK
  5
1516
  8
0
  0
BLOCK
  8
0
  2
*X23
 70
     1
 10
0.0
 20
0.0
 30
0.0
  3
*X23
  1

  0
LINE
  5
1518
  8
0
 62
     0
 10
7.3833881155662739
 20
-16.53643502497825
 30
0.0
 11
7.358409684319807
 21
-16.511456593731779
 31
0.0
  0
LINE
  5
1519
  8
0
 62
     0
 10
7.3833881155662811
 20
-16.873194629518341
 30
0.0
 11
6.8862653482465728
 21
-16.376071862198639
 31
0.0
  0
LINE
  5
151A
  8
0
 62
     0
 10
7.3646830496546434
 20
-17.191249168146829
 30
0.0
 11
6.4141210121733323
 21
-16.24068713066552
 31
0.0
  0
LINE
  5
151B
  8
0
 62
     0
 10
6.8925368659935691
 20
-17.055862589025828
 30
0.0
 11
5.9419766761001167
 21
-16.10530239913238
 31
0.0
  0
LINE
  5
151C
  8
0
 62
     0
 10
6.4203906823324797
 20
-16.920476009904839
 30
0.0
 11
5.4698323400268833
 21
-15.96991766759924
 31
0.0
  0
LINE
  5
151D
  8
0
 62
     0
 10
5.9482444986714267
 20
-16.78508943078387
 30
0.0
 11
4.9976880039536677
 21
-15.834532936066109
 31
0.0
  0
LINE
  5
151E
  8
0
 62
     0
 10
5.476098315010324
 20
-16.64970285166288
 30
0.0
 11
4.6552307144813678
 21
-15.828835251133921
 31
0.0
  0
LINE
  5
151F
  8
0
 62
     0
 10
5.0039521313492639
 20
-16.51431627254189
 30
0.0
 11
4.6552307144813749
 21
-16.165594855674009
 31
0.0
  0
LINE
  5
1520
  8
0
 62
     0
 10
4.6865544323722892
 20
-16.53367817810501
 30
0.0
 11
4.6552307144813749
 21
-16.5023544602141
 31
0.0
  0
ENDBLK
  5
1522
  8
0
  0
BLOCK
  8
0
  2
*X24
 70
     1
 10
0.0
 20
0.0
 30
0.0
  3
*X24
  1

  0
LINE
  5
1524
  8
0
 62
     0
 10
7.7531528403672691
 20
-12.86508449529814
 30
0.0
 11
6.7596014191577307
 21
-11.87153307408861
 31
0.0
  0
LINE
  5
1525
  8
0
 62
     0
 10
6.7387118189247204
 20
-12.18740307839567
 30
0.0
 11
6.3406907568344764
 21
-11.78938201630543
 31
0.0
  0
LINE
  5
1526
  8
0
 62
     0
 10
7.835303898150447
 20
-13.283995157621399
 30
0.0
 11
7.4372828360602039
 21
-12.885974095531161
 31
0.0
  0
LINE
  5
1527
  8
0
 62
     0
 10
6.305632301644378
 20
-12.091083165655419
 30
0.0
 11
6.0177058894036071
 21
-11.80315675341464
 31
0.0
  0
LINE
  5
1528
  8
0
 62
     0
 10
7.838084763038295
 20
-13.623535627049341
 30
0.0
 11
7.5336027488004378
 21
-13.31905361281148
 31
0.0
  0
LINE
  5
1529
  8
0
 62
     0
 10
5.9927841466381082
 20
-12.114994615189239
 30
0.0
 11
5.7453955029809318
 21
-11.867605971532059
 31
0.0
  0
LINE
  5
152A
  8
0
 62
     0
 10
7.838084763038303
 20
-13.96029523158944
 30
0.0
 11
7.5349536673240891
 21
-13.657164135875229
 31
0.0
  0
LINE
  5
152B
  8
0
 62
     0
 10
5.736204340727304
 20
-12.195174413818551
 30
0.0
 11
5.5089449686681391
 21
-11.96791504175938
 31
0.0
  0
LINE
  5
152C
  8
0
 62
     0
 10
7.8380847630382871
 20
-14.297054836129529
 30
0.0
 11
7.534953667324082
 21
-13.993923740415321
 31
0.0
  0
LINE
  5
152D
  8
0
 62
     0
 10
5.519107119411081
 20
-12.314836797042419
 30
0.0
 11
5.301753547862325
 21
-12.09748322549366
 31
0.0
  0
LINE
  5
152E
  8
0
 62
     0
 10
7.8380847630382808
 20
-14.633814440669619
 30
0.0
 11
7.534953667324074
 21
-14.330683344955411
 31
0.0
  0
LINE
  5
152F
  8
0
 62
     0
 10
5.3351358297416578
 20
-12.46762511191308
 30
0.0
 11
5.1207897381591589
 21
-12.25327902033059
 31
0.0
  0
LINE
  5
1530
  8
0
 62
     0
 10
7.838084763038295
 20
-14.97057404520972
 30
0.0
 11
7.5349536673240891
 21
-14.667442949495509
 31
0.0
  0
LINE
  5
1531
  8
0
 62
     0
 10
5.1825578792479581
 20
-12.65180676595948
 30
0.0
 11
4.9651632092540083
 21
-12.43441209596554
 31
0.0
  0
LINE
  5
1532
  8
0
 62
     0
 10
7.8380847630382871
 20
-15.30733364974982
 30
0.0
 11
7.534953667324082
 21
-15.00420255403561
 31
0.0
  0
LINE
  5
1533
  8
0
 62
     0
 10
5.0631301342953421
 20
-12.869138625546951
 30
0.0
 11
4.835776556736036
 21
-12.64178504798765
 31
0.0
  0
LINE
  5
1534
  8
0
 62
     0
 10
7.838084763038303
 20
-15.64409325428991
 30
0.0
 11
7.5349536673240891
 21
-15.340962158575699
 31
0.0
  0
LINE
  5
1535
  8
0
 62
     0
 10
4.9832506308968334
 20
-13.12601872668853
 30
0.0
 11
4.7356785607414551
 21
-12.878446656533161
 31
0.0
  0
LINE
  5
1536
  8
0
 62
     0
 10
7.838084763038295
 20
-15.98085285883
 30
0.0
 11
7.534953667324082
 21
-15.67772176311577
 31
0.0
  0
LINE
  5
1537
  8
0
 62
     0
 10
4.959822060194325
 20
-13.43934976052611
 30
0.0
 11
4.6715031155168063
 21
-13.1510308158486
 31
0.0
  0
LINE
  5
1538
  8
0
 62
     0
 10
7.838084763038303
 20
-16.317612463370079
 30
0.0
 11
7.5349536673240962
 21
-16.01448136765589
 31
0.0
  0
LINE
  5
1539
  8
0
 62
     0
 10
4.905228983166622
 20
-13.72151628803852
 30
0.0
 11
4.6581538703907341
 21
-13.47444117526263
 31
0.0
  0
LINE
  5
153A
  8
0
 62
     0
 10
7.838084763038295
 20
-16.654372067910192
 30
0.0
 11
7.534953667324082
 21
-16.351240972195981
 31
0.0
  0
LINE
  5
153B
  8
0
 62
     0
 10
7.838084763038303
 20
-16.991131672450269
 30
0.0
 11
7.5349536673240891
 21
-16.688000576736059
 31
0.0
  0
LINE
  5
153C
  8
0
 62
     0
 10
7.838084763038303
 20
-17.327891276990371
 30
0.0
 11
7.5349536673240891
 21
-17.02476018127615
 31
0.0
  0
LINE
  5
153D
  8
0
 62
     0
 10
7.838084763038295
 20
-17.66465088153047
 30
0.0
 11
7.534953667324082
 21
-17.36151978581627
 31
0.0
  0
LINE
  5
153E
  8
0
 62
     0
 10
7.838084763038295
 20
-18.001410486070561
 30
0.0
 11
7.5349536673240891
 21
-17.698279390356351
 31
0.0
  0
LINE
  5
153F
  8
0
 62
     0
 10
7.838084763038295
 20
-18.33817009061065
 30
0.0
 11
7.534953667324082
 21
-18.035038994896439
 31
0.0
  0
LINE
  5
1540
  8
0
 62
     0
 10
7.838084763038303
 20
-18.674929695150752
 30
0.0
 11
7.5349536673240891
 21
-18.371798599436531
 31
0.0
  0
LINE
  5
1541
  8
0
 62
     0
 10
7.838084763038295
 20
-19.01168929969085
 30
0.0
 11
7.5349536673240891
 21
-18.70855820397664
 31
0.0
  0
LINE
  5
1542
  8
0
 62
     0
 10
7.838084763038303
 20
-19.348448904230931
 30
0.0
 11
7.5349536673240962
 21
-19.045317808516721
 31
0.0
  0
LINE
  5
1543
  8
0
 62
     0
 10
7.831293103293917
 20
-19.67841684902664
 30
0.0
 11
7.5349536673240962
 21
-19.38207741305682
 31
0.0
  0
LINE
  5
1544
  8
0
 62
     0
 10
7.778622661029762
 20
-19.96250601130258
 30
0.0
 11
7.522970525177028
 21
-19.706853875449841
 31
0.0
  0
LINE
  5
1545
  8
0
 62
     0
 10
7.6872250098678938
 20
-20.207867964680808
 30
0.0
 11
7.4557248790162278
 21
-19.976367833829151
 31
0.0
  0
LINE
  5
1546
  8
0
 62
     0
 10
7.5652253659191393
 20
-20.422627925272149
 30
0.0
 11
7.3459343375767423
 21
-20.203336896929748
 31
0.0
  0
LINE
  5
1547
  8
0
 62
     0
 10
7.416417035375062
 20
-20.61057919926817
 30
0.0
 11
7.2018554850246499
 21
-20.396017648917748
 31
0.0
  0
LINE
  5
1548
  8
0
 62
     0
 10
7.2422081152262461
 20
-20.773129883659461
 30
0.0
 11
7.0262619867751948
 21
-20.55718375520841
 31
0.0
  0
LINE
  5
1549
  8
0
 62
     0
 10
7.0421900170166207
 20
-20.90987138998991
 30
0.0
 11
6.8183640167235211
 21
-20.686045389696812
 31
0.0
  0
LINE
  5
154A
  8
0
 62
     0
 10
4.9583618179969928
 20
-19.16280279551037
 30
0.0
 11
4.7195487388096993
 21
-18.923989716323081
 31
0.0
  0
LINE
  5
154B
  8
0
 62
     0
 10
6.8139804553192604
 20
-21.018421432832628
 30
0.0
 11
6.5733066103349032
 21
-20.777747587848278
 31
0.0
  0
LINE
  5
154C
  8
0
 62
     0
 10
4.958361817997007
 20
-19.499562400050479
 30
0.0
 11
4.655230714481382
 21
-19.19643129653485
 31
0.0
  0
LINE
  5
154D
  8
0
 62
     0
 10
6.552175534086401
 20
-21.093376116139869
 30
0.0
 11
6.278258376839247
 21
-20.819458958892721
 31
0.0
  0
LINE
  5
154E
  8
0
 62
     0
 10
5.0080976163954727
 20
-19.88605780298905
 30
0.0
 11
4.6552315604422798
 21
-19.533191747035861
 31
0.0
  0
LINE
  5
154F
  8
0
 62
     0
 10
6.2450166588750866
 20
-21.122976845468671
 30
0.0
 11
5.8921506029218929
 21
-20.770110789515481
 31
0.0
  0
LINE
  5
1550
  8
0
 62
     0
 10
5.8607625419477838
 20
-21.075482333081439
 30
0.0
 11
4.7027260728295053
 21
-19.91744586396316
 31
0.0
  0
ENDBLK
  5
1552
  8
0
  0
ENDSEC
  0
SECTION
  2
ENTITIES
  0
LINE
  5
109F
  8
250
 10
-33.32099961687166
 20
-28.0
 30
0.0
 11
-49.320999616871653
 21
-28.0
 31
0.0
1001
ITEMNAME
1000
LNSP2
  0
TEXT
  5
10A2
  8
250
 62
   211
 10
-63.0
 20
56.0
 30
0.0
 40
5.0
  1
BT30-NBS8-45
  7
YOKO
 11
-63.0
 21
56.0
 31
0.0
 73
     1
  0
LINE
  5
120E
  8
250
 10
22.0
 20
22.700000000000038
 30
0.0
 11
22.0
 21
36.0
 31
0.0
  0
LINE
  5
120F
  8
250
 10
45.0
 20
12.09289321881344
 30
0.0
 11
45.0
 21
36.0
 31
0.0
  0
LINE
  5
1210
  8
250
 10
24.23
 20
35.0
 30
0.0
 11
42.770000000000003
 21
35.0
 31
0.0
  0
LINE
  5
1214
  8
250
 10
-0.0000000000000284
 20
16.375
 30
0.0
 11
-0.0000000000000268
 21
43.0
 31
0.0
  0
LINE
  5
1215
  8
250
 10
45.0
 20
12.09289321881344
 30
0.0
 11
45.0
 21
43.0
 31
0.0
  0
LINE
  5
1216
  8
250
 10
2.229999999999972
 20
42.0
 30
0.0
 11
42.770000000000003
 21
42.0
 31
0.0
  0
LINE
  5
121C
  8
250
 10
2.2299999999999711
 20
35.0
 30
0.0
 11
19.77
 21
35.0
 31
0.0
  0
LINE
  5
1220
  8
250
 10
44.551471862575973
 20
-12.500000000000171
 30
0.0
 11
71.0
 21
-12.500000000000171
 31
0.0
  0
LINE
  5
1221
  8
250
 10
44.551471862575887
 20
12.50000000000022
 30
0.0
 11
71.0
 21
12.50000000000022
 31
0.0
  0
LINE
  5
1222
  8
250
 10
70.0
 20
-10.27000000000017
 30
0.0
 11
70.0
 21
10.27000000000022
 31
0.0
  0
LINE
  5
1226
  8
250
 10
45.499999999999993
 20
-4.0
 30
0.0
 11
64.0
 21
-4.0000000000000044
 31
0.0
  0
LINE
  5
1227
  8
250
 10
45.499999999999993
 20
3.9999999999999969
 30
0.0
 11
64.0
 21
3.999999999999992
 31
0.0
  0
LINE
  5
1228
  8
250
 10
63.0
 20
-1.770000000000004
 30
0.0
 11
63.0
 21
1.769999999999994
 31
0.0
  0
LINE
  5
122C
  8
250
 10
10.0
 20
-4.5
 30
0.0
 11
9.9999999999999982
 21
-43.0
 31
0.0
  0
LINE
  5
122D
  8
250
 10
45.0
 20
-12.09289321881344
 30
0.0
 11
45.0
 21
-43.0
 31
0.0
  0
LINE
  5
122E
  8
250
 10
12.22999999999999
 20
-42.0
 30
0.0
 11
42.770000000000003
 21
-42.0
 31
0.0
  0
TEXT
  5
1234
  8
250
 10
-46.892428188300208
 20
-27.0
 30
0.0
 40
3.0
  1
BT30
  7
YOKO
1001
ITEMNAME
1000
LNSP3
1001
ACAD
1000
MTEXTBEGIN
1070
    73
1070
     1
1070
    44
1040
1.0
1070
    74
1070
     0
1000
MTEXTEND
  0
LINE
  5
1235
  8
250
 10
-25.3915672841283
 20
-14.26582032450913
 30
0.0
 11
-33.32099961687166
 21
-28.0
 31
0.0
1001
ACAD
1000
DSTYLE
1002
{
1070
     5
1000
OPEN
1070
    78
1070
     8
1070
   140
1040
3.0
1002
}
  0
LINE
  5
1236
  8
250
 10
-25.71344005920152
 20
-14.079986991175801
 30
0.0
 11
-24.276567284128301
 21
-12.33458367406984
 31
0.0
  0
LINE
  5
1237
  8
250
 10
-25.069694509055079
 20
-14.451653657842471
 30
0.0
 11
-24.276567284128301
 21
-12.33458367406984
 31
0.0
  0
LINE
  5
1238
  8
250
 10
-24.276567284128301
 20
-12.33458367406984
 30
0.0
 11
-25.3915672841283
 21
-14.26582032450913
 31
0.0
  0
TEXT
  5
1239
  8
250
 10
19.985714285714291
 20
-41.0
 30
0.0
 40
3.0
  1
26ü`42
1001
ACAD
1000
MTEXTBEGIN
1070
    73
1070
     1
1070
    44
1040
1.0
1070
    74
1070
     0
1000
MTEXTEND
  0
LINE
  5
123A
  8
250
 10
42.770000000000003
 20
-41.62833333333333
 30
0.0
 11
45.0
 21
-42.0
 31
0.0
  0
LINE
  5
123B
  8
250
 10
42.770000000000003
 20
-42.371666666666663
 30
0.0
 11
45.0
 21
-42.0
 31
0.0
  0
LINE
  5
123C
  8
250
 10
45.0
 20
-42.0
 30
0.0
 11
42.770000000000003
 21
-42.0
 31
0.0
  0
LINE
  5
123D
  8
250
 10
12.23
 20
-42.371666666666663
 30
0.0
 11
9.9999999999999982
 21
-42.0
 31
0.0
  0
LINE
  5
123E
  8
250
 10
12.23
 20
-41.628333333333337
 30
0.0
 11
9.9999999999999982
 21
-42.0
 31
0.0
  0
LINE
  5
123F
  8
250
 10
9.9999999999999982
 20
-42.0
 30
0.0
 11
12.23
 21
-42.0
 31
0.0
  0
LINE
  5
1240
  8
250
 10
62.62833333333333
 20
1.769999999999994
 30
0.0
 11
63.0
 21
3.999999999999992
 31
0.0
  0
LINE
  5
1241
  8
250
 10
63.37166666666667
 20
1.769999999999994
 30
0.0
 11
63.0
 21
3.999999999999992
 31
0.0
  0
LINE
  5
1242
  8
250
 10
63.0
 20
3.999999999999992
 30
0.0
 11
63.0
 21
1.769999999999994
 31
0.0
  0
LINE
  5
1243
  8
250
 10
63.37166666666667
 20
-1.770000000000004
 30
0.0
 11
63.0
 21
-4.0000000000000044
 31
0.0
  0
LINE
  5
1244
  8
250
 10
62.62833333333333
 20
-1.770000000000004
 30
0.0
 11
63.0
 21
-4.0000000000000044
 31
0.0
  0
LINE
  5
1245
  8
250
 10
63.0
 20
-4.0000000000000044
 30
0.0
 11
63.0
 21
-1.770000000000004
 31
0.0
  0
TEXT
  5
1246
  8
250
 10
62.400000679213463
 20
-6.3180680701675529
 30
0.0
 40
3.0
  1
MAX.
 50
90.0
  0
TEXT
  5
1247
  8
250
 10
62.400000679213463
 20
3.96764621554673
 30
0.0
 40
3.0
  1
\U+2205
 50
90.0
  0
TEXT
  5
1248
  8
250
 10
62.400000679213463
 20
6.6819319298324444
 30
0.0
 40
3.0
  1
8
 50
90.0
  0
TEXT
  5
1249
  8
250
 10
69.0
 20
-4.0714285714285374
 30
0.0
 40
3.0
  1
\U+2205
 50
90.0
1001
ACAD
1000
MTEXTBEGIN
1070
    73
1070
     1
1070
    44
1040
1.0
1070
    74
1070
     0
1000
MTEXTEND
  0
TEXT
  5
124A
  8
250
 10
69.0
 20
-1.357142857142823
 30
0.0
 40
3.0
  1
25
 50
90.0
1001
ACAD
1000
MTEXTBEGIN
1070
    73
1070
     1
1070
    44
1040
1.0
1070
    74
1070
     0
1000
MTEXTEND
  0
LINE
  5
124B
  8
250
 10
69.62833333333333
 20
10.27000000000022
 30
0.0
 11
70.0
 21
12.50000000000022
 31
0.0
  0
LINE
  5
124C
  8
250
 10
70.37166666666667
 20
10.27000000000022
 30
0.0
 11
70.0
 21
12.50000000000022
 31
0.0
  0
LINE
  5
124D
  8
250
 10
70.0
 20
12.50000000000022
 30
0.0
 11
70.0
 21
10.27000000000022
 31
0.0
  0
LINE
  5
124E
  8
250
 10
70.37166666666667
 20
-10.27000000000017
 30
0.0
 11
70.0
 21
-12.500000000000171
 31
0.0
  0
LINE
  5
124F
  8
250
 10
69.62833333333333
 20
-10.27000000000017
 30
0.0
 11
70.0
 21
-12.500000000000171
 31
0.0
  0
LINE
  5
1250
  8
250
 10
70.0
 20
-12.500000000000171
 30
0.0
 11
70.0
 21
-10.27000000000017
 31
0.0
  0
TEXT
  5
1251
  8
250
 10
8.1428571428571228
 20
36.0
 30
0.0
 40
3.0
  1
22
1001
ACAD
1000
MTEXTBEGIN
1070
    73
1070
     1
1070
    44
1040
1.0
1070
    74
1070
     0
1000
MTEXTEND
  0
LINE
  5
1252
  8
250
 10
19.77
 20
35.37166666666667
 30
0.0
 11
22.0
 21
35.0
 31
0.0
  0
LINE
  5
1253
  8
250
 10
19.77
 20
34.62833333333333
 30
0.0
 11
22.0
 21
35.0
 31
0.0
  0
LINE
  5
1254
  8
250
 10
22.0
 20
35.0
 30
0.0
 11
19.77
 21
35.0
 31
0.0
  0
LINE
  5
1255
  8
250
 10
2.2299999999999711
 20
34.62833333333333
 30
0.0
 11
-0.0000000000000273
 21
35.0
 31
0.0
  0
LINE
  5
1256
  8
250
 10
2.2299999999999711
 20
35.371666666666663
 30
0.0
 11
-0.0000000000000273
 21
35.0
 31
0.0
  0
LINE
  5
1257
  8
250
 10
-0.0000000000000273
 20
35.0
 30
0.0
 11
2.2299999999999711
 21
35.0
 31
0.0
  0
TEXT
  5
1258
  8
250
 10
19.642857142857132
 20
43.0
 30
0.0
 40
3.0
  1
45
1001
ACAD
1000
MTEXTBEGIN
1070
    73
1070
     1
1070
    44
1040
1.0
1070
    74
1070
     0
1000
MTEXTEND
  0
LINE
  5
1259
  8
250
 10
42.770000000000003
 20
42.371666666666663
 30
0.0
 11
45.0
 21
42.0
 31
0.0
  0
LINE
  5
125A
  8
250
 10
42.770000000000003
 20
41.62833333333333
 30
0.0
 11
45.0
 21
42.0
 31
0.0
  0
LINE
  5
125B
  8
250
 10
45.0
 20
42.0
 30
0.0
 11
42.770000000000003
 21
42.0
 31
0.0
  0
LINE
  5
125C
  8
250
 10
2.2299999999999711
 20
41.62833333333333
 30
0.0
 11
-0.0000000000000268
 21
42.0
 31
0.0
  0
LINE
  5
125D
  8
250
 10
2.2299999999999711
 20
42.371666666666663
 30
0.0
 11
-0.0000000000000268
 21
42.0
 31
0.0
  0
LINE
  5
125E
  8
250
 10
-0.0000000000000268
 20
42.0
 30
0.0
 11
2.2299999999999711
 21
42.0
 31
0.0
  0
TEXT
  5
125F
  8
250
 10
30.642857142857139
 20
36.0
 30
0.0
 40
3.0
  1
23
1001
ACAD
1000
MTEXTBEGIN
1070
    73
1070
     1
1070
    44
1040
1.0
1070
    74
1070
     0
1000
MTEXTEND
  0
LINE
  5
1260
  8
250
 10
42.770000000000003
 20
35.37166666666667
 30
0.0
 11
45.0
 21
35.0
 31
0.0
  0
LINE
  5
1261
  8
250
 10
42.770000000000003
 20
34.62833333333333
 30
0.0
 11
45.0
 21
35.0
 31
0.0
  0
LINE
  5
1262
  8
250
 10
45.0
 20
35.0
 30
0.0
 11
42.770000000000003
 21
35.0
 31
0.0
  0
LINE
  5
1263
  8
250
 10
24.23
 20
34.62833333333333
 30
0.0
 11
22.0
 21
35.0
 31
0.0
  0
LINE
  5
1264
  8
250
 10
24.23
 20
35.371666666666663
 30
0.0
 11
22.0
 21
35.0
 31
0.0
  0
LINE
  5
1265
  8
250
 10
22.0
 20
35.0
 30
0.0
 11
24.23
 21
35.0
 31
0.0
  0
INSERT
  5
1480
  8
240
  2
A$C1B486F61
 10
0.0
 20
0.0
 30
0.0
  0
VIEWPORT
  5
22
 67
     1
  8
0
 10
261.51769911504419
 20
148.5
 30
0.0
 40
523.0353982300885
 41
297.0
 68
     1
 69
     1
1001
ACAD
1000
MVIEW
1002
{
1070
    16
1010
0.0
1020
0.0
1030
0.0
1010
0.0
1020
0.0
1030
1.0
1040
0.0
1040
297.0
1040
261.51769911504419
1040
148.5
1040
50.0
1040
0.0
1040
0.0
1070
     0
1070
   100
1070
     1
1070
     1
1070
     0
1070
     0
1070
     0
1070
     0
1040
0.0
1040
0.0
1040
0.0
1040
1.0
1040
1.0
1040
10.0
1040
10.0
1070
     0
1002
{
1002
}
1002
}
1001
GENIUS_GENODEF_13
1002
{
1000
HIER
1070
     0
1002
}
1002
{
1000
MANEDIT
1070
     0
1002
}
1002
{
1000
NOSEL
1070
     0
1002
}
1002
{
1000
BEHIND
1070
     0
1002
}
1002
{
1000
OTHER
1070
     0
1002
}
1002
{
1000
REACTOR
1002
}
1001
GENIUS_GENOBJ-N-SDF_13
1002
{
1000
OWNER
1000
GEN
1002
}
1001
GENIUS_GENSCREG_15
1000
PF
1040
1.0
1000
DF
1040
1.0
1000
MIN
1011
0.0
1021
0.0
1031
0.0
1021
0.0
1031
0.0
1000
MAX
1011
523.0353982300885
1021
0.0
1031
0.0
1021
297.0
1031
0.0
1000
FLAGS
1070
     2
  0
ENDSEC
  0
EOF
