  0
SECTION
  2
HEADER
  9
$ACADVER
  1
AC1009
  9
$INSBASE
 10
0.0
 20
0.0
 30
0.0
  9
$EXTMIN
 10
-62.047619047619051
 20
-36.0
 30
0.0
  9
$EXTMAX
 10
71.0
 20
61.0
 30
0.0
  9
$LIMMIN
 10
0.0
 20
0.0
  9
$LIMMAX
 10
297.0
 20
210.0
  9
$ORTHOMODE
 70
     0
  9
$REGENMODE
 70
     1
  9
$FILLMODE
 70
     1
  9
$QTEXTMODE
 70
     0
  9
$MIRRTEXT
 70
     1
  9
$DRAGMODE
 70
     2
  9
$LTSCALE
 40
10.0
  9
$OSMODE
 70
   639
  9
$ATTMODE
 70
     1
  9
$TEXTSIZE
 40
3.0
  9
$TRACEWID
 40
1.0
  9
$TEXTSTYLE
  7
YOKO
  9
$CLAYER
  8
240
  9
$CELTYPE
  6
BYLAYER
  9
$CECOLOR
 62
   256
  9
$DIMSCALE
 40
1.0
  9
$DIMASZ
 40
2.2299999999999991
  9
$DIMEXO
 40
0.5
  9
$DIMDLI
 40
2.5
  9
$DIMRND
 40
0.0
  9
$DIMDLE
 40
0.0
  9
$DIMEXE
 40
1.0
  9
$DIMTP
 40
0.0
  9
$DIMTM
 40
0.0
  9
$DIMTXT
 40
3.0
  9
$DIMCEN
 40
0.0
  9
$DIMTSZ
 40
0.0
  9
$DIMTOL
 70
     0
  9
$DIMLIM
 70
     0
  9
$DIMTIH
 70
     0
  9
$DIMTOH
 70
     0
  9
$DIMSE1
 70
     0
  9
$DIMSE2
 70
     0
  9
$DIMTAD
 70
     3
  9
$DIMZIN
 70
     8
  9
$DIMBLK
  1
OPEN
  9
$DIMASO
 70
     1
  9
$DIMSHO
 70
     1
  9
$DIMPOST
  1

  9
$DIMAPOST
  1

  9
$DIMALT
 70
     0
  9
$DIMALTD
 70
     2
  9
$DIMALTF
 40
25.399999999999999
  9
$DIMLFAC
 40
1.0
  9
$DIMTOFL
 70
     1
  9
$DIMTVP
 40
0.0
  9
$DIMTIX
 70
     0
  9
$DIMSOXD
 70
     0
  9
$DIMSAH
 70
     0
  9
$DIMBLK1
  1

  9
$DIMBLK2
  1

  9
$DIMSTYLE
  2
BIGT
  9
$DIMCLRD
 70
   256
  9
$DIMCLRE
 70
   256
  9
$DIMCLRT
 70
    40
  9
$DIMTFAC
 40
1.0
  9
$DIMGAP
 40
1.0
  9
$LUNITS
 70
     2
  9
$LUPREC
 70
     2
  9
$SKETCHINC
 40
1.0
  9
$FILLETRAD
 40
3.0
  9
$AUNITS
 70
     0
  9
$AUPREC
 70
     3
  9
$MENU
  1
.
  9
$ELEVATION
 40
0.0
  9
$PELEVATION
 40
0.0
  9
$THICKNESS
 40
0.0
  9
$LIMCHECK
 70
     0
  9
$BLIPMODE
 70
     0
  9
$CHAMFERA
 40
10.0
  9
$CHAMFERB
 40
10.0
  9
$SKPOLY
 70
     0
  9
$TDCREATE
 40
2452171.4749122802
  9
$TDUPDATE
 40
2453573.4246686921
  9
$TDINDWG
 40
0.2476653009
  9
$TDUSRTIMER
 40
0.2476651157
  9
$USRTIMER
 70
     1
  9
$ANGBASE
 50
0.0
  9
$ANGDIR
 70
     0
  9
$PDMODE
 70
    35
  9
$PDSIZE
 40
-5.0
  9
$PLINEWID
 40
0.0
  9
$COORDS
 70
     0
  9
$SPLFRAME
 70
     0
  9
$SPLINETYPE
 70
     6
  9
$SPLINESEGS
 70
     8
  9
$ATTDIA
 70
     1
  9
$ATTREQ
 70
     1
  9
$HANDLING
 70
     1
  9
$HANDSEED
  5
2659
  9
$SURFTAB1
 70
     6
  9
$SURFTAB2
 70
     6
  9
$SURFTYPE
 70
     6
  9
$SURFU
 70
     6
  9
$SURFV
 70
     6
  9
$UCSNAME
  2

  9
$UCSORG
 10
0.0
 20
0.0
 30
0.0
  9
$UCSXDIR
 10
1.0
 20
0.0
 30
0.0
  9
$UCSYDIR
 10
0.0
 20
1.0
 30
0.0
  9
$PUCSNAME
  2

  9
$PUCSORG
 10
0.0
 20
0.0
 30
0.0
  9
$PUCSXDIR
 10
1.0
 20
0.0
 30
0.0
  9
$PUCSYDIR
 10
0.0
 20
1.0
 30
0.0
  9
$USERI1
 70
     1
  9
$USERI2
 70
     0
  9
$USERI3
 70
     0
  9
$USERI4
 70
     0
  9
$USERI5
 70
     0
  9
$USERR1
 40
0.0
  9
$USERR2
 40
0.0
  9
$USERR3
 40
0.0
  9
$USERR4
 40
0.0
  9
$USERR5
 40
0.0
  9
$WORLDVIEW
 70
     1
  9
$SHADEDGE
 70
     3
  9
$SHADEDIF
 70
    70
  9
$TILEMODE
 70
     1
  9
$MAXACTVP
 70
    16
  9
$PLIMCHECK
 70
     0
  9
$PEXTMIN
 10
1.0000000000000000E+020
 20
1.0000000000000000E+020
 30
1.0000000000000000E+020
  9
$PEXTMAX
 10
-1.0000000000000000E+020
 20
-1.0000000000000000E+020
 30
-1.0000000000000000E+020
  9
$PLIMMIN
 10
0.0
 20
0.0
  9
$PLIMMAX
 10
420.0
 20
297.0
  9
$UNITMODE
 70
     0
  9
$VISRETAIN
 70
     0
  9
$PLINEGEN
 70
     0
  9
$PSLTSCALE
 70
     1
  0
ENDSEC
  0
SECTION
  2
TABLES
  0
TABLE
  2
VPORT
 70
     3
  0
VPORT
  2
*ACTIVE
 70
     0
 10
0.0
 20
0.0
 11
1.0
 21
1.0
 12
4.4786704576634966
 22
12.49919177021269
 13
0.0
 23
0.0
 14
7.0
 24
7.0
 15
7.0
 25
7.0
 16
0.0
 26
0.0
 36
1.0
 17
0.0
 27
0.0
 37
0.0
 40
97.585747468388163
 41
1.5029527559055109
 42
50.0
 43
0.0
 44
0.0
 50
0.0
 51
0.0
 71
     0
 72
  2000
 73
     1
 74
     0
 75
     0
 76
     0
 77
     0
 78
     0
  0
ENDTAB
  0
TABLE
  2
LTYPE
 70
    19
  0
LTYPE
  2
CONTINUOUS
 70
     0
  3
Solid line
 72
    65
 73
     0
 40
0.0
  0
LTYPE
  2
CENTER2
 70
     0
  3
___ _ ___ _ ___ _ ___ _ ___ _ ___ _ ___ _ ___ _
 72
    65
 73
     4
 40
1.125
 49
0.75
 49
-0.125
 49
0.125
 49
-0.125
  0
LTYPE
  2
HIDDEN2
 70
     0
  3
_ _ _ _ _ _ _ _ _ _ _ _ _ _ _ _ _ _ _ _ _ _ _ _
 72
    65
 73
     2
 40
0.1875
 49
0.125
 49
-0.0625
  0
LTYPE
  2
PHANTOM2
 70
     0
  3
___ _ _ ___ _ _ ___ _ _ ___ _ _ ___ _ _ ___ _ _
 72
    65
 73
     6
 40
1.25
 49
0.625
 49
-0.125
 49
0.125
 49
-0.125
 49
0.125
 49
-0.125
  0
LTYPE
  2
HIDDEN
 70
     0
  3
Hidden __ __ __ __ __ __ __ __ __ __ __ __ __ _
 72
    65
 73
     2
 40
9.5249999999999986
 49
6.3499999999999979
 49
-3.174999999999998
  0
LTYPE
  2
CENTER
 70
     0
  3
Center ____ _ ____ _ ____ _ ____ _ ____ _ ____
 72
    65
 73
     4
 40
50.799999999999997
 49
31.75
 49
-6.3499999999999979
 49
6.3499999999999979
 49
-6.3499999999999979
  0
LTYPE
  2
AMCONSTR
 70
     0
  3
_______________________
 72
    65
 73
     2
 40
9999.0
 49
9999.0
 49
0.0
  0
LTYPE
  2
AMZIGZAG2
 70
     0
  3
/\/-/\/-/\/-/\/-/\/-/\/
 72
    65
 73
     2
 40
0.4401
 49
0.0001
 49
-0.4400000000000001
  0
LTYPE
  2
ACANSTGB
 70
     0
  3
__ . . __ . .
 72
    65
 73
     6
 40
0.35433070866
 49
0.15748031496
 49
-0.03937007874
 49
0.03937007874
 49
-0.03937007874
 49
0.03937007874
 49
-0.03937007874
  0
LTYPE
  2
ACANSTGL
 70
     0
  3
_ _ _ _ _
 72
    65
 73
     2
 40
0.11811023622
 49
0.07874015748
 49
-0.03937007874
  0
ENDTAB
  0
TABLE
  2
LAYER
 70
    10
  0
LAYER
  2
0
 70
     0
 62
     7
  6
CONTINUOUS
  0
LAYER
  2
240
 70
     0
 62
     4
  6
CONTINUOUS
  0
LAYER
  2
241
 70
     0
 62
   211
  6
CONTINUOUS
  0
LAYER
  2
242
 70
     0
 62
     3
  6
CONTINUOUS
  0
LAYER
  2
243
 70
     0
 62
   211
  6
HIDDEN2
  0
LAYER
  2
245
 70
     0
 62
     2
  6
CENTER2
  0
LAYER
  2
246
 70
     0
 62
     3
  6
PHANTOM2
  0
LAYER
  2
247
 70
     0
 62
    60
  6
CONTINUOUS
  0
LAYER
  2
250
 70
     0
 62
     3
  6
CONTINUOUS
  0
LAYER
  2
DEFPOINTS
 70
     0
 62
     7
  6
CONTINUOUS
  0
ENDTAB
  0
TABLE
  2
STYLE
 70
     7
  0
STYLE
  2
STANDARD
 70
     0
 40
0.0
 41
1.0
 50
0.0
 71
     0
 42
3.0
  3
romans.shx
  4
BIGFONT.SHX
  0
STYLE
  2
YOKO
 70
     0
 40
0.0
 41
1.0
 50
0.0
 71
     0
 42
3.0
  3
romans.shx
  4
extfont.shx
  0
STYLE
  2

 70
     1
 40
0.0
 41
1.0
 50
0.0
 71
     0
 42
3.0
  3
ltypeshp.shx
  4

  0
STYLE
  2
ACANSTS
 70
     0
 40
1.0
 41
1.0
 50
0.0
 71
     0
 42
3.0
  3
romans.shx
  4
extfont.shx
  0
STYLE
  2
ACANSGDT
 70
     0
 40
0.0
 41
1.0
 50
0.0
 71
     0
 42
3.0
  3
amgdtans.shx
  4

  0
ENDTAB
  0
TABLE
  2
VIEW
 70
     0
  0
ENDTAB
  0
TABLE
  2
UCS
 70
     0
  0
ENDTAB
  0
TABLE
  2
APPID
 70
    21
  0
APPID
  2
ACAD
 70
     0
  0
APPID
  2
GLOBAL
 70
     0
  0
APPID
  2
DETAIL
 70
     0
  0
APPID
  2
GRPNAME
 70
     0
  0
APPID
  2
GPARA
 70
     0
  0
APPID
  2
ITEMNAME
 70
     0
  0
APPID
  2
INSERT_PATH
 70
     0
  0
APPID
  2
INSERT_NAME
 70
     0
  0
APPID
  2
HATCH_TYPE
 70
     0
  0
APPID
  2
HATCH_DISPLAY
 70
     0
  0
APPID
  2
HATCH_DISTANCE
 70
     0
  0
APPID
  2
MCAD_NO_VIS
 70
     0
  0
APPID
  2
ACAD_TEMP_GRAPHIC
 70
     0
  0
APPID
  2
AD_DRAW
 70
     0
  0
APPID
  2
ACATTRIBSERVICES
 70
     0
  0
APPID
  2
DESIGNERASSEMBLIES
 70
     0
  0
APPID
  2
ACADM_DIM_EDIT
 70
     0
  0
APPID
  2
AMDT_DM_ADJ
 70
     0
  0
APPID
  2
GENIUS_GENSCREG_15
 70
     0
  0
APPID
  2
GENIUS_GENOBJ-N-SDF_13
 70
     0
  0
APPID
  2
GENIUS_GENODEF_13
 70
     0
  0
ENDTAB
  0
TABLE
  2
DIMSTYLE
 70
    14
  0
DIMSTYLE
  2
BIGT
 70
     0
  3

  4

  5

  6

  7

 40
1.0
 41
2.2299999999999991
 42
0.5
 43
2.5
 44
1.0
 45
0.0
 46
0.0
 47
0.0
 48
0.0
140
3.5
141
0.0
142
0.0
143
25.399999999999999
144
1.0
145
0.0
146
1.0
147
1.0
 71
     0
 72
     0
 73
     0
 74
     0
 75
     0
 76
     0
 77
     3
 78
     9
170
     0
171
     2
172
     1
173
     0
174
     0
175
     0
176
   256
177
   256
178
    40
  0
DIMSTYLE
  2
AM_ANSI
 70
     0
  3

  4
mm
  5

  6

  7

 40
1.0
 41
0.1
 42
0.05
 43
0.5
 44
0.1
 45
0.0
 46
0.0
 47
0.1
 48
0.1
140
0.12
141
0.0
142
0.0
143
25.399999999999999
144
1.0
145
0.0
146
0.71
147
0.06
 71
     0
 72
     0
 73
     1
 74
     1
 75
     0
 76
     0
 77
     0
 78
     7
170
     0
171
     2
172
     0
173
     0
174
     0
175
     0
176
   256
177
   256
178
     2
  0
DIMSTYLE
  2
AM_ANSI$3
 70
     0
  3

  4
mm
  5

  6

  7

 40
1.0
 41
0.1
 42
0.05
 43
0.5
 44
0.1
 45
0.0
 46
0.0
 47
0.1
 48
0.1
140
0.12
141
0.0
142
0.0
143
25.399999999999999
144
1.0
145
0.0
146
0.71
147
0.06
 71
     0
 72
     0
 73
     1
 74
     1
 75
     0
 76
     0
 77
     0
 78
     7
170
     0
171
     2
172
     0
173
     0
174
     0
175
     0
176
   256
177
   256
178
     2
  0
DIMSTYLE
  2
AM_ANSI$4
 70
     0
  3

  4
mm
  5

  6

  7

 40
1.0
 41
0.1
 42
0.05
 43
0.5
 44
0.1
 45
0.0
 46
0.0
 47
0.1
 48
0.1
140
0.12
141
0.0
142
0.0
143
25.399999999999999
144
1.0
145
0.0
146
0.71
147
0.06
 71
     0
 72
     0
 73
     1
 74
     1
 75
     0
 76
     0
 77
     0
 78
     7
170
     0
171
     2
172
     0
173
     0
174
     0
175
     0
176
   256
177
   256
178
     2
  0
DIMSTYLE
  2
AM_ANSI$7
 70
     0
  3

  4
mm
  5

  6

  7

 40
1.0
 41
0.1
 42
0.05
 43
0.5
 44
0.1
 45
0.0
 46
0.0
 47
0.1
 48
0.1
140
0.24
141
0.0
142
0.0
143
25.399999999999999
144
1.0
145
0.0
146
0.71
147
0.06
 71
     0
 72
     0
 73
     1
 74
     1
 75
     0
 76
     0
 77
     0
 78
     7
170
     0
171
     2
172
     0
173
     0
174
     0
175
     0
176
   256
177
   256
178
     2
  0
DIMSTYLE
  2
AM_ANSI$SF
 70
     0
  3

  4
mm
  5

  6

  7

 40
1.0
 41
0.1
 42
0.05
 43
0.5
 44
0.1
 45
0.0
 46
0.0
 47
0.1
 48
0.1
140
0.12
141
0.0
142
0.0
143
25.399999999999999
144
1.0
145
0.0
146
0.71
147
0.06
 71
     0
 72
     0
 73
     1
 74
     1
 75
     1
 76
     1
 77
     0
 78
     7
170
     0
171
     2
172
     0
173
     0
174
     0
175
     0
176
   256
177
   256
178
     2
  0
DIMSTYLE
  2
AM_ANSI$SH
 70
     0
  3

  4
mm
  5

  6
GENAXEH
  7

 40
1.0
 41
0.1
 42
0.05
 43
0.5
 44
0.1
 45
0.0
 46
0.0
 47
0.1
 48
0.1
140
0.12
141
0.0
142
0.0
143
25.399999999999999
144
1.0
145
0.0
146
0.71
147
0.06
 71
     0
 72
     0
 73
     1
 74
     1
 75
     1
 76
     1
 77
     0
 78
     7
170
     0
171
     2
172
     0
173
     1
174
     0
175
     0
176
   256
177
   256
178
     2
  0
ENDTAB
  0
ENDSEC
  0
SECTION
  2
BLOCKS
  0
BLOCK
  8
0
  2
$MODEL_SPACE
 70
     0
 10
0.0
 20
0.0
 30
0.0
  3
$MODEL_SPACE
  1

  0
ENDBLK
  5
2546
  8
0
  0
BLOCK
 67
     1
  8
0
  2
$PAPER_SPACE
 70
     0
 10
0.0
 20
0.0
 30
0.0
  3
$PAPER_SPACE
  1

  0
ENDBLK
  5
2542
 67
     1
  8
0
  0
BLOCK
  8
0
  2
_OPEN
 70
     0
 10
0.0
 20
0.0
 30
0.0
  3
_OPEN
  1

  0
LINE
  5
595
  8
0
  6
BYBLOCK
 62
     0
 10
-1.0
 20
0.1666666666666666
 30
0.0
 11
0.0
 21
0.0
 31
0.0
  0
LINE
  5
596
  8
0
  6
BYBLOCK
 62
     0
 10
-1.0
 20
-0.1666666666666666
 30
0.0
 11
0.0
 21
0.0
 31
0.0
  0
LINE
  5
597
  8
0
  6
BYBLOCK
 62
     0
 10
0.0
 20
0.0
 30
0.0
 11
-1.0
 21
0.0
 31
0.0
  0
ENDBLK
  5
599
  8
0
  0
BLOCK
  8
0
  2
GENAXEH
 70
     0
 10
0.0
 20
0.0
 30
0.0
  3
GENAXEH
  1

  0
LINE
  5
21CC
  8
0
 10
-1.0
 20
0.0
 30
0.0
 11
1.0
 21
0.0
 31
0.0
  0
ENDBLK
  5
21CE
  8
0
  0
BLOCK
  8
0
  2
A$C7F83289D
 70
     0
 10
0.0
 20
0.0
 30
0.0
  3
A$C7F83289D
  1

  0
ARC
  5
235B
  8
240
 10
21.200000000000038
 20
22.200000000000038
 30
0.0
 40
0.799999999999983
 50
0.0
 51
90.0
  0
LINE
  5
235C
  8
240
 10
17.518362671936611
 20
22.85860000000002
 30
0.0
 11
17.76327465612686
 21
23.0
 31
0.0
  0
LINE
  5
235D
  8
240
 10
15.30000000000002
 20
19.016283142591568
 30
0.0
 11
17.500000000000011
 21
22.82679491924312
 31
0.0
  0
LINE
  5
235E
  8
243
 10
19.000000000000021
 20
16.300000000000001
 30
0.0
 11
19.000000000000021
 21
23.0
 31
0.0
  0
LINE
  5
235F
  8
240
 10
9.4367253438731762
 20
23.0
 30
0.0
 11
9.6816373280634274
 21
22.85860000000002
 31
0.0
  0
LINE
  5
2360
  8
240
 10
11.9
 20
19.016283142591519
 30
0.0
 11
9.6816373280634274
 21
22.85860000000002
 31
0.0
  0
LINE
  5
2361
  8
240
 10
11.9
 20
19.0
 30
0.0
 11
15.30000000000002
 21
19.0
 31
0.0
  0
LINE
  5
2362
  8
240
 10
17.76327465612686
 20
23.0
 30
0.0
 11
21.200000000000038
 21
23.0
 31
0.0
  0
LINE
  5
2363
  8
240
 10
44.85355339059327
 20
9.4464466094067365
 30
0.0
 11
44.475735931288042
 21
9.8242640687119511
 31
0.0
  0
ARC
  5
2364
  8
240
 10
44.051471862576093
 20
9.3999999999999755
 30
0.0
 40
0.6000000000000089
 50
45.000000000001151
 51
90.0
  0
ARC
  5
2365
  8
240
 10
44.5
 20
9.0928932188133995
 30
0.0
 40
0.5
 50
0.0
 51
45.0
  0
LINE
  5
2366
  8
246
 10
43.80000000000004
 20
4.75
 30
0.0
 11
45.000000000000057
 21
4.057179676972396
 31
0.0
  0
LINE
  5
2367
  8
246
 10
43.700000000000003
 20
4.099999999999965
 30
0.0
 11
43.69999999999996
 21
4.7499999999999432
 31
0.0
  0
LINE
  5
2368
  8
246
 10
43.69999999999996
 20
4.7499999999999432
 30
0.0
 11
43.80000000000004
 21
4.7499999999999432
 31
0.0
  0
LINE
  5
2369
  8
240
 10
45.0
 20
9.0928932188133995
 30
0.0
 11
45.0
 21
0.0
 31
0.0
  0
LINE
  5
236A
  8
241
 10
41.500000000000021
 20
9.2173294280422056
 30
0.0
 11
41.500000000000021
 21
7.9673294280422038
 31
0.0
  0
ARC
  5
236B
  8
240
 10
36.399999999999999
 20
9.3999999999999755
 30
0.0
 40
0.6000000000000088
 50
90.0
 51
180.0
  0
LINE
  5
236C
  8
240
 10
35.500000000000021
 20
7.25
 30
0.0
 11
35.800000000000011
 21
7.5500000000000131
 31
0.0
  0
LINE
  5
236D
  8
240
 10
35.800000000000011
 20
9.3999999999999755
 30
0.0
 11
35.800000000000011
 21
7.5500000000000131
 31
0.0
  0
LINE
  5
236E
  8
241
 10
41.500000000000021
 20
9.2173294280422056
 30
0.0
 11
35.800000000000011
 21
9.2173294280422056
 31
0.0
  0
LINE
  5
236F
  8
241
 10
41.500000000000021
 20
7.9673294280422038
 30
0.0
 11
35.800000000000011
 21
7.9673294280422038
 31
0.0
  0
LINE
  5
2370
  8
246
 10
42.400000000000013
 20
4.099999999999965
 30
0.0
 11
42.400000000000013
 21
4.7499999999999432
 31
0.0
  0
LINE
  5
2371
  8
241
 10
41.500000000000021
 20
1.25
 30
0.0
 11
41.500000000000021
 21
0.0
 31
0.0
  0
LINE
  5
2372
  8
242
 10
32.500000000000028
 20
6.0
 30
0.0
 11
33.00000000000005
 21
5.5
 31
0.0
  0
LINE
  5
2373
  8
240
 10
32.000000000000021
 20
6.0
 30
0.0
 11
35.500000000000021
 21
6.0
 31
0.0
  0
LINE
  5
2374
  8
242
 10
35.500000000000021
 20
5.5
 30
0.0
 11
33.00000000000005
 21
5.5
 31
0.0
  0
LINE
  5
2375
  8
241
 10
33.00000000000005
 20
5.5
 30
0.0
 11
33.00000000000005
 21
0.0
 31
0.0
  0
LINE
  5
2376
  8
241
 10
35.500000000000021
 20
6.0
 30
0.0
 11
35.500000000000021
 21
0.0
 31
0.0
  0
LINE
  5
2377
  8
241
 10
41.500000000000021
 20
1.25
 30
0.0
 11
35.800000000000011
 21
1.25
 31
0.0
  0
LINE
  5
2378
  8
241
 10
35.800000000000011
 20
7.5500000000000131
 30
0.0
 11
35.800000000000011
 21
0.0
 31
0.0
  0
LINE
  5
2379
  8
240
 10
35.500000000000021
 20
7.25
 30
0.0
 11
35.500000000000021
 21
6.0
 31
0.0
  0
LINE
  5
237A
  8
240
 10
36.399999999999999
 20
10.0
 30
0.0
 11
44.051471862576093
 21
10.0
 31
0.0
  0
LINE
  5
237B
  8
246
 10
42.400000000000013
 20
4.099999999999965
 30
0.0
 11
43.700000000000003
 21
4.099999999999965
 31
0.0
  0
LINE
  5
237C
  8
246
 10
43.700000000000003
 20
-4.100000000000021
 30
0.0
 11
43.69999999999996
 21
-4.75
 31
0.0
  0
LINE
  5
237D
  8
246
 10
43.80000000000004
 20
-4.75
 30
0.0
 11
45.000000000000057
 21
-4.0571796769724227
 31
0.0
  0
LINE
  5
237E
  8
246
 10
43.69999999999996
 20
-4.75
 30
0.0
 11
43.80000000000004
 21
-4.75
 31
0.0
  0
LINE
  5
237F
  8
240
 10
44.475735931288042
 20
-9.8242640687119511
 30
0.0
 11
44.85355339059327
 21
-9.4464466094067365
 31
0.0
  0
ARC
  5
2380
  8
240
 10
44.051471862576093
 20
-9.4000000000000021
 30
0.0
 40
0.5999999999999944
 50
270.0
 51
314.99999999999869
  0
ARC
  5
2381
  8
240
 10
44.5
 20
-9.0928932188134581
 30
0.0
 40
0.500000000000004
 50
315.0
 51
0.0
  0
LINE
  5
2382
  8
246
 10
42.400000000000013
 20
-4.100000000000021
 30
0.0
 11
42.400000000000013
 21
-4.75
 31
0.0
  0
LINE
  5
2383
  8
241
 10
41.500000000000021
 20
-9.2173294280422322
 30
0.0
 11
41.500000000000021
 21
-7.9673294280422624
 31
0.0
  0
LINE
  5
2384
  8
240
 10
35.500000000000021
 20
-7.25
 30
0.0
 11
35.800000000000011
 21
-7.5500000000000131
 31
0.0
  0
LINE
  5
2385
  8
240
 10
35.500000000000021
 20
-7.25
 30
0.0
 11
35.500000000000021
 21
-6.0
 31
0.0
  0
LINE
  5
2386
  8
242
 10
32.5
 20
-6.0
 30
0.0
 11
33.0
 21
-5.5
 31
0.0
  0
LINE
  5
2387
  8
240
 10
32.000000000000021
 20
-6.0
 30
0.0
 11
35.500000000000021
 21
-6.0
 31
0.0
  0
LINE
  5
2388
  8
242
 10
35.500000000000021
 20
-5.5
 30
0.0
 11
33.0
 21
-5.5
 31
0.0
  0
LINE
  5
2389
  8
241
 10
41.500000000000021
 20
-7.9673294280422624
 30
0.0
 11
35.800000000000011
 21
-7.9673294280422624
 31
0.0
  0
LINE
  5
238A
  8
241
 10
41.500000000000021
 20
-9.2173294280422322
 30
0.0
 11
35.800000000000011
 21
-9.2173294280422322
 31
0.0
  0
LINE
  5
238B
  8
241
 10
41.500000000000021
 20
-1.25
 30
0.0
 11
35.800000000000011
 21
-1.25
 31
0.0
  0
ARC
  5
238C
  8
240
 10
36.399999999999999
 20
-9.4000000000000021
 30
0.0
 40
0.5999999999999944
 50
180.0
 51
270.0
  0
LINE
  5
238D
  8
240
 10
35.800000000000011
 20
-9.4000000000000021
 30
0.0
 11
35.800000000000011
 21
-7.5500000000000131
 31
0.0
  0
LINE
  5
238E
  8
240
 10
36.399999999999999
 20
-10.0
 30
0.0
 11
44.051471862576093
 21
-10.0
 31
0.0
  0
LINE
  5
238F
  8
246
 10
42.400000000000013
 20
-4.100000000000021
 30
0.0
 11
43.700000000000003
 21
-4.100000000000021
 31
0.0
  0
LINE
  5
2390
  8
241
 10
33.0
 20
-5.5
 30
0.0
 11
33.0
 21
0.0
 31
0.0
  0
LINE
  5
2391
  8
241
 10
35.800000000000011
 20
-7.5500000000000131
 30
0.0
 11
35.800000000000011
 21
0.0
 31
0.0
  0
LINE
  5
2392
  8
241
 10
35.500000000000021
 20
-6.0
 30
0.0
 11
35.500000000000021
 21
0.0
 31
0.0
  0
LINE
  5
2393
  8
241
 10
44.051471862576093
 20
-9.6499526963103222
 30
0.0
 11
44.051471862576093
 21
9.6026490066225278
 31
0.0
  0
LINE
  5
2394
  8
240
 10
45.0
 20
-9.0928932188134581
 30
0.0
 11
45.0
 21
0.0
 31
0.0
  0
LINE
  5
2395
  8
241
 10
41.500000000000021
 20
-1.25
 30
0.0
 11
41.500000000000021
 21
0.0
 31
0.0
  0
ARC
  5
2396
  8
240
 10
30.000000000000028
 20
8.75
 30
0.0
 40
1.0000000000000271
 50
0.0
 51
90.0
  0
ARC
  5
2397
  8
240
 10
25.000000000000028
 20
12.75
 30
0.0
 40
3.0
 50
180.0
 51
270.0
  0
LINE
  5
2398
  8
240
 10
25.000000000000028
 20
9.75
 30
0.0
 11
30.000000000000028
 21
9.75
 31
0.0
  0
LINE
  5
2399
  8
241
 10
31.00000000000005
 20
7.0
 30
0.0
 11
31.000000000000028
 21
0.0
 31
0.0
  0
LINE
  5
239A
  8
240
 10
31.00000000000005
 20
8.75
 30
0.0
 11
31.00000000000005
 21
7.0
 31
0.0
  0
LINE
  5
239B
  8
246
 10
14.50000000000002
 20
3.4999999999999432
 30
0.0
 11
15.00000000000002
 21
2.9999999999999432
 31
0.0
  0
LINE
  5
239C
  8
246
 10
13.40470053837924
 20
-1.1547005383793021
 30
0.0
 11
13.40470053837924
 21
1.154700538379245
 31
0.0
  0
LINE
  5
239D
  8
246
 10
10.50000000000008
 20
1.5
 30
0.0
 11
10.699358737117841
 21
1.154700538379245
 31
0.0
  0
LINE
  5
239E
  8
246
 10
10.5
 20
1.5
 30
0.0
 11
10.5
 21
0.8239997558519006
 31
0.0
  0
LINE
  5
239F
  8
246
 10
10.699358737117841
 20
-1.1547005383793021
 30
0.0
 11
10.699358737117899
 21
1.154700538379245
 31
0.0
  0
LINE
  5
23A0
  8
246
 10
13.40470053837924
 20
-1.1547005383793021
 30
0.0
 11
10.699358737117841
 21
-1.1547005383793021
 31
0.0
  0
LINE
  5
23A1
  8
246
 10
13.40470053837924
 20
-0.5773502691896512
 30
0.0
 11
10.699358737117841
 21
-0.5773502691896512
 31
0.0
  0
LINE
  5
23A2
  8
246
 10
13.40470053837924
 20
0.5773502691895942
 30
0.0
 11
10.699358737117841
 21
0.5773502691895942
 31
0.0
  0
LINE
  5
23A3
  8
246
 10
13.40470053837924
 20
1.154700538379245
 30
0.0
 11
10.699358737117841
 21
1.154700538379245
 31
0.0
  0
LINE
  5
23A4
  8
246
 10
15.00000000000002
 20
2.75
 30
0.0
 11
13.40470053837924
 21
1.154700538379245
 31
0.0
  0
LINE
  5
23A5
  8
240
 10
31.00000000000005
 20
-8.75
 30
0.0
 11
31.00000000000005
 21
-7.0000000000000258
 31
0.0
  0
LINE
  5
23A6
  8
240
 10
25.000000000000028
 20
-9.75
 30
0.0
 11
30.000000000000028
 21
-9.75
 31
0.0
  0
ARC
  5
23A7
  8
240
 10
25.000000000000028
 20
-12.75
 30
0.0
 40
3.0
 50
90.0
 51
180.0
  0
ARC
  5
23A8
  8
240
 10
30.000000000000028
 20
-8.75
 30
0.0
 40
1.0000000000000131
 50
270.0
 51
0.0
  0
LINE
  5
23A9
  8
246
 10
15.00000000000002
 20
-3.0
 30
0.0
 11
14.50000000000002
 21
-3.5
 31
0.0
  0
LINE
  5
23AA
  8
241
 10
22.000000000000021
 20
12.75
 30
0.0
 11
22.000000000000021
 21
-12.75
 31
0.0
  0
LINE
  5
23AB
  8
246
 10
15.00000000000002
 20
-3.0
 30
0.0
 11
15.00000000000002
 21
2.9999999999999432
 31
0.0
  0
LINE
  5
23AC
  8
246
 10
10.5
 20
-1.5000000000000271
 30
0.0
 11
10.5
 21
-0.8514664143803543
 31
0.0
  0
LINE
  5
23AD
  8
246
 10
10.50000000000008
 20
-1.5000000000000271
 30
0.0
 11
10.699358737117841
 21
-1.1547005383793021
 31
0.0
  0
LINE
  5
23AE
  8
246
 10
15.00000000000002
 20
-2.750000000000028
 30
0.0
 11
13.40470053837924
 21
-1.1547005383793021
 31
0.0
  0
LINE
  5
23AF
  8
241
 10
31.00000000000005
 20
-7.0000000000000258
 30
0.0
 11
31.000000000000028
 21
0.0
 31
0.0
  0
LINE
  5
23B0
  8
246
 10
42.400000000000013
 20
-4.75
 30
0.0
 11
31.00000000000048
 21
-3.5518117179715021
 31
0.0
  0
LINE
  5
23B1
  8
246
 10
31.000000000000028
 20
-3.0
 30
0.0
 11
45.000000000000057
 21
-3.0
 31
0.0
  0
LINE
  5
23B2
  8
246
 10
42.400000000000013
 20
4.7499999999999432
 30
0.0
 11
30.999999999999769
 21
3.5518117179714159
 31
0.0
  0
LINE
  5
23B3
  8
246
 10
31.000000000000028
 20
3.0
 30
0.0
 11
45.000000000000057
 21
3.0
 31
0.0
  0
ARC
  5
23B4
  8
240
 10
32.000000000000021
 20
-7.0000000000000258
 30
0.0
 40
1.0000000000000131
 50
90.0
 51
180.0
  0
ARC
  5
23B5
  8
240
 10
32.000000000000021
 20
7.0
 30
0.0
 40
0.9999999999999715
 50
180.0
 51
270.0
  0
LINE
  5
23B6
  8
240
 10
22.000000000000021
 20
12.75
 30
0.0
 11
22.000000000000021
 21
22.200000000000038
 31
0.0
  0
ARC
  5
23B7
  8
240
 10
21.200000000000038
 20
-22.199999999999982
 30
0.0
 40
0.8000000000000112
 50
270.0
 51
0.0
  0
LINE
  5
23B8
  8
240
 10
17.518362671936611
 20
-22.858599999999988
 30
0.0
 11
17.76327465612686
 21
-23.0
 31
0.0
  0
LINE
  5
23B9
  8
240
 10
15.30000000000002
 20
-19.016283142591561
 30
0.0
 11
17.518362671936611
 21
-22.858599999999988
 31
0.0
  0
LINE
  5
23BA
  8
240
 10
9.436725343873233
 20
-23.0
 30
0.0
 11
9.6816373280634878
 21
-22.85859999999996
 31
0.0
  0
LINE
  5
23BB
  8
240
 10
11.9
 20
-19.016283142591519
 30
0.0
 11
9.6816373280634878
 21
-22.858599999999932
 31
0.0
  0
LINE
  5
23BC
  8
240
 10
11.9
 20
-19.0
 30
0.0
 11
15.30000000000002
 21
-19.0
 31
0.0
  0
LINE
  5
23BD
  8
240
 10
21.200000000000038
 20
-23.0
 30
0.0
 11
17.76327465612686
 21
-23.0
 31
0.0
  0
LINE
  5
23BE
  8
241
 10
15.30000000000002
 20
-19.0
 30
0.0
 11
15.30000000000002
 21
19.0
 31
0.0
  0
LINE
  5
23BF
  8
241
 10
11.9
 20
-19.0
 30
0.0
 11
11.9
 21
19.0
 31
0.0
  0
LINE
  5
23C0
  8
241
 10
9.6000000000000512
 20
22.90573333333327
 30
0.0
 11
9.6000000000000512
 21
-22.90573333333333
 31
0.0
  0
LINE
  5
23C1
  8
241
 10
17.600000000000051
 20
22.90573333333333
 30
0.0
 11
17.600000000000051
 21
-22.90573333333333
 31
0.0
  0
LINE
  5
23C2
  8
243
 10
19.000000000000021
 20
-16.300000000000001
 30
0.0
 11
19.000000000000021
 21
-23.0
 31
0.0
  0
LINE
  5
23C3
  8
240
 10
22.000000000000021
 20
-22.199999999999982
 30
0.0
 11
22.000000000000021
 21
-12.75
 31
0.0
  0
LINE
  5
23C4
  8
240
 10
0.5
 20
15.94791838842974
 30
0.0
 11
2.0
 21
15.94791838842974
 31
0.0
  0
LINE
  5
23C5
  8
240
 10
2.0
 20
22.200000000000038
 30
0.0
 11
2.0
 21
15.94791838842974
 31
0.0
  0
ARC
  5
23C6
  8
240
 10
2.8000000000000109
 20
22.200000000000038
 30
0.0
 40
0.8000000000000112
 50
90.0
 51
180.0
  0
LINE
  5
23C7
  8
246
 10
3.0
 20
1.899999999999975
 30
0.0
 11
3.0
 21
1.849999999999965
 31
0.0
  0
LINE
  5
23C8
  8
246
 10
4.0000000000000284
 20
2.899999999999975
 30
0.0
 11
5.000000000000056
 21
2.899999999999975
 31
0.0
  0
ARC
  5
23C9
  8
246
 10
4.0000000000000284
 20
1.899999999999975
 30
0.0
 40
1.0
 50
90.0
 51
180.0
  0
LINE
  5
23CA
  8
246
 10
5.000000000000056
 20
2.899999999999975
 30
0.0
 11
5.600000000000021
 21
3.4999999999999432
 31
0.0
  0
ARC
  5
23CB
  8
246
 10
4.0000000000000284
 20
-1.899999999999975
 30
0.0
 40
1.0
 50
180.0
 51
270.0
  0
LINE
  5
23CC
  8
246
 10
3.0
 20
-1.9000000000000341
 30
0.0
 11
3.0
 21
-1.8500000000000221
 31
0.0
  0
LINE
  5
23CD
  8
246
 10
4.0000000000000284
 20
-2.899999999999975
 30
0.0
 11
5.000000000000056
 21
-2.899999999999975
 31
0.0
  0
LINE
  5
23CE
  8
246
 10
5.000000000000056
 20
-2.899999999999975
 30
0.0
 11
5.600000000000021
 21
-3.5
 31
0.0
  0
LINE
  5
23CF
  8
247
 10
6.1405593887978114
 20
-14.72742410256239
 30
0.0
 11
5.8374282852821846
 21
-14.640506225365121
 31
0.0
1001
ACAD
1000
ASC_BOUNDS
1002
{
1070
    19
1005
240D
1002
}
  0
LINE
  5
23D0
  8
247
 10
7.383388115566305
 20
-14.20083566262098
 30
0.0
 11
5.8374282852821846
 21
-13.757537322777241
 31
0.0
1001
ACAD
1000
ASC_BOUNDS
1002
{
1070
    19
1005
240D
1002
}
  0
LINE
  5
23D1
  8
247
 10
5.8374282852821846
 20
-14.640506225365121
 30
0.0
 11
5.8374282852821846
 21
-13.757537322777241
 31
0.0
1001
ACAD
1000
ASC_BOUNDS
1002
{
1070
    19
1005
240D
1002
}
  0
LINE
  5
23D2
  8
247
 10
7.383388115566305
 20
-17.196612792747938
 30
0.0
 11
7.383388115566305
 21
-16.518619018333862
 31
0.0
  0
LINE
  5
23D3
  8
247
 10
7.2055812613182573
 20
-14.378653960960831
 30
0.0
 11
7.383388115566305
 21
-14.20083566262098
 31
0.0
1001
ACAD
1000
ASC_BOUNDS
1002
{
1070
    19
1005
240D
1002
}
  0
ARC
  5
23D4
  8
247
 10
6.731658174198202
 20
-14.975760894554581
 30
0.0
 40
0.3182872831821442
 50
254.00027305718419
 51
74.000273057184273
1001
ACAD
1000
ASC_BOUNDS
1002
{
1070
    19
1005
240D
1002
}
  0
LINE
  5
23D5
  8
247
 10
6.819388581913044
 20
-14.669803100365121
 30
0.0
 11
6.1405593887978114
 21
-14.475150542992081
 31
0.0
1001
ACAD
1000
ASC_BOUNDS
1002
{
1070
    19
1005
240D
1002
}
  0
LINE
  5
23D6
  8
247
 10
6.1405593887978114
 20
-14.72742410256239
 30
0.0
 11
6.1405593887978114
 21
-14.475150542992081
 31
0.0
1001
ACAD
1000
ASC_BOUNDS
1002
{
1070
    19
1005
240D
1002
}
  0
ARC
  5
23D7
  8
247
 10
6.398223115604452
 20
-14.94321389748427
 30
0.0
 40
0.9851760864257813
 50
253.99975070172769
 51
34.963873291630819
1001
ACAD
1000
ASC_BOUNDS
1002
{
1070
    19
1005
240D
1002
}
  0
LINE
  5
23D8
  8
247
 10
4.6552307144814051
 20
-16.52469583107802
 30
0.0
 11
4.6552307144814051
 21
-15.73633523537489
 31
0.0
  0
LINE
  5
23D9
  8
247
 10
4.9886657730751551
 20
-16.620311218040911
 30
0.0
 11
4.6552307144814051
 21
-16.52469583107802
 31
0.0
  0
LINE
  5
23DA
  8
247
 10
4.9886657730751551
 20
-16.620311218040911
 30
0.0
 11
4.9886657730751551
 21
-16.509932952660051
 31
0.0
  0
ARC
  5
23DB
  8
247
 10
6.2466575638466368
 20
-13.37802835060927
 30
0.0
 40
1.591427564620969
 50
200.22964506332011
 51
208.57168892371649
1001
ACAD
1000
ASC_BOUNDS
1002
{
1070
    19
1005
240D
1002
}
  0
LINE
  5
23DC
  8
247
 10
5.0428993241005431
 20
-13.837027984398331
 30
0.0
 11
4.7533981339149971
 21
-13.928317504661999
 31
0.0
1001
ACAD
1000
ASC_BOUNDS
1002
{
1070
    19
1005
240D
1002
}
  0
ARC
  5
23DD
  8
247
 10
6.2466575638466368
 20
-13.37802835060927
 30
0.0
 40
1.288299322128293
 50
200.87218340207721
 51
222.54194893738691
1001
ACAD
1000
ASC_BOUNDS
1002
{
1070
    19
1005
240D
1002
}
  0
POLYLINE
  5
23DE
  8
247
 66
     1
 10
0.0
 20
0.0
 30
0.0
 70
     1
1001
HATCH_DISTANCE
1040
1.0
1001
HATCH_DISPLAY
1070
     0
1001
HATCH_TYPE
1070
     7
  0
VERTEX
  5
23DF
  8
247
 10
4.99731750647359
 20
-13.692477660911999
 30
0.0
  0
VERTEX
  5
23E0
  8
247
 10
4.7078163162880431
 20
-13.783767181175669
 30
0.0
  0
VERTEX
  5
23E1
  8
247
 10
4.7078163162880431
 20
-13.783767181175669
 30
0.0
  0
VERTEX
  5
23E2
  8
247
 10
4.99731750647359
 20
-13.692477660911999
 30
0.0
  0
SEQEND
  5
23E3
  8
247
  0
POLYLINE
  5
23E4
  8
247
 66
     1
 10
0.0
 20
0.0
 30
0.0
 70
     1
  0
VERTEX
  5
23E5
  8
247
 10
4.99731750647359
 20
-13.692477660911999
 30
0.0
  0
VERTEX
  5
23E6
  8
247
 10
4.7078163162880431
 20
-13.783767181175669
 30
0.0
  0
VERTEX
  5
23E7
  8
247
 10
4.7078163162880431
 20
-13.783767181175669
 30
0.0
  0
VERTEX
  5
23E8
  8
247
 10
4.99731750647359
 20
-13.692477660911999
 30
0.0
  0
SEQEND
  5
23E9
  8
247
  0
POLYLINE
  5
23EA
  8
247
 66
     1
 10
0.0
 20
0.0
 30
0.0
 70
     1
1001
HATCH_DISTANCE
1040
1.0
1001
HATCH_DISPLAY
1070
     0
1001
HATCH_TYPE
1070
     7
  0
VERTEX
  5
23EB
  8
247
 10
4.99731750647359
 20
-13.692477660911999
 30
0.0
  0
VERTEX
  5
23EC
  8
247
 10
4.7078163162880431
 20
-13.783767181175669
 30
0.0
  0
VERTEX
  5
23ED
  8
247
 10
4.7078163162880431
 20
-13.783767181175669
 30
0.0
  0
VERTEX
  5
23EE
  8
247
 10
4.99731750647359
 20
-13.692477660911999
 30
0.0
  0
SEQEND
  5
23EF
  8
247
  0
POLYLINE
  5
23F0
  8
247
 66
     1
 10
0.0
 20
0.0
 30
0.0
 70
     1
  0
VERTEX
  5
23F1
  8
247
 10
4.99731750647359
 20
-13.692477660911999
 30
0.0
  0
VERTEX
  5
23F2
  8
247
 10
4.7078163162880431
 20
-13.783767181175669
 30
0.0
  0
VERTEX
  5
23F3
  8
247
 10
4.7078163162880431
 20
-13.783767181175669
 30
0.0
  0
VERTEX
  5
23F4
  8
247
 10
4.99731750647359
 20
-13.692477660911999
 30
0.0
  0
SEQEND
  5
23F5
  8
247
  0
LINE
  5
23F6
  8
247
 10
4.99731750647359
 20
-13.692477660911999
 30
0.0
 11
4.7078163162880431
 21
-13.783767181175669
 31
0.0
1001
ACAD
1000
ASC_BOUNDS
1002
{
1070
    19
1005
2437
1002
}
  0
ARC
  5
23F7
  8
247
 10
5.3069602982216368
 20
-14.56722970558973
 30
0.0
 40
0.3182875066995621
 50
91.710121382064344
 51
253.9983983544486
1001
ACAD
1000
ASC_BOUNDS
1002
{
1070
    19
1005
240D
1002
}
  0
ARC
  5
23F8
  8
247
 10
5.6403953568153868
 20
-14.7259134824452
 30
0.0
 40
0.9851660728454588
 50
143.44401219705679
 51
254.00018438768541
1001
ACAD
1000
ASC_BOUNDS
1002
{
1070
    19
1005
240D
1002
}
  0
LINE
  5
23F9
  8
247
 10
6.6439277664833556
 20
-15.28171868874403
 30
0.0
 11
5.2192184464149971
 21
-14.87318749977919
 31
0.0
1001
ACAD
1000
ASC_BOUNDS
1002
{
1070
    19
1005
240D
1002
}
  0
LINE
  5
23FA
  8
247
 10
7.383388115566305
 20
-17.196612792747938
 30
0.0
 11
4.9886657730751551
 21
-16.509932952660051
 31
0.0
  0
LINE
  5
23FB
  8
247
 10
7.383388115566305
 20
-16.518619018333862
 30
0.0
 11
4.6552307144814051
 21
-15.73633523537489
 31
0.0
  0
POLYLINE
  5
23FC
  8
247
 66
     1
 10
0.0
 20
0.0
 30
0.0
 70
     1
1001
HATCH_DISTANCE
1040
1.0
1001
HATCH_DISPLAY
1070
     0
1001
HATCH_TYPE
1070
     7
  0
VERTEX
  5
23FD
  8
247
 10
4.6552307144814051
 20
-16.52469583107802
 30
0.0
  0
VERTEX
  5
23FE
  8
247
 10
4.9886657730751551
 20
-16.620311218040911
 30
0.0
  0
VERTEX
  5
23FF
  8
247
 10
4.9886657730751551
 20
-16.509932952660051
 30
0.0
  0
VERTEX
  5
2400
  8
247
 10
7.383388115566305
 20
-17.196612792747938
 30
0.0
  0
VERTEX
  5
2401
  8
247
 10
7.383388115566305
 20
-16.518619018333862
 30
0.0
  0
VERTEX
  5
2402
  8
247
 10
4.6552307144814051
 20
-15.73633523537489
 30
0.0
  0
SEQEND
  5
2403
  8
247
  0
POLYLINE
  5
2404
  8
247
 66
     1
 10
0.0
 20
0.0
 30
0.0
 70
     1
  0
VERTEX
  5
2405
  8
247
 10
4.6552307144814051
 20
-16.52469583107802
 30
0.0
  0
VERTEX
  5
2406
  8
247
 10
4.9886657730751551
 20
-16.620311218040911
 30
0.0
  0
VERTEX
  5
2407
  8
247
 10
4.9886657730751551
 20
-16.509932952660051
 30
0.0
  0
VERTEX
  5
2408
  8
247
 10
7.383388115566305
 20
-17.196612792747938
 30
0.0
  0
VERTEX
  5
2409
  8
247
 10
7.383388115566305
 20
-16.518619018333862
 30
0.0
  0
VERTEX
  5
240A
  8
247
 10
4.6552307144814051
 20
-15.73633523537489
 30
0.0
  0
SEQEND
  5
240B
  8
247
  0
INSERT
  5
240C
  8
247
  6
CONTINUOUS
  2
*X21
 10
0.0
 20
0.0
 30
0.0
1001
ACAD
1000
HATCH
1002
{
1070
    19
1000
ANSI31
1040
0.075
1040
1.570796326794895
1000
R14_HATCH_DATA
1000
240C
1011
1.0
1021
0.0
1031
0.0
1021
0.0
1031
0.0
1011
0.0
1021
0.0
1031
0.0
1021
1.0
1031
0.0
1011
0.0
1021
0.0
1031
0.0
1021
0.0
1031
1.0
1040
0.0
1010
0.0
1020
0.0
1030
1.0
1000
ANSI31
1070
     0
1070
     0
1071
        1
1071
        7
1070
     0
1070
     1
1071
        6
1040
4.6552307144814051
1040
-15.73633523537489
1040
4.6552307144814051
1040
-16.52469583107802
1040
4.9886657730751551
1040
-16.620311218040911
1040
4.9886657730751551
1040
-16.509932952660069
1040
7.383388115566305
1040
-17.196612792747938
1040
7.383388115566305
1040
-16.518619018333862
1071
        0
1070
     0
1070
     1
1040
1.570796326794895
1040
0.075
1070
     0
1070
     1
1040
2.3561944901923431
1040
19.650577260654501
1040
-110.9729676778492
1040
-0.1683798022700466
1040
-0.1683798022700466
1070
     0
1040
0.0134348504236232
1071
        1
1040
5.947874004480127
1040
-16.44507193407901
1040
0.0
1002
}
  0
INSERT
  5
240D
  8
247
  6
CONTINUOUS
  2
*X22
 10
0.0
 20
0.0
 30
0.0
1001
ACAD
1000
HATCH
1002
{
1070
    19
1000
ANSI31
1040
0.075
1040
1.570796326794895
1000
ASC_BOUNDS
1070
     1
1070
     2
1070
    15
1005
23DB
1005
23F8
1005
240E
1005
23D7
1005
23D3
1005
23D0
1005
23D1
1005
23CF
1005
23D6
1005
23D5
1005
23D4
1005
23F9
1005
23F7
1005
23DD
1005
23DC
1000
ASC_SEEDPOINT
1011
19.650577260654501
1021
0.0
1031
0.0
1021
-110.9729676778492
1031
0.0
1000
R14_HATCH_DATA
1000
240D
1011
1.0
1021
0.0
1031
0.0
1021
0.0
1031
0.0
1011
0.0
1021
0.0
1031
0.0
1021
1.0
1031
0.0
1011
0.0
1021
0.0
1031
0.0
1021
0.0
1031
1.0
1040
0.0
1010
0.0
1020
0.0
1030
1.0
1000
ANSI31
1070
     0
1070
     1
1071
        1
1071
       33
1071
       15
1070
     1
1040
5.0428993241005431
1040
-13.837027984398331
1040
4.7533981339149971
1040
-13.928317504661999
1070
     2
1040
6.2466575638466368
1040
-13.37802835060927
1040
1.288299322128293
1040
3.50588097603615
1040
3.8840897327624959
1070
     1
1070
     2
1040
5.3069602982216368
1040
-14.56722970558973
1040
0.3182875066995621
1040
1.600643575520674
1040
4.4331083460772751
1070
     1
1070
     1
1040
6.6439277664833556
1040
-15.28171868874403
1040
5.2192184464149971
1040
-14.87318749977919
1070
     2
1040
6.731658174198202
1040
-14.975760894554581
1040
0.3182872831821442
1040
4.4331410658125074
1040
7.5747337194022997
1070
     1
1070
     1
1040
6.819388581913044
1040
-14.669803100365121
1040
6.1405593887978114
1040
-14.475150542992081
1070
     1
1040
6.1405593887978114
1040
-14.72742410256239
1040
6.1405593887978114
1040
-14.475150542992081
1070
     1
1040
6.1405593887978114
1040
-14.72742410256239
1040
5.8374282852821846
1040
-14.640506225365121
1070
     1
1040
5.8374282852821846
1040
-14.640506225365121
1040
5.8374282852821846
1040
-13.757537322777241
1070
     1
1040
7.383388115566305
1040
-14.20083566262098
1040
5.8374282852821846
1040
-13.757537322777241
1070
     1
1040
7.2055812613182573
1040
-14.378653960960831
1040
7.383388115566305
1040
-14.20083566262098
1070
     2
1040
6.398223115604452
1040
-14.94321389748427
1040
0.9851760864257813
1040
4.4331319489899252
1040
6.8934200153686511
1070
     1
1070
     2
1040
6.4500190750771074
1040
-13.3325037534413
1040
2.5780792236328121
1040
4.2796376880404372
1040
4.5866349702432574
1070
     1
1070
     2
1040
5.6403953568153868
1040
-14.7259134824452
1040
0.9851660728454588
1040
2.503570305109545
1040
4.4331395182378071
1070
     1
1070
     2
1040
6.2466575638466368
1040
-13.37802835060927
1040
1.591427564620969
1040
3.4946665664545442
1040
3.640262698164241
1070
     1
1071
       15
1005
23DC
1005
23DD
1005
23F7
1005
23F9
1005
23D4
1005
23D5
1005
23D6
1005
23CF
1005
23D1
1005
23D0
1005
23D3
1005
23D7
1005
240E
1005
23F8
1005
23DB
1070
     0
1070
     1
1040
1.570796326794895
1040
0.075
1070
     0
1070
     1
1040
2.3561944901923431
1040
19.650577260654501
1040
-110.9729676778492
1040
-0.1683798022700466
1040
-0.1683798022700466
1070
     0
1071
        1
1040
19.650577260654501
1040
-110.9729676778492
1040
0.0
1002
}
  0
ARC
  5
240E
  8
247
 10
6.4500190750771074
 20
-13.3325037534413
 30
0.0
 40
2.5780792236328121
 50
245.20517736984229
 51
262.7948259620506
1001
ACAD
1000
ASC_BOUNDS
1002
{
1070
    19
1005
240D
1002
}
  0
ARC
  5
240F
  8
247
 10
6.2466575638466368
 20
-13.37802835060927
 30
0.0
 40
1.288295745849608
 50
0.0
 51
194.1274364964118
1001
ACAD
1000
ASC_BOUNDS
1002
{
1070
    19
1005
2437
1002
}
  0
ARC
  5
2410
  8
247
 10
6.2466575638466368
 20
-13.37802835060927
 30
0.0
 40
1.591426849365233
 50
0.0
 51
194.77079396609381
1001
ACAD
1000
ASC_BOUNDS
1002
{
1070
    19
1005
2437
1002
}
  0
LINE
  5
2411
  8
240
 10
0.5
 20
-15.94791838842974
 30
0.0
 11
2.0
 21
-15.94791838842974
 31
0.0
  0
LINE
  5
2412
  8
246
 10
3.000000000000028
 20
-1.899999999999975
 30
0.0
 11
3.000000000000028
 21
1.899999999999975
 31
0.0
  0
LINE
  5
2413
  8
241
 10
2.0
 20
-15.94791838842974
 30
0.0
 11
2.0
 21
15.94791838842974
 31
0.0
  0
LINE
  5
2414
  8
245
 10
0.0
 20
15.875
 30
0.0
 11
0.0
 21
-15.875
 31
0.0
  0
LINE
  5
2415
  8
241
 10
0.5
 20
-15.94791838842974
 30
0.0
 11
0.5
 21
15.94791838842974
 31
0.0
  0
TEXT
  5
2416
  8
247
 10
7.405889219459822
 20
-10.77930222570148
 30
0.0
 40
2.5
  1
BT30-NBS6-45
 50
90.0
  7
YOKO
 11
7.405889219459822
 21
-10.77930222570148
 31
0.0
 73
     1
  0
ARC
  5
2417
  8
240
 10
-47.899999999999977
 20
8.3841292718130909
 30
0.0
 40
0.4999999999999967
 50
98.297338160597704
 51
180.0
  0
LINE
  5
2418
  8
240
 10
-48.399999999999977
 20
8.3841292718130909
 30
0.0
 11
-48.399999999999977
 21
8.25
 31
0.0
  0
ARC
  5
2419
  8
240
 10
-47.899999999999977
 20
-8.3841292718131228
 30
0.0
 40
0.5
 50
180.0
 51
261.70266183940231
  0
LINE
  5
241A
  8
240
 10
-48.399999999999977
 20
-8.3841292718131228
 30
0.0
 11
-48.399999999999977
 21
-8.2499999999999716
 31
0.0
  0
LINE
  5
241B
  8
240
 10
-48.399999999999977
 20
-8.2499999999999716
 30
0.0
 11
-48.399999999999977
 21
8.25
 31
0.0
  0
LINE
  5
241C
  8
240
 10
-47.972155114796422
 20
8.8788955190539127
 30
0.0
 11
0.5
 21
15.94791838842974
 31
0.0
  0
LINE
  5
241D
  8
240
 10
-47.972155114796422
 20
-8.8788955190539127
 30
0.0
 11
0.5
 21
-15.94791838842974
 31
0.0
  0
LINE
  5
241E
  8
247
 10
7.1102988955630879
 20
-19.294182245835941
 30
0.0
 11
5.8277194241406383
 21
-18.01160277441349
 31
0.0
  0
LINE
  5
241F
  8
247
 10
7.383388115566305
 20
-19.372489410179551
 30
0.0
 11
7.383388115566305
 21
-18.114554839867079
 31
0.0
  0
LINE
  5
2420
  8
247
 10
6.1787852511727692
 20
-18.270252453063279
 30
0.0
 11
7.0451477916144238
 21
-18.518669071278332
 31
0.0
  0
ARC
  5
2421
  8
247
 10
6.5952560440712471
 20
-18.452739196556529
 30
0.0
 40
0.4546969681978227
 50
351.66285421115037
 51
156.33819215911009
  0
LINE
  5
2422
  8
247
 10
7.383388115566305
 20
-19.230511861299071
 30
0.0
 11
6.521355708882651
 21
-18.368479454615422
 31
0.0
  0
LINE
  5
2423
  8
247
 10
7.383388115566305
 20
-18.893752256759001
 30
0.0
 11
6.9934939591946357
 21
-18.503858100387319
 31
0.0
  0
LINE
  5
2424
  8
247
 10
4.6552307144814051
 20
-18.747882323997761
 30
0.0
 11
4.9583618179970301
 21
-18.834800201195549
 31
0.0
  0
LINE
  5
2425
  8
247
 10
4.6552307144814051
 20
-18.905547576683489
 30
0.0
 11
4.9583618179970301
 21
-18.992465453880751
 31
0.0
1001
ACAD
1000
ASC_BOUNDS
1002
{
1070
    19
1005
2437
1002
}
  0
LINE
  5
2426
  8
247
 10
4.9583618179970568
 20
-18.826043190970381
 30
0.0
 11
4.6552307144814318
 21
-18.522912087454738
 31
0.0
  0
LINE
  5
2427
  8
247
 10
4.9583618179970301
 20
-18.834800201195549
 30
0.0
 11
4.9583618179979112
 21
-18.677123504418201
 31
0.0
  0
LINE
  5
2428
  8
247
 10
5.221717990694799
 20
-18.752639759128041
 30
0.0
 11
4.6552307144814611
 21
-18.186152482914672
 31
0.0
  0
LINE
  5
2429
  8
247
 10
4.6552307144814051
 20
-18.747882323997761
 30
0.0
 11
4.6552307144815162
 21
-17.769995446813191
 31
0.0
  0
LINE
  5
242A
  8
247
 10
4.6552307144814051
 20
-19.531550842064341
 30
0.0
 11
4.6552307144814051
 21
-18.905547576683489
 31
0.0
1001
ACAD
1000
ASC_BOUNDS
1002
{
1070
    19
1005
2437
1002
}
  0
LINE
  5
242B
  8
247
 10
4.9583618179970301
 20
-19.531550842064341
 30
0.0
 11
4.9583618179970301
 21
-18.992465453880751
 31
0.0
1001
ACAD
1000
ASC_BOUNDS
1002
{
1070
    19
1005
2437
1002
}
  0
LINE
  5
242C
  8
247
 10
6.166008443128959
 20
-19.023411002481989
 30
0.0
 11
5.1049237075762051
 21
-17.962326266929239
 31
0.0
  0
LINE
  5
242D
  8
247
 10
6.638153669346023
 20
-19.158796624158981
 30
0.0
 11
5.5770644650861811
 21
-18.097707419899091
 31
0.0
  0
LINE
  5
242E
  8
247
 10
7.383388115566305
 20
-19.372489410179551
 30
0.0
 11
4.9583618179979112
 21
-18.677123504418201
 31
0.0
  0
ARC
  5
242F
  8
247
 10
6.2466575638466368
 20
-19.531550842064341
 30
0.0
 40
1.288295745849608
 50
180.0
 51
0.0
1001
ACAD
1000
ASC_BOUNDS
1002
{
1070
    19
1005
2437
1002
}
  0
ARC
  5
2430
  8
247
 10
6.2466575638466368
 20
-19.531550842064341
 30
0.0
 40
1.591426849365233
 50
180.0
 51
0.0
1001
ACAD
1000
ASC_BOUNDS
1002
{
1070
    19
1005
2437
1002
}
  0
LINE
  5
2431
  8
247
 10
4.9662848986554859
 20
-17.9225731181076
 30
0.0
 11
5.8326217426808844
 21
-18.17098564962259
 31
0.0
  0
LINE
  5
2432
  8
247
 10
5.6938632169118932
 20
-18.888025380805001
 30
0.0
 11
4.6552307144815162
 21
-17.849392878374619
 31
0.0
  0
ARC
  5
2433
  8
240
 10
2.8000000000000109
 20
-22.199999999999982
 30
0.0
 40
0.8000000000000112
 50
180.0
 51
270.0
  0
ARC
  5
2434
  8
247
 10
5.413047029178669
 20
-17.76687188698622
 30
0.0
 40
0.7578227519989014
 50
17.669577547398148
 51
180.2361598426715
  0
LINE
  5
2435
  8
247
 10
6.2789581632879372
 20
-18.12608190902068
 30
0.0
 11
5.19420995568822
 21
-17.04133370142096
 31
0.0
  0
LINE
  5
2436
  8
247
 10
6.4981649180095351
 20
-18.0085290592022
 30
0.0
 11
5.5041852420781092
 21
-17.014549383270761
 31
0.0
  0
INSERT
  5
2437
  8
247
  6
CONTINUOUS
  2
*X23
 10
0.0
 20
0.0
 30
0.0
1001
ACAD
1000
HATCH
1002
{
1070
    19
1000
ANSI31
1040
0.075
1040
1.570796326794895
1000
ASC_BOUNDS
1070
     1
1070
     2
1070
    10
1005
23F6
1005
240F
1005
2410
1005
243E
1005
243D
1005
2430
1005
242F
1005
242B
1005
242A
1005
2425
1000
ASC_SEEDPOINT
1011
19.650577260654501
1021
0.0
1031
0.0
1021
-110.9729676778492
1031
0.0
1000
R14_HATCH_DATA
1000
2437
1011
1.0
1021
0.0
1031
0.0
1021
0.0
1031
0.0
1011
0.0
1021
0.0
1031
0.0
1021
1.0
1031
0.0
1011
0.0
1021
0.0
1031
0.0
1021
0.0
1031
1.0
1040
0.0
1010
0.0
1020
0.0
1030
1.0
1000
ANSI31
1070
     0
1070
     1
1071
        1
1071
       33
1071
       10
1070
     1
1040
4.6552307144814051
1040
-18.905547576683489
1040
4.9583618179970301
1040
-18.992465453880751
1070
     1
1040
4.6552307144814051
1040
-19.531550842064341
1040
4.6552307144814051
1040
-18.905547576683489
1070
     1
1040
4.9583618179970301
1040
-19.531550842064341
1040
4.9583618179970301
1040
-18.992465453880751
1070
     2
1040
6.2466575638466368
1040
-19.531550842064341
1040
1.288295745849608
1040
3.1415926535897918
1040
6.2831853071795853
1070
     1
1070
     2
1040
6.2466575638466368
1040
-19.531550842064341
1040
1.591426849365233
1040
3.1415926535897918
1040
6.2831853071795853
1070
     1
1070
     1
1040
7.8380847630383226
1040
-19.531550842064341
1040
7.8380847630383226
1040
-13.37802835060927
1070
     1
1040
7.534953667324114
1040
-19.531550842064341
1040
7.534953667324114
1040
-13.37802835060927
1070
     2
1040
6.2466575638466368
1040
-13.37802835060927
1040
1.591426849365233
1040
0.0
1040
3.3993916414318419
1070
     1
1070
     2
1040
6.2466575638466368
1040
-13.37802835060927
1040
1.288295745849608
1040
0.0
1040
3.3881629353185909
1070
     1
1070
     1
1040
4.99731750647359
1040
-13.692477660911999
1040
4.7078163162880431
1040
-13.783767181175669
1071
       10
1005
2425
1005
242A
1005
242B
1005
242F
1005
2430
1005
243D
1005
243E
1005
2410
1005
240F
1005
23F6
1070
     0
1070
     1
1040
1.570796326794895
1040
0.075
1070
     0
1070
     1
1040
2.3561944901923431
1040
19.650577260654501
1040
-110.9729676778492
1040
-0.1683798022700466
1040
-0.1683798022700466
1070
     0
1071
        1
1040
19.650577260654501
1040
-110.9729676778492
1040
0.0
1002
}
  0
LINE
  5
2438
  8
240
 10
2.0
 20
-22.199999999999982
 30
0.0
 11
2.0
 21
-15.94791838842974
 31
0.0
  0
LINE
  5
2439
  8
247
 10
5.0008634214063612
 20
-17.858265980759398
 30
0.0
 11
4.6882359417720352
 21
-17.545638501125062
 31
0.0
  0
ARC
  5
243A
  8
247
 10
5.382743074100544
 20
-18.105056243675669
 30
0.0
 40
0.4546839594841006
 50
351.66260168792923
 51
156.3381550951899
  0
LINE
  5
243B
  8
247
 10
5.4761965433627298
 20
-17.660079893635611
 30
0.0
 11
4.9689359057967382
 21
-17.152819256069609
 31
0.0
  0
LINE
  5
243C
  8
247
 10
5.1782897397981742
 20
-17.698932694611131
 30
0.0
 11
4.800307656255141
 21
-17.320950611068088
 31
0.0
  0
LINE
  5
243D
  8
247
 10
7.8380847630383226
 20
-19.531550842064341
 30
0.0
 11
7.8380847630383226
 21
-13.37802835060927
 31
0.0
1001
ACAD
1000
ASC_BOUNDS
1002
{
1070
    19
1005
2437
1002
}
  0
LINE
  5
243E
  8
247
 10
7.534953667324114
 20
-19.531550842064341
 30
0.0
 11
7.534953667324114
 21
-13.37802835060927
 31
0.0
1001
ACAD
1000
ASC_BOUNDS
1002
{
1070
    19
1005
2437
1002
}
  0
LINE
  5
243F
  8
247
 10
7.3265705580541258
 20
-17.826655885626501
 30
0.0
 11
6.9134703974817731
 21
-17.413555725054149
 31
0.0
  0
LINE
  5
2440
  8
247
 10
7.3833881155663299
 20
-18.220233047678789
 30
0.0
 11
6.5264093982073073
 21
-17.363254330319791
 31
0.0
  0
ARC
  5
2441
  8
247
 10
6.625571443241169
 20
-18.114554839867079
 30
0.0
 40
0.7578163146972659
 50
0.0
 51
130.32984065416761
  0
LINE
  5
2442
  8
247
 10
7.383388115566305
 20
-18.556992652218891
 30
0.0
 11
6.271131175708601
 21
-17.44473571236119
 31
0.0
  0
LINE
  5
2443
  8
245
 10
49.146267649899528
 20
0.0
 30
0.0
 11
-52.06551700745041
 21
0.0
 31
0.0
  0
LINE
  5
2444
  8
243
 10
2.0
 20
-16.300000000000001
 30
0.0
 11
19.000000000000021
 21
-16.300000000000001
 31
0.0
  0
LINE
  5
2445
  8
240
 10
9.436725343873233
 20
-23.0
 30
0.0
 11
2.8000000000000109
 21
-23.0
 31
0.0
  0
LINE
  5
2446
  8
243
 10
2.0
 20
16.300000000000001
 30
0.0
 11
19.000000000000021
 21
16.300000000000001
 31
0.0
  0
LINE
  5
2447
  8
246
 10
10.5
 20
-1.5000000000000271
 30
0.0
 11
3.000000000000028
 21
-1.5000000000000271
 31
0.0
  0
LINE
  5
2448
  8
246
 10
10.5
 20
1.5
 30
0.0
 11
3.000000000000028
 21
1.5
 31
0.0
  0
LINE
  5
2449
  8
246
 10
5.600000000000021
 20
3.4999999999999432
 30
0.0
 11
14.50000000000002
 21
3.4999999999999432
 31
0.0
  0
LINE
  5
244A
  8
246
 10
5.25
 20
3.149999999999975
 30
0.0
 11
14.850000000000019
 21
3.149999999999975
 31
0.0
  0
LINE
  5
244B
  8
246
 10
5.600000000000021
 20
-3.5
 30
0.0
 11
14.50000000000002
 21
-3.5
 31
0.0
  0
LINE
  5
244C
  8
246
 10
5.250000000000056
 20
-3.1500000000000341
 30
0.0
 11
14.850000000000019
 21
-3.1500000000000341
 31
0.0
  0
LINE
  5
244D
  8
240
 10
2.8000000000000109
 20
23.0
 30
0.0
 11
9.4367253438731762
 21
23.0
 31
0.0
  0
ENDBLK
  5
2450
  8
0
  0
BLOCK
  8
0
  2
*X21
 70
     1
 10
0.0
 20
0.0
 30
0.0
  3
*X21
  1

  0
LINE
  5
24D7
  8
0
 62
     0
 10
7.383388115566305
 20
-16.53643502497825
 30
0.0
 11
7.3584096843198381
 21
-16.511456593731779
 31
0.0
  0
LINE
  5
24D8
  8
0
 62
     0
 10
7.383388115566305
 20
-16.873194629518331
 30
0.0
 11
6.8862653482466092
 21
-16.376071862198639
 31
0.0
  0
LINE
  5
24D9
  8
0
 62
     0
 10
7.3646830496546789
 20
-17.191249168146829
 30
0.0
 11
6.4141210121733661
 21
-16.24068713066552
 31
0.0
  0
LINE
  5
24DA
  8
0
 62
     0
 10
6.8925368659935913
 20
-17.055862589025821
 30
0.0
 11
5.9419766761001531
 21
-16.105302399132391
 31
0.0
  0
LINE
  5
24DB
  8
0
 62
     0
 10
6.4203906823325081
 20
-16.920476009904821
 30
0.0
 11
5.4698323400269171
 21
-15.96991766759924
 31
0.0
  0
LINE
  5
24DC
  8
0
 62
     0
 10
5.9482444986714142
 20
-16.785089430783831
 30
0.0
 11
4.9976880039536971
 21
-15.834532936066109
 31
0.0
  0
LINE
  5
24DD
  8
0
 62
     0
 10
5.476098315010324
 20
-16.64970285166283
 30
0.0
 11
4.6552307144814051
 21
-15.828835251133921
 31
0.0
  0
LINE
  5
24DE
  8
0
 62
     0
 10
5.0039521313492443
 20
-16.514316272541841
 30
0.0
 11
4.6552307144814051
 21
-16.165594855674009
 31
0.0
  0
LINE
  5
24DF
  8
0
 62
     0
 10
4.686554432372338
 20
-16.533678178105021
 30
0.0
 11
4.6552307144814051
 21
-16.502354460214089
 31
0.0
  0
ENDBLK
  5
24E1
  8
0
  0
BLOCK
  8
0
  2
*X22
 70
     1
 10
0.0
 20
0.0
 30
0.0
  3
*X22
  1

  0
LINE
  5
24E3
  8
0
 62
     0
 10
7.2258723170624091
 20
-14.35836159923381
 30
0.0
 11
6.941691482850004
 21
-14.07418076502139
 31
0.0
  0
LINE
  5
24E4
  8
0
 62
     0
 10
7.3787912558356084
 20
-14.8480401425471
 30
0.0
 11
6.469545837432177
 21
-13.938794724143669
 31
0.0
  0
LINE
  5
24E5
  8
0
 62
     0
 10
6.8990162287475272
 20
-14.705024719999111
 30
0.0
 11
5.9974001920143589
 21
-13.80340868326593
 31
0.0
  0
LINE
  5
24E6
  8
0
 62
     0
 10
7.3582752265834861
 20
-15.16428371783506
 30
0.0
 11
7.0023943487536808
 21
-14.808402840005259
 31
0.0
  0
LINE
  5
24E7
  8
0
 62
     0
 10
6.4095006848946952
 20
-14.55226878068636
 30
0.0
 11
5.8374282852821846
 21
-13.980196381073849
 31
0.0
  0
LINE
  5
24E8
  8
0
 62
     0
 10
7.2662978671887739
 20
-15.40906596298044
 30
0.0
 11
7.0016111923161528
 21
-15.144379288107819
 31
0.0
  0
LINE
  5
24E9
  8
0
 62
     0
 10
6.1405593887978114
 20
-14.620087089129569
 30
0.0
 11
5.8374282852821846
 21
-14.31695598561395
 31
0.0
  0
LINE
  5
24EA
  8
0
 62
     0
 10
7.1268099623661367
 20
-15.6063376626979
 30
0.0
 11
6.80577156103279
 21
-15.28529926136455
 31
0.0
  0
LINE
  5
24EB
  8
0
 62
     0
 10
5.0576135961299533
 20
-13.87390090100182
 30
0.0
 11
5.0260529205485138
 21
-13.84234022542037
 31
0.0
  0
LINE
  5
24EC
  8
0
 62
     0
 10
6.9458650631599923
 20
-15.762152368031851
 30
0.0
 11
6.3936709934621998
 21
-15.20995829833406
 31
0.0
  0
LINE
  5
24ED
  8
0
 62
     0
 10
5.1419867754439323
 20
-14.295033684855881
 30
0.0
 11
4.7700269628623104
 21
-13.92307387227425
 31
0.0
  0
LINE
  5
24EE
  8
0
 62
     0
 10
6.7209748353949958
 20
-15.874021744806941
 30
0.0
 11
5.9215248878480349
 21
-15.07457179725998
 31
0.0
  0
LINE
  5
24EF
  8
0
 62
     0
 10
4.9985899690189584
 20
-14.488396482970989
 30
0.0
 11
4.7716074644842319
 21
-14.261413978436259
 31
0.0
  0
LINE
  5
24F0
  8
0
 62
     0
 10
6.43778865585017
 20
-15.92759516980219
 30
0.0
 11
5.4493787822338629
 21
-14.93918529618589
 31
0.0
  0
LINE
  5
24F1
  8
0
 62
     0
 10
6.053311959127285
 20
-15.879878077619431
 30
0.0
 11
4.6799662293575821
 21
-14.506532347849721
 31
0.0
  0
LINE
  5
24F2
  8
0
 62
     0
 10
5.6047505832183671
 20
-15.768076306250601
 30
0.0
 11
4.6600634311350699
 21
-14.8233891541673
 31
0.0
  0
ENDBLK
  5
24F4
  8
0
  0
BLOCK
  8
0
  2
*X23
 70
     1
 10
0.0
 20
0.0
 30
0.0
  3
*X23
  1

  0
LINE
  5
24F6
  8
0
 62
     0
 10
7.7531528403673047
 20
-12.86508449529814
 30
0.0
 11
6.7596014191577671
 21
-11.87153307408861
 31
0.0
  0
LINE
  5
24F7
  8
0
 62
     0
 10
6.738711818924747
 20
-12.18740307839567
 30
0.0
 11
6.340690756834503
 21
-11.78938201630543
 31
0.0
  0
LINE
  5
24F8
  8
0
 62
     0
 10
7.8353038981504781
 20
-13.283995157621399
 30
0.0
 11
7.4372828360602332
 21
-12.885974095531161
 31
0.0
  0
LINE
  5
24F9
  8
0
 62
     0
 10
6.3056323016444153
 20
-12.091083165655419
 30
0.0
 11
6.0177058894036417
 21
-11.80315675341464
 31
0.0
  0
LINE
  5
24FA
  8
0
 62
     0
 10
7.8380847630383226
 20
-13.62353562704933
 30
0.0
 11
7.5336027488004751
 21
-13.31905361281148
 31
0.0
  0
LINE
  5
24FB
  8
0
 62
     0
 10
5.9927841466381349
 20
-12.114994615189239
 30
0.0
 11
5.745395502980962
 21
-11.867605971532059
 31
0.0
  0
LINE
  5
24FC
  8
0
 62
     0
 10
7.8380847630383164
 20
-13.960295231589431
 30
0.0
 11
7.534953667324114
 21
-13.657164135875229
 31
0.0
  0
LINE
  5
24FD
  8
0
 62
     0
 10
5.7362043407273404
 20
-12.195174413818551
 30
0.0
 11
5.5089449686681728
 21
-11.96791504175938
 31
0.0
  0
LINE
  5
24FE
  8
0
 62
     0
 10
7.8380847630383164
 20
-14.29705483612952
 30
0.0
 11
7.534953667324114
 21
-13.993923740415321
 31
0.0
  0
LINE
  5
24FF
  8
0
 62
     0
 10
5.5191071194111156
 20
-12.314836797042419
 30
0.0
 11
5.3017535478623614
 21
-12.09748322549366
 31
0.0
  0
LINE
  5
2500
  8
0
 62
     0
 10
7.8380847630383101
 20
-14.63381444066961
 30
0.0
 11
7.5349536673241104
 21
-14.330683344955411
 31
0.0
  0
LINE
  5
2501
  8
0
 62
     0
 10
5.3351358297416871
 20
-12.46762511191308
 30
0.0
 11
5.1207897381591891
 21
-12.25327902033059
 31
0.0
  0
LINE
  5
2502
  8
0
 62
     0
 10
7.8380847630383226
 20
-14.97057404520972
 30
0.0
 11
7.5349536673241104
 21
-14.667442949495509
 31
0.0
  0
LINE
  5
2503
  8
0
 62
     0
 10
5.1825578792479927
 20
-12.65180676595948
 30
0.0
 11
4.9651632092540421
 21
-12.43441209596554
 31
0.0
  0
LINE
  5
2504
  8
0
 62
     0
 10
7.8380847630383226
 20
-15.30733364974982
 30
0.0
 11
7.5349536673241104
 21
-15.004202554035601
 31
0.0
  0
LINE
  5
2505
  8
0
 62
     0
 10
5.0631301342953687
 20
-12.869138625546951
 30
0.0
 11
4.8357765567360644
 21
-12.64178504798765
 31
0.0
  0
LINE
  5
2506
  8
0
 62
     0
 10
7.8380847630383226
 20
-15.644093254289899
 30
0.0
 11
7.534953667324114
 21
-15.340962158575699
 31
0.0
  0
LINE
  5
2507
  8
0
 62
     0
 10
4.983250630896868
 20
-13.12601872668853
 30
0.0
 11
4.7356785607414889
 21
-12.878446656533161
 31
0.0
  0
LINE
  5
2508
  8
0
 62
     0
 10
7.8380847630383226
 20
-15.980852858829991
 30
0.0
 11
7.534953667324114
 21
-15.67772176311577
 31
0.0
  0
LINE
  5
2509
  8
0
 62
     0
 10
4.9598220601943552
 20
-13.43934976052611
 30
0.0
 11
4.6715031155168329
 21
-13.1510308158486
 31
0.0
  0
LINE
  5
250A
  8
0
 62
     0
 10
7.8380847630383226
 20
-16.317612463370079
 30
0.0
 11
7.5349536673241104
 21
-16.014481367655861
 31
0.0
  0
LINE
  5
250B
  8
0
 62
     0
 10
4.9052289831666567
 20
-13.72151628803852
 30
0.0
 11
4.6581538703907679
 21
-13.47444117526263
 31
0.0
  0
LINE
  5
250C
  8
0
 62
     0
 10
7.8380847630383164
 20
-16.654372067910181
 30
0.0
 11
7.5349536673241104
 21
-16.351240972195971
 31
0.0
  0
LINE
  5
250D
  8
0
 62
     0
 10
7.8380847630383164
 20
-16.991131672450258
 30
0.0
 11
7.534953667324114
 21
-16.688000576736059
 31
0.0
  0
LINE
  5
250E
  8
0
 62
     0
 10
7.8380847630383164
 20
-17.32789127699035
 30
0.0
 11
7.5349536673241104
 21
-17.024760181276118
 31
0.0
  0
LINE
  5
250F
  8
0
 62
     0
 10
7.8380847630383288
 20
-17.66465088153047
 30
0.0
 11
7.5349536673241104
 21
-17.36151978581626
 31
0.0
  0
LINE
  5
2510
  8
0
 62
     0
 10
7.8380847630383226
 20
-18.001410486070561
 30
0.0
 11
7.5349536673241104
 21
-17.69827939035634
 31
0.0
  0
LINE
  5
2511
  8
0
 62
     0
 10
7.8380847630383226
 20
-18.338170090610639
 30
0.0
 11
7.534953667324114
 21
-18.035038994896439
 31
0.0
  0
LINE
  5
2512
  8
0
 62
     0
 10
7.8380847630383226
 20
-18.674929695150741
 30
0.0
 11
7.534953667324114
 21
-18.371798599436531
 31
0.0
  0
LINE
  5
2513
  8
0
 62
     0
 10
7.8380847630383226
 20
-19.011689299690829
 30
0.0
 11
7.5349536673241104
 21
-18.708558203976629
 31
0.0
  0
LINE
  5
2514
  8
0
 62
     0
 10
7.8380847630383164
 20
-19.348448904230921
 30
0.0
 11
7.5349536673241104
 21
-19.04531780851671
 31
0.0
  0
LINE
  5
2515
  8
0
 62
     0
 10
7.8312931032939508
 20
-19.67841684902664
 30
0.0
 11
7.5349536673241104
 21
-19.382077413056798
 31
0.0
  0
LINE
  5
2516
  8
0
 62
     0
 10
7.7786226610297931
 20
-19.96250601130258
 30
0.0
 11
7.5229705251770573
 21
-19.706853875449841
 31
0.0
  0
LINE
  5
2517
  8
0
 62
     0
 10
7.6872250098679293
 20
-20.207867964680808
 30
0.0
 11
7.455724879016266
 21
-19.976367833829151
 31
0.0
  0
LINE
  5
2518
  8
0
 62
     0
 10
7.5652253659191739
 20
-20.422627925272149
 30
0.0
 11
7.3459343375767769
 21
-20.203336896929748
 31
0.0
  0
LINE
  5
2519
  8
0
 62
     0
 10
7.4164170353750887
 20
-20.61057919926817
 30
0.0
 11
7.2018554850246801
 21
-20.396017648917748
 31
0.0
  0
LINE
  5
251A
  8
0
 62
     0
 10
7.2422081152262834
 20
-20.773129883659461
 30
0.0
 11
7.0262619867752321
 21
-20.55718375520841
 31
0.0
  0
LINE
  5
251B
  8
0
 62
     0
 10
7.04219001701665
 20
-20.90987138998991
 30
0.0
 11
6.8183640167235477
 21
-20.686045389696812
 31
0.0
  0
LINE
  5
251C
  8
0
 62
     0
 10
4.9583618179970301
 20
-19.16280279551037
 30
0.0
 11
4.719548738809741
 21
-18.923989716323081
 31
0.0
  0
LINE
  5
251D
  8
0
 62
     0
 10
6.8139804553192951
 20
-21.018421432832628
 30
0.0
 11
6.5733066103349369
 21
-20.777747587848278
 31
0.0
  0
LINE
  5
251E
  8
0
 62
     0
 10
4.9583618179970301
 20
-19.499562400050461
 30
0.0
 11
4.6552307144814051
 21
-19.19643129653485
 31
0.0
  0
LINE
  5
251F
  8
0
 62
     0
 10
6.5521755340864303
 20
-21.093376116139869
 30
0.0
 11
6.2782583768392737
 21
-20.819458958892721
 31
0.0
  0
LINE
  5
2520
  8
0
 62
     0
 10
5.0080976163955091
 20
-19.88605780298905
 30
0.0
 11
4.6552315604423171
 21
-19.533191747035861
 31
0.0
  0
LINE
  5
2521
  8
0
 62
     0
 10
6.2450166588751221
 20
-21.122976845468671
 30
0.0
 11
5.8921506029219293
 21
-20.770110789515481
 31
0.0
  0
LINE
  5
2522
  8
0
 62
     0
 10
5.8607625419478131
 20
-21.075482333081439
 30
0.0
 11
4.7027260728295328
 21
-19.91744586396316
 31
0.0
  0
ENDBLK
  5
2524
  8
0
  0
ENDSEC
  0
SECTION
  2
ENTITIES
  0
LINE
  5
2067
  8
250
 10
-33.320999616871632
 20
-28.0
 30
0.0
 11
-49.320999616871632
 21
-28.0
 31
0.0
1001
ITEMNAME
1000
LNSP2
  0
TEXT
  5
206A
  8
250
 62
   211
 10
-63.0
 20
56.0
 30
0.0
 40
5.0
  1
BT30-NBS6-45
  7
YOKO
 11
-63.0
 21
56.0
 31
0.0
 73
     1
  0
LINE
  5
21DD
  8
250
 10
22.000000000000021
 20
22.700000000000038
 30
0.0
 11
22.000000000000021
 21
36.0
 31
0.0
  0
LINE
  5
21DE
  8
250
 10
45.0
 20
9.5928932188133995
 30
0.0
 11
44.921779937114813
 21
43.223431876221973
 31
0.0
  0
LINE
  5
21DF
  8
250
 10
24.23000000000004
 20
35.0
 30
0.0
 11
42.770000000000003
 21
35.0
 31
0.0
  0
LINE
  5
21E3
  8
250
 10
0.0
 20
16.375
 30
0.0
 11
0.0000000000000017
 21
43.0
 31
0.0
  0
LINE
  5
21E5
  8
250
 10
2.2299999999999991
 20
42.0
 30
0.0
 11
42.770000000000003
 21
42.0
 31
0.0
  0
LINE
  5
21EB
  8
250
 10
2.2299999999999991
 20
35.0
 30
0.0
 11
19.770000000000021
 21
35.0
 31
0.0
  0
LINE
  5
21EF
  8
250
 10
44.551471862576101
 20
-10.0
 30
0.0
 11
71.0
 21
-10.0
 31
0.0
  0
LINE
  5
21F0
  8
250
 10
44.551471862576101
 20
10.0
 30
0.0
 11
71.0
 21
9.9999999999999911
 31
0.0
  0
LINE
  5
21F1
  8
250
 10
70.0
 20
-7.770000000000004
 30
0.0
 11
70.0
 21
7.7699999999999898
 31
0.0
  0
LINE
  5
21F5
  8
250
 10
45.500000000000057
 20
-3.0
 30
0.0
 11
64.0
 21
-3.0000000000000031
 31
0.0
  0
LINE
  5
21F6
  8
250
 10
45.500000000000057
 20
3.0
 30
0.0
 11
64.0
 21
2.999999999999992
 31
0.0
  0
LINE
  5
21F7
  8
250
 10
63.0
 20
-5.2300000000000031
 30
0.0
 11
63.0
 21
-7.4600000000000009
 31
0.0
  0
LINE
  5
21F8
  8
250
 10
63.0
 20
5.2299999999999951
 30
0.0
 11
63.0
 21
7.4599999999999929
 31
0.0
  0
LINE
  5
21FA
  8
250
 10
63.0
 20
-3.0000000000000031
 30
0.0
 11
63.0
 21
2.9999999999999951
 31
0.0
  0
LINE
  5
21FD
  8
250
 10
15.00000000000002
 20
-3.5
 30
0.0
 11
15.00000000000002
 21
-36.0
 31
0.0
  0
LINE
  5
21FE
  8
250
 10
45.0
 20
-9.5928932188134581
 30
0.0
 11
45.0
 21
-36.0
 31
0.0
  0
LINE
  5
21FF
  8
250
 10
17.230000000000022
 20
-35.0
 30
0.0
 11
42.770000000000003
 21
-35.0
 31
0.0
  0
TEXT
  5
2205
  8
250
 10
-46.89242818830018
 20
-27.0
 30
0.0
 40
3.0
  1
BT30
  7
YOKO
1001
ITEMNAME
1000
LNSP3
1001
ACAD
1000
MTEXTBEGIN
1070
    73
1070
     1
1070
    44
1040
1.0
1070
    74
1070
     0
1000
MTEXTEND
  0
TEXT
  5
2206
  8
250
 10
8.1428571428571512
 20
36.0
 30
0.0
 40
3.0
  1
22
1001
ACAD
1000
MTEXTBEGIN
1070
    73
1070
     1
1070
    44
1040
1.0
1070
    74
1070
     0
1000
MTEXTEND
  0
LINE
  5
2207
  8
250
 10
19.770000000000021
 20
35.37166666666667
 30
0.0
 11
22.000000000000021
 21
35.0
 31
0.0
  0
LINE
  5
2208
  8
250
 10
19.770000000000021
 20
34.62833333333333
 30
0.0
 11
22.000000000000021
 21
35.0
 31
0.0
  0
LINE
  5
2209
  8
250
 10
22.000000000000021
 20
35.0
 30
0.0
 11
19.770000000000021
 21
35.0
 31
0.0
  0
LINE
  5
220A
  8
250
 10
2.2299999999999991
 20
34.62833333333333
 30
0.0
 11
0.0000000000000012
 21
35.0
 31
0.0
  0
LINE
  5
220B
  8
250
 10
2.2299999999999991
 20
35.371666666666663
 30
0.0
 11
0.0000000000000012
 21
35.0
 31
0.0
  0
LINE
  5
220C
  8
250
 10
0.0000000000000012
 20
35.0
 30
0.0
 11
2.2299999999999991
 21
35.0
 31
0.0
  0
TEXT
  5
220D
  8
250
 10
19.642857142857132
 20
43.0
 30
0.0
 40
3.0
  1
45
1001
ACAD
1000
MTEXTBEGIN
1070
    73
1070
     1
1070
    44
1040
1.0
1070
    74
1070
     0
1000
MTEXTEND
  0
LINE
  5
220E
  8
250
 10
42.770000000000003
 20
42.371666666666663
 30
0.0
 11
45.0
 21
42.0
 31
0.0
  0
LINE
  5
220F
  8
250
 10
42.770000000000003
 20
41.62833333333333
 30
0.0
 11
45.0
 21
42.0
 31
0.0
  0
LINE
  5
2210
  8
250
 10
45.0
 20
42.0
 30
0.0
 11
42.770000000000003
 21
42.0
 31
0.0
  0
LINE
  5
2211
  8
250
 10
2.2299999999999991
 20
41.62833333333333
 30
0.0
 11
0.0000000000000016
 21
42.0
 31
0.0
  0
LINE
  5
2212
  8
250
 10
2.2299999999999991
 20
42.371666666666663
 30
0.0
 11
0.0000000000000016
 21
42.0
 31
0.0
  0
LINE
  5
2213
  8
250
 10
0.0000000000000016
 20
42.0
 30
0.0
 11
2.2299999999999991
 21
42.0
 31
0.0
  0
TEXT
  5
2214
  8
250
 10
30.642857142857149
 20
36.0
 30
0.0
 40
3.0
  1
23
1001
ACAD
1000
MTEXTBEGIN
1070
    73
1070
     1
1070
    44
1040
1.0
1070
    74
1070
     0
1000
MTEXTEND
  0
LINE
  5
2215
  8
250
 10
42.770000000000003
 20
35.37166666666667
 30
0.0
 11
45.0
 21
35.0
 31
0.0
  0
LINE
  5
2216
  8
250
 10
42.770000000000003
 20
34.62833333333333
 30
0.0
 11
45.0
 21
35.0
 31
0.0
  0
LINE
  5
2217
  8
250
 10
45.0
 20
35.0
 30
0.0
 11
42.770000000000003
 21
35.0
 31
0.0
  0
LINE
  5
2218
  8
250
 10
24.230000000000029
 20
34.62833333333333
 30
0.0
 11
22.000000000000021
 21
35.0
 31
0.0
  0
LINE
  5
2219
  8
250
 10
24.230000000000029
 20
35.371666666666663
 30
0.0
 11
22.000000000000021
 21
35.0
 31
0.0
  0
LINE
  5
221A
  8
250
 10
22.000000000000021
 20
35.0
 30
0.0
 11
24.230000000000029
 21
35.0
 31
0.0
  0
LINE
  5
221B
  8
250
 10
63.37166666666667
 20
5.2299999999999933
 30
0.0
 11
63.0
 21
2.9999999999999951
 31
0.0
  0
LINE
  5
221C
  8
250
 10
62.62833333333333
 20
5.2299999999999933
 30
0.0
 11
63.0
 21
2.9999999999999951
 31
0.0
  0
LINE
  5
221D
  8
250
 10
63.0
 20
2.9999999999999951
 30
0.0
 11
63.0
 21
5.2299999999999933
 31
0.0
  0
LINE
  5
221E
  8
250
 10
62.62833333333333
 20
-5.2300000000000031
 30
0.0
 11
63.0
 21
-3.0000000000000031
 31
0.0
  0
LINE
  5
221F
  8
250
 10
63.37166666666667
 20
-5.2300000000000031
 30
0.0
 11
63.0
 21
-3.0000000000000031
 31
0.0
  0
LINE
  5
2220
  8
250
 10
63.0
 20
-3.0000000000000031
 30
0.0
 11
63.0
 21
-5.2300000000000031
 31
0.0
  0
TEXT
  5
2221
  8
250
 10
62.073333464681859
 20
-9.5747696109280565
 30
0.0
 40
3.0
  1
MAX.
 50
90.0
  0
TEXT
  5
2222
  8
250
 10
62.073333464681859
 20
0.7109446747862303
 30
0.0
 40
3.0
  1
\U+2205
 50
90.0
  0
TEXT
  5
2223
  8
250
 10
62.073333464681859
 20
3.4252303890719431
 30
0.0
 40
3.0
  1
6
 50
90.0
  0
TEXT
  5
2224
  8
250
 10
69.0
 20
-4.071428571428565
 30
0.0
 40
3.0
  1
\U+2205
 50
90.0
1001
ACAD
1000
MTEXTBEGIN
1070
    73
1070
     1
1070
    44
1040
1.0
1070
    74
1070
     0
1000
MTEXTEND
  0
TEXT
  5
2225
  8
250
 10
69.0
 20
-1.3571428571428521
 30
0.0
 40
3.0
  1
20
 50
90.0
1001
ACAD
1000
MTEXTBEGIN
1070
    73
1070
     1
1070
    44
1040
1.0
1070
    74
1070
     0
1000
MTEXTEND
  0
TEXT
  5
2226
  8
250
 10
22.485714285714302
 20
-34.0
 30
0.0
 40
3.0
  1
21ü`40
1001
ACAD
1000
MTEXTBEGIN
1070
    73
1070
     1
1070
    44
1040
1.0
1070
    74
1070
     0
1000
MTEXTEND
  0
LINE
  5
2227
  8
250
 10
42.770000000000003
 20
-34.62833333333333
 30
0.0
 11
45.0
 21
-35.0
 31
0.0
  0
LINE
  5
2228
  8
250
 10
42.770000000000003
 20
-35.37166666666667
 30
0.0
 11
45.0
 21
-35.0
 31
0.0
  0
LINE
  5
2229
  8
250
 10
45.0
 20
-35.0
 30
0.0
 11
42.770000000000003
 21
-35.0
 31
0.0
  0
LINE
  5
222A
  8
250
 10
17.230000000000022
 20
-35.37166666666667
 30
0.0
 11
15.00000000000002
 21
-35.0
 31
0.0
  0
LINE
  5
222B
  8
250
 10
17.230000000000022
 20
-34.628333333333337
 30
0.0
 11
15.00000000000002
 21
-35.0
 31
0.0
  0
LINE
  5
222C
  8
250
 10
15.00000000000002
 20
-35.0
 30
0.0
 11
17.230000000000022
 21
-35.0
 31
0.0
  0
LINE
  5
222D
  8
250
 10
-25.391567284128271
 20
-14.26582032450913
 30
0.0
 11
-33.320999616871632
 21
-28.0
 31
0.0
1001
ACAD
1000
DSTYLE
1002
{
1070
     5
1000
OPEN
1070
    78
1070
     8
1070
   140
1040
3.0
1002
}
  0
LINE
  5
222E
  8
250
 10
-25.713440059201488
 20
-14.079986991175801
 30
0.0
 11
-24.276567284128269
 21
-12.33458367406984
 31
0.0
  0
LINE
  5
222F
  8
250
 10
-25.069694509055061
 20
-14.451653657842471
 30
0.0
 11
-24.276567284128269
 21
-12.33458367406984
 31
0.0
  0
LINE
  5
2230
  8
250
 10
-24.276567284128269
 20
-12.33458367406984
 30
0.0
 11
-25.391567284128271
 21
-14.26582032450913
 31
0.0
  0
LINE
  5
2231
  8
250
 10
69.62833333333333
 20
7.7699999999999898
 30
0.0
 11
70.0
 21
9.9999999999999911
 31
0.0
  0
LINE
  5
2232
  8
250
 10
70.37166666666667
 20
7.7699999999999898
 30
0.0
 11
70.0
 21
9.9999999999999911
 31
0.0
  0
LINE
  5
2233
  8
250
 10
70.0
 20
9.9999999999999911
 30
0.0
 11
70.0
 21
7.7699999999999898
 31
0.0
  0
LINE
  5
2234
  8
250
 10
70.37166666666667
 20
-7.7700000000000014
 30
0.0
 11
70.0
 21
-10.0
 31
0.0
  0
LINE
  5
2235
  8
250
 10
69.62833333333333
 20
-7.7700000000000014
 30
0.0
 11
70.0
 21
-10.0
 31
0.0
  0
LINE
  5
2236
  8
250
 10
70.0
 20
-10.0
 30
0.0
 11
70.0
 21
-7.7700000000000014
 31
0.0
  0
INSERT
  5
2452
  8
240
  2
A$C7F83289D
 10
0.0
 20
0.0
 30
0.0
  0
VIEWPORT
  5
22
 67
     1
  8
0
 10
261.51769911504419
 20
148.5
 30
0.0
 40
523.0353982300885
 41
297.0
 68
     1
 69
     1
1001
ACAD
1000
MVIEW
1002
{
1070
    16
1010
0.0
1020
0.0
1030
0.0
1010
0.0
1020
0.0
1030
1.0
1040
0.0
1040
297.0
1040
261.51769911504419
1040
148.5
1040
50.0
1040
0.0
1040
0.0
1070
     0
1070
   100
1070
     1
1070
     1
1070
     0
1070
     0
1070
     0
1070
     0
1040
0.0
1040
0.0
1040
0.0
1040
1.0
1040
1.0
1040
10.0
1040
10.0
1070
     0
1002
{
1002
}
1002
}
1001
GENIUS_GENOBJ-N-SDF_13
1002
{
1000
OWNER
1000
GEN
1002
}
1001
GENIUS_GENODEF_13
1002
{
1000
HIER
1070
     0
1002
}
1002
{
1000
MANEDIT
1070
     0
1002
}
1002
{
1000
NOSEL
1070
     0
1002
}
1002
{
1000
BEHIND
1070
     0
1002
}
1002
{
1000
OTHER
1070
     0
1002
}
1002
{
1000
REACTOR
1002
}
1001
GENIUS_GENSCREG_15
1000
PF
1040
1.0
1000
DF
1040
1.0
1000
MIN
1011
0.0
1021
0.0
1031
0.0
1021
0.0
1031
0.0
1000
MAX
1011
523.0353982300885
1021
0.0
1031
0.0
1021
297.0
1031
0.0
1000
FLAGS
1070
     2
  0
ENDSEC
  0
EOF
