  0
SECTION
  2
HEADER
  9
$ACADVER
  1
AC1009
  9
$INSBASE
 10
0.0
 20
0.0
 30
0.0
  9
$EXTMIN
 10
-62.047619047619051
 20
-36.0
 30
0.0
  9
$EXTMAX
 10
71.0
 20
61.0
 30
0.0
  9
$LIMMIN
 10
0.0
 20
0.0
  9
$LIMMAX
 10
297.0
 20
210.0
  9
$ORTHOMODE
 70
     0
  9
$REGENMODE
 70
     1
  9
$FILLMODE
 70
     1
  9
$QTEXTMODE
 70
     0
  9
$MIRRTEXT
 70
     1
  9
$DRAGMODE
 70
     2
  9
$LTSCALE
 40
10.0
  9
$OSMODE
 70
   639
  9
$ATTMODE
 70
     1
  9
$TEXTSIZE
 40
3.0
  9
$TRACEWID
 40
1.0
  9
$TEXTSTYLE
  7
YOKO
  9
$CLAYER
  8
240
  9
$CELTYPE
  6
BYLAYER
  9
$CECOLOR
 62
   256
  9
$DIMSCALE
 40
1.0
  9
$DIMASZ
 40
2.2299999999999991
  9
$DIMEXO
 40
0.5
  9
$DIMDLI
 40
2.5
  9
$DIMRND
 40
0.0
  9
$DIMDLE
 40
0.0
  9
$DIMEXE
 40
1.0
  9
$DIMTP
 40
0.0
  9
$DIMTM
 40
0.0
  9
$DIMTXT
 40
3.0
  9
$DIMCEN
 40
0.0
  9
$DIMTSZ
 40
0.0
  9
$DIMTOL
 70
     0
  9
$DIMLIM
 70
     0
  9
$DIMTIH
 70
     0
  9
$DIMTOH
 70
     0
  9
$DIMSE1
 70
     0
  9
$DIMSE2
 70
     0
  9
$DIMTAD
 70
     3
  9
$DIMZIN
 70
     8
  9
$DIMBLK
  1
OPEN
  9
$DIMASO
 70
     1
  9
$DIMSHO
 70
     1
  9
$DIMPOST
  1

  9
$DIMAPOST
  1

  9
$DIMALT
 70
     0
  9
$DIMALTD
 70
     2
  9
$DIMALTF
 40
25.399999999999999
  9
$DIMLFAC
 40
1.0
  9
$DIMTOFL
 70
     1
  9
$DIMTVP
 40
0.0
  9
$DIMTIX
 70
     0
  9
$DIMSOXD
 70
     0
  9
$DIMSAH
 70
     0
  9
$DIMBLK1
  1

  9
$DIMBLK2
  1

  9
$DIMSTYLE
  2
BIGT
  9
$DIMCLRD
 70
   256
  9
$DIMCLRE
 70
   256
  9
$DIMCLRT
 70
    40
  9
$DIMTFAC
 40
1.0
  9
$DIMGAP
 40
1.0
  9
$LUNITS
 70
     2
  9
$LUPREC
 70
     2
  9
$SKETCHINC
 40
1.0
  9
$FILLETRAD
 40
2.0
  9
$AUNITS
 70
     0
  9
$AUPREC
 70
     3
  9
$MENU
  1
.
  9
$ELEVATION
 40
0.0
  9
$PELEVATION
 40
0.0
  9
$THICKNESS
 40
0.0
  9
$LIMCHECK
 70
     0
  9
$BLIPMODE
 70
     0
  9
$CHAMFERA
 40
10.0
  9
$CHAMFERB
 40
10.0
  9
$SKPOLY
 70
     0
  9
$TDCREATE
 40
2452172.3683742019
  9
$TDUPDATE
 40
2453573.445948889
  9
$TDINDWG
 40
0.04471625
  9
$TDUSRTIMER
 40
0.0447160648
  9
$USRTIMER
 70
     1
  9
$ANGBASE
 50
0.0
  9
$ANGDIR
 70
     0
  9
$PDMODE
 70
    35
  9
$PDSIZE
 40
-5.0
  9
$PLINEWID
 40
0.0
  9
$COORDS
 70
     0
  9
$SPLFRAME
 70
     0
  9
$SPLINETYPE
 70
     6
  9
$SPLINESEGS
 70
     8
  9
$ATTDIA
 70
     1
  9
$ATTREQ
 70
     1
  9
$HANDLING
 70
     1
  9
$HANDSEED
  5
21BD
  9
$SURFTAB1
 70
     6
  9
$SURFTAB2
 70
     6
  9
$SURFTYPE
 70
     6
  9
$SURFU
 70
     6
  9
$SURFV
 70
     6
  9
$UCSNAME
  2

  9
$UCSORG
 10
0.0
 20
0.0
 30
0.0
  9
$UCSXDIR
 10
1.0
 20
0.0
 30
0.0
  9
$UCSYDIR
 10
0.0
 20
1.0
 30
0.0
  9
$PUCSNAME
  2

  9
$PUCSORG
 10
0.0
 20
0.0
 30
0.0
  9
$PUCSXDIR
 10
1.0
 20
0.0
 30
0.0
  9
$PUCSYDIR
 10
0.0
 20
1.0
 30
0.0
  9
$USERI1
 70
     1
  9
$USERI2
 70
     0
  9
$USERI3
 70
     0
  9
$USERI4
 70
     0
  9
$USERI5
 70
     0
  9
$USERR1
 40
0.0
  9
$USERR2
 40
0.0
  9
$USERR3
 40
0.0
  9
$USERR4
 40
0.0
  9
$USERR5
 40
0.0
  9
$WORLDVIEW
 70
     1
  9
$SHADEDGE
 70
     3
  9
$SHADEDIF
 70
    70
  9
$TILEMODE
 70
     1
  9
$MAXACTVP
 70
    16
  9
$PLIMCHECK
 70
     0
  9
$PEXTMIN
 10
1.0000000000000000E+020
 20
1.0000000000000000E+020
 30
1.0000000000000000E+020
  9
$PEXTMAX
 10
-1.0000000000000000E+020
 20
-1.0000000000000000E+020
 30
-1.0000000000000000E+020
  9
$PLIMMIN
 10
0.0
 20
0.0
  9
$PLIMMAX
 10
420.0
 20
297.0
  9
$UNITMODE
 70
     0
  9
$VISRETAIN
 70
     0
  9
$PLINEGEN
 70
     0
  9
$PSLTSCALE
 70
     1
  0
ENDSEC
  0
SECTION
  2
TABLES
  0
TABLE
  2
VPORT
 70
     3
  0
VPORT
  2
*ACTIVE
 70
     0
 10
0.0
 20
0.0
 11
1.0
 21
1.0
 12
4.4767933302732672
 22
12.49919177021269
 13
0.0
 23
0.0
 14
7.0
 24
7.0
 15
7.0
 25
7.0
 16
0.0
 26
0.0
 36
1.0
 17
0.0
 27
0.0
 37
0.0
 40
97.591094245703815
 41
1.5029527559055109
 42
50.0
 43
0.0
 44
0.0
 50
0.0
 51
0.0
 71
     0
 72
  2000
 73
     1
 74
     0
 75
     0
 76
     0
 77
     0
 78
     0
  0
ENDTAB
  0
TABLE
  2
LTYPE
 70
    19
  0
LTYPE
  2
CONTINUOUS
 70
     0
  3
Solid line
 72
    65
 73
     0
 40
0.0
  0
LTYPE
  2
CENTER2
 70
     0
  3
___ _ ___ _ ___ _ ___ _ ___ _ ___ _ ___ _ ___ _
 72
    65
 73
     4
 40
1.125
 49
0.75
 49
-0.125
 49
0.125
 49
-0.125
  0
LTYPE
  2
HIDDEN2
 70
     0
  3
_ _ _ _ _ _ _ _ _ _ _ _ _ _ _ _ _ _ _ _ _ _ _ _
 72
    65
 73
     2
 40
0.1875
 49
0.125
 49
-0.0625
  0
LTYPE
  2
PHANTOM2
 70
     0
  3
___ _ _ ___ _ _ ___ _ _ ___ _ _ ___ _ _ ___ _ _
 72
    65
 73
     6
 40
1.25
 49
0.625
 49
-0.125
 49
0.125
 49
-0.125
 49
0.125
 49
-0.125
  0
LTYPE
  2
HIDDEN
 70
     0
  3
Hidden __ __ __ __ __ __ __ __ __ __ __ __ __ _
 72
    65
 73
     2
 40
9.5249999999999986
 49
6.3499999999999979
 49
-3.174999999999998
  0
LTYPE
  2
CENTER
 70
     0
  3
Center ____ _ ____ _ ____ _ ____ _ ____ _ ____
 72
    65
 73
     4
 40
50.799999999999997
 49
31.75
 49
-6.3499999999999979
 49
6.3499999999999979
 49
-6.3499999999999979
  0
LTYPE
  2
AMCONSTR
 70
     0
  3
_______________________
 72
    65
 73
     2
 40
9999.0
 49
9999.0
 49
0.0
  0
LTYPE
  2
AMZIGZAG2
 70
     0
  3
/\/-/\/-/\/-/\/-/\/-/\/
 72
    65
 73
     2
 40
0.4401
 49
0.0001
 49
-0.4400000000000001
  0
LTYPE
  2
ACANSTGB
 70
     0
  3
__ . . __ . .
 72
    65
 73
     6
 40
0.35433070866
 49
0.15748031496
 49
-0.03937007874
 49
0.03937007874
 49
-0.03937007874
 49
0.03937007874
 49
-0.03937007874
  0
LTYPE
  2
ACANSTGL
 70
     0
  3
_ _ _ _ _
 72
    65
 73
     2
 40
0.11811023622
 49
0.07874015748
 49
-0.03937007874
  0
ENDTAB
  0
TABLE
  2
LAYER
 70
    10
  0
LAYER
  2
0
 70
     0
 62
     7
  6
CONTINUOUS
  0
LAYER
  2
240
 70
     0
 62
     4
  6
CONTINUOUS
  0
LAYER
  2
241
 70
     0
 62
   211
  6
CONTINUOUS
  0
LAYER
  2
242
 70
     0
 62
     3
  6
CONTINUOUS
  0
LAYER
  2
243
 70
     0
 62
   211
  6
HIDDEN2
  0
LAYER
  2
245
 70
     0
 62
     2
  6
CENTER2
  0
LAYER
  2
246
 70
     0
 62
     3
  6
PHANTOM2
  0
LAYER
  2
247
 70
     0
 62
    60
  6
CONTINUOUS
  0
LAYER
  2
250
 70
     0
 62
     3
  6
CONTINUOUS
  0
LAYER
  2
DEFPOINTS
 70
     0
 62
     7
  6
CONTINUOUS
  0
ENDTAB
  0
TABLE
  2
STYLE
 70
     7
  0
STYLE
  2
STANDARD
 70
     0
 40
0.0
 41
1.0
 50
0.0
 71
     0
 42
3.0
  3
romans.shx
  4
BIGFONT.SHX
  0
STYLE
  2
YOKO
 70
     0
 40
0.0
 41
1.0
 50
0.0
 71
     0
 42
3.0
  3
romans.shx
  4
extfont.shx
  0
STYLE
  2

 70
     1
 40
0.0
 41
1.0
 50
0.0
 71
     0
 42
3.0
  3
ltypeshp.shx
  4

  0
STYLE
  2
ACANSTS
 70
     0
 40
1.0
 41
1.0
 50
0.0
 71
     0
 42
3.0
  3
romans.shx
  4
extfont.shx
  0
STYLE
  2
ACANSGDT
 70
     0
 40
0.0
 41
1.0
 50
0.0
 71
     0
 42
3.0
  3
amgdtans.shx
  4

  0
ENDTAB
  0
TABLE
  2
VIEW
 70
     0
  0
ENDTAB
  0
TABLE
  2
UCS
 70
     0
  0
ENDTAB
  0
TABLE
  2
APPID
 70
    19
  0
APPID
  2
ACAD
 70
     0
  0
APPID
  2
GLOBAL
 70
     0
  0
APPID
  2
DETAIL
 70
     0
  0
APPID
  2
GRPNAME
 70
     0
  0
APPID
  2
GPARA
 70
     0
  0
APPID
  2
ITEMNAME
 70
     0
  0
APPID
  2
HATCH_TYPE
 70
     0
  0
APPID
  2
HATCH_DISPLAY
 70
     0
  0
APPID
  2
HATCH_DISTANCE
 70
     0
  0
APPID
  2
MCAD_NO_VIS
 70
     0
  0
APPID
  2
ACAD_TEMP_GRAPHIC
 70
     0
  0
APPID
  2
AD_DRAW
 70
     0
  0
APPID
  2
ACATTRIBSERVICES
 70
     0
  0
APPID
  2
DESIGNERASSEMBLIES
 70
     0
  0
APPID
  2
ACADM_DIM_EDIT
 70
     0
  0
APPID
  2
AMDT_DM_ADJ
 70
     0
  0
APPID
  2
GENIUS_GENSCREG_15
 70
     0
  0
APPID
  2
GENIUS_GENODEF_13
 70
     0
  0
APPID
  2
GENIUS_GENOBJ-N-SDF_13
 70
     0
  0
ENDTAB
  0
TABLE
  2
DIMSTYLE
 70
    14
  0
DIMSTYLE
  2
BIGT
 70
     0
  3

  4

  5

  6

  7

 40
1.0
 41
2.2299999999999991
 42
0.5
 43
2.5
 44
1.0
 45
0.0
 46
0.0
 47
0.0
 48
0.0
140
3.5
141
0.0
142
0.0
143
25.399999999999999
144
1.0
145
0.0
146
1.0
147
1.0
 71
     0
 72
     0
 73
     0
 74
     0
 75
     0
 76
     0
 77
     3
 78
     9
170
     0
171
     2
172
     1
173
     0
174
     0
175
     0
176
   256
177
   256
178
    40
  0
DIMSTYLE
  2
AM_ANSI
 70
     0
  3

  4
mm
  5

  6

  7

 40
1.0
 41
0.1
 42
0.05
 43
0.5
 44
0.1
 45
0.0
 46
0.0
 47
0.1
 48
0.1
140
0.12
141
0.0
142
0.0
143
25.399999999999999
144
1.0
145
0.0
146
0.71
147
0.06
 71
     0
 72
     0
 73
     1
 74
     1
 75
     0
 76
     0
 77
     0
 78
     7
170
     0
171
     2
172
     0
173
     0
174
     0
175
     0
176
   256
177
   256
178
     2
  0
DIMSTYLE
  2
AM_ANSI$3
 70
     0
  3

  4
mm
  5

  6

  7

 40
1.0
 41
0.1
 42
0.05
 43
0.5
 44
0.1
 45
0.0
 46
0.0
 47
0.1
 48
0.1
140
0.12
141
0.0
142
0.0
143
25.399999999999999
144
1.0
145
0.0
146
0.71
147
0.06
 71
     0
 72
     0
 73
     1
 74
     1
 75
     0
 76
     0
 77
     0
 78
     7
170
     0
171
     2
172
     0
173
     0
174
     0
175
     0
176
   256
177
   256
178
     2
  0
DIMSTYLE
  2
AM_ANSI$4
 70
     0
  3

  4
mm
  5

  6

  7

 40
1.0
 41
0.1
 42
0.05
 43
0.5
 44
0.1
 45
0.0
 46
0.0
 47
0.1
 48
0.1
140
0.12
141
0.0
142
0.0
143
25.399999999999999
144
1.0
145
0.0
146
0.71
147
0.06
 71
     0
 72
     0
 73
     1
 74
     1
 75
     0
 76
     0
 77
     0
 78
     7
170
     0
171
     2
172
     0
173
     0
174
     0
175
     0
176
   256
177
   256
178
     2
  0
DIMSTYLE
  2
AM_ANSI$7
 70
     0
  3

  4
mm
  5

  6

  7

 40
1.0
 41
0.1
 42
0.05
 43
0.5
 44
0.1
 45
0.0
 46
0.0
 47
0.1
 48
0.1
140
0.24
141
0.0
142
0.0
143
25.399999999999999
144
1.0
145
0.0
146
0.71
147
0.06
 71
     0
 72
     0
 73
     1
 74
     1
 75
     0
 76
     0
 77
     0
 78
     7
170
     0
171
     2
172
     0
173
     0
174
     0
175
     0
176
   256
177
   256
178
     2
  0
DIMSTYLE
  2
AM_ANSI$SF
 70
     0
  3

  4
mm
  5

  6

  7

 40
1.0
 41
0.1
 42
0.05
 43
0.5
 44
0.1
 45
0.0
 46
0.0
 47
0.1
 48
0.1
140
0.12
141
0.0
142
0.0
143
25.399999999999999
144
1.0
145
0.0
146
0.71
147
0.06
 71
     0
 72
     0
 73
     1
 74
     1
 75
     1
 76
     1
 77
     0
 78
     7
170
     0
171
     2
172
     0
173
     0
174
     0
175
     0
176
   256
177
   256
178
     2
  0
DIMSTYLE
  2
AM_ANSI$SH
 70
     0
  3

  4
mm
  5

  6
GENAXEH
  7

 40
1.0
 41
0.1
 42
0.05
 43
0.5
 44
0.1
 45
0.0
 46
0.0
 47
0.1
 48
0.1
140
0.12
141
0.0
142
0.0
143
25.399999999999999
144
1.0
145
0.0
146
0.71
147
0.06
 71
     0
 72
     0
 73
     1
 74
     1
 75
     1
 76
     1
 77
     0
 78
     7
170
     0
171
     2
172
     0
173
     1
174
     0
175
     0
176
   256
177
   256
178
     2
  0
ENDTAB
  0
ENDSEC
  0
SECTION
  2
BLOCKS
  0
BLOCK
  8
0
  2
$MODEL_SPACE
 70
     0
 10
0.0
 20
0.0
 30
0.0
  3
$MODEL_SPACE
  1

  0
ENDBLK
  5
20AC
  8
0
  0
BLOCK
 67
     1
  8
0
  2
$PAPER_SPACE
 70
     0
 10
0.0
 20
0.0
 30
0.0
  3
$PAPER_SPACE
  1

  0
ENDBLK
  5
20A8
 67
     1
  8
0
  0
BLOCK
  8
0
  2
_OPEN
 70
     0
 10
0.0
 20
0.0
 30
0.0
  3
_OPEN
  1

  0
LINE
  5
595
  8
0
  6
BYBLOCK
 62
     0
 10
-1.0
 20
0.1666666666666666
 30
0.0
 11
0.0
 21
0.0
 31
0.0
  0
LINE
  5
596
  8
0
  6
BYBLOCK
 62
     0
 10
-1.0
 20
-0.1666666666666666
 30
0.0
 11
0.0
 21
0.0
 31
0.0
  0
LINE
  5
597
  8
0
  6
BYBLOCK
 62
     0
 10
0.0
 20
0.0
 30
0.0
 11
-1.0
 21
0.0
 31
0.0
  0
ENDBLK
  5
599
  8
0
  0
BLOCK
  8
0
  2
GENAXEH
 70
     0
 10
0.0
 20
0.0
 30
0.0
  3
GENAXEH
  1

  0
LINE
  5
1D4C
  8
0
 10
-1.0
 20
0.0
 30
0.0
 11
1.0
 21
0.0
 31
0.0
  0
ENDBLK
  5
1D4E
  8
0
  0
BLOCK
  8
0
  2
A$C703B59A7
 70
     0
 10
0.0
 20
0.0
 30
0.0
  3
A$C703B59A7
  1

  0
ARC
  5
1ECD
  8
240
 10
44.199999999999932
 20
19.168629150101481
 30
0.0
 40
0.8000000000000112
 50
0.0
 51
45.000000000001151
  0
ARC
  5
1ECE
  8
240
 10
43.127207793864052
 20
20.099999999999959
 30
0.0
 40
0.9000000000000031
 50
45.000000000001151
 51
90.0
  0
LINE
  5
1ECF
  8
240
 10
44.765685424949147
 20
19.734314575050728
 30
0.0
 11
43.763603896931947
 21
20.736396103067872
 31
0.0
  0
LINE
  5
1ED0
  8
246
 10
41.799999999999919
 20
12.74999999999994
 30
0.0
 11
41.799999999999919
 21
11.0
 31
0.0
  0
LINE
  5
1ED1
  8
246
 10
41.799999999999919
 20
12.74999999999994
 30
0.0
 11
41.999999999999908
 21
12.75
 31
0.0
  0
LINE
  5
1ED2
  8
246
 10
41.999999999999908
 20
12.75
 30
0.0
 11
44.999999999999922
 21
11.0179491924311
 31
0.0
  0
LINE
  5
1ED3
  8
246
 10
39.399999999999892
 20
11.0
 30
0.0
 11
39.399999999999892
 21
12.75
 31
0.0
  0
LINE
  5
1ED4
  8
246
 10
39.399999999999892
 20
11.0
 30
0.0
 11
41.799999999999919
 21
11.0
 31
0.0
  0
LINE
  5
1ED5
  8
241
 10
38.499999999999908
 20
-2.0000000000000551
 30
0.0
 11
38.499999999999908
 21
0.0
 31
0.0
  0
LINE
  5
1ED6
  8
241
 10
38.499999999999908
 20
2.0
 30
0.0
 11
38.499999999999908
 21
-0.0000000000000568
 31
0.0
  0
LINE
  5
1ED7
  8
241
 10
38.499999999999908
 20
19.103866990231658
 30
0.0
 11
38.499999999999908
 21
17.103866990231658
 31
0.0
  0
ARC
  5
1ED8
  8
240
 10
30.39999999999992
 20
20.099999999999959
 30
0.0
 40
0.9000000000000055
 50
90.0
 51
180.0
  0
LINE
  5
1ED9
  8
240
 10
15.30000000000001
 20
19.016283142591568
 30
0.0
 11
17.5
 21
22.82679491924312
 31
0.0
  0
LINE
  5
1EDA
  8
240
 10
17.518362671936579
 20
22.85860000000002
 30
0.0
 11
17.763274656126828
 21
23.0
 31
0.0
  0
LINE
  5
1EDB
  8
240
 10
17.763274656126828
 20
23.0
 30
0.0
 11
21.200000000000038
 21
23.0
 31
0.0
  0
LINE
  5
1EDC
  8
240
 10
9.4367253438731495
 20
23.0
 30
0.0
 11
9.6816373280634007
 21
22.85860000000002
 31
0.0
  0
LINE
  5
1EDD
  8
240
 10
11.89999999999997
 20
19.016283142591519
 30
0.0
 11
9.6816373280634007
 21
22.85860000000002
 31
0.0
  0
LINE
  5
1EDE
  8
240
 10
11.89999999999997
 20
19.0
 30
0.0
 11
15.30000000000001
 21
19.0
 31
0.0
  0
ARC
  5
1EDF
  8
240
 10
21.200000000000038
 20
22.200000000000038
 30
0.0
 40
0.799999999999983
 50
0.0
 51
90.0
  0
LINE
  5
1EE0
  8
240
 10
28.999999999999911
 20
18.0
 30
0.0
 11
29.499999999999911
 21
18.5
 31
0.0
  0
LINE
  5
1EE1
  8
240
 10
28.999999999999911
 20
18.0
 30
0.0
 11
28.999999999999911
 21
15.99999999999994
 31
0.0
  0
LINE
  5
1EE2
  8
242
 10
26.499999999999879
 20
15.49999999999994
 30
0.0
 11
25.999999999999879
 21
15.99999999999994
 31
0.0
  0
ARC
  5
1EE3
  8
240
 10
24.0
 20
17.999999999999879
 30
0.0
 40
2.0
 50
180.0
 51
270.0
  0
LINE
  5
1EE4
  8
240
 10
24.0
 20
15.999999999999879
 30
0.0
 11
28.999999999999911
 21
15.99999999999994
 31
0.0
  0
LINE
  5
1EE5
  8
242
 10
28.999999999999911
 20
15.49999999999994
 30
0.0
 11
26.499999999999911
 21
15.49999999999994
 31
0.0
  0
LINE
  5
1EE6
  8
241
 10
26.499999999999911
 20
15.49999999999994
 30
0.0
 11
26.499999999999911
 21
0.0
 31
0.0
  0
LINE
  5
1EE7
  8
241
 10
29.499999999999911
 20
-0.0000000000000568
 30
0.0
 11
29.499999999999911
 21
18.5
 31
0.0
  0
LINE
  5
1EE8
  8
240
 10
22.0
 20
17.999999999999879
 30
0.0
 11
22.0
 21
22.200000000000038
 31
0.0
  0
LINE
  5
1EE9
  8
243
 10
19.0
 20
16.300000000000001
 30
0.0
 11
19.0
 21
23.0
 31
0.0
  0
LINE
  5
1EEA
  8
240
 10
29.499999999999911
 20
20.099999999999959
 30
0.0
 11
29.499999999999911
 21
18.5
 31
0.0
  0
ARC
  5
1EEB
  8
240
 10
2.8000000000000109
 20
22.200000000000038
 30
0.0
 40
0.8000000000000112
 50
90.0
 51
180.0
  0
LINE
  5
1EEC
  8
240
 10
0.5
 20
15.94791838842974
 30
0.0
 11
2.0
 21
15.94791838842974
 31
0.0
  0
LINE
  5
1EED
  8
246
 10
-13.00000000000005
 20
8.3000000000000114
 30
0.0
 11
-13.70000000000007
 21
9.0
 31
0.0
  0
LINE
  5
1EEE
  8
240
 10
2.0
 20
22.200000000000038
 30
0.0
 11
2.0
 21
15.94791838842974
 31
0.0
  0
LINE
  5
1EEF
  8
243
 10
2.0
 20
16.300000000000001
 30
0.0
 11
19.0
 21
16.300000000000001
 31
0.0
  0
LINE
  5
1EF0
  8
240
 10
2.8000000000000109
 20
23.0
 30
0.0
 11
9.4367253438731495
 21
23.0
 31
0.0
  0
LINE
  5
1EF1
  8
246
 10
39.399999999999892
 20
12.75
 30
0.0
 11
9.9999999999999112
 21
9.6599354831890878
 31
0.0
  0
LINE
  5
1EF2
  8
246
 10
9.9999999999999112
 20
7.9999999999999423
 30
0.0
 11
44.999999999999922
 21
7.9999999999999423
 31
0.0
  0
LINE
  5
1EF3
  8
241
 10
38.499999999999908
 20
2.0
 30
0.0
 11
29.499999999999911
 21
2.0
 31
0.0
  0
LINE
  5
1EF4
  8
241
 10
38.499999999999908
 20
-2.0000000000000551
 30
0.0
 11
29.499999999999911
 21
-2.0000000000000551
 31
0.0
  0
LINE
  5
1EF5
  8
241
 10
38.499999999999908
 20
19.103866990231658
 30
0.0
 11
29.499999999999911
 21
19.103866990231658
 31
0.0
  0
LINE
  5
1EF6
  8
241
 10
38.499999999999908
 20
17.103866990231658
 30
0.0
 11
29.499999999999911
 21
17.103866990231658
 31
0.0
  0
LINE
  5
1EF7
  8
240
 10
30.39999999999992
 20
20.99999999999994
 30
0.0
 11
43.127207793864052
 21
20.99999999999994
 31
0.0
  0
LINE
  5
1EF8
  8
246
 10
41.799999999999919
 20
-12.75
 30
0.0
 11
41.999999999999908
 21
-12.75
 31
0.0
  0
LINE
  5
1EF9
  8
246
 10
41.999999999999908
 20
-12.75
 30
0.0
 11
44.999999999999922
 21
-11.0179491924311
 31
0.0
  0
LINE
  5
1EFA
  8
246
 10
41.799999999999919
 20
-12.75
 30
0.0
 11
41.799999999999919
 21
-11.0
 31
0.0
  0
LINE
  5
1EFB
  8
246
 10
39.399999999999892
 20
-11.0
 30
0.0
 11
39.399999999999892
 21
-12.75
 31
0.0
  0
LINE
  5
1EFC
  8
246
 10
39.399999999999892
 20
-11.0
 30
0.0
 11
41.799999999999919
 21
-11.0
 31
0.0
  0
ARC
  5
1EFD
  8
240
 10
44.199999999999932
 20
-19.168629150101481
 30
0.0
 40
0.7999999999999884
 50
314.99999999999869
 51
0.0
  0
ARC
  5
1EFE
  8
240
 10
43.127207793864052
 20
-20.099999999999959
 30
0.0
 40
0.8999999999999913
 50
270.0
 51
314.99999999999869
  0
LINE
  5
1EFF
  8
240
 10
43.763603896931947
 20
-20.736396103067872
 30
0.0
 11
44.76568542494914
 21
-19.734314575050728
 31
0.0
  0
LINE
  5
1F00
  8
241
 10
38.499999999999908
 20
-19.103866990231719
 30
0.0
 11
38.499999999999908
 21
-17.103866990231719
 31
0.0
  0
LINE
  5
1F01
  8
242
 10
26.499999999999879
 20
-15.49999999999994
 30
0.0
 11
25.999999999999879
 21
-15.99999999999994
 31
0.0
  0
LINE
  5
1F02
  8
240
 10
24.000000000000028
 20
-15.99999999999997
 30
0.0
 11
28.999999999999911
 21
-15.99999999999994
 31
0.0
  0
LINE
  5
1F03
  8
242
 10
28.999999999999911
 20
-15.49999999999994
 30
0.0
 11
26.499999999999911
 21
-15.49999999999994
 31
0.0
  0
LINE
  5
1F04
  8
240
 10
29.499999999999911
 20
-20.099999999999959
 30
0.0
 11
29.499999999999911
 21
-18.5
 31
0.0
  0
ARC
  5
1F05
  8
240
 10
30.39999999999992
 20
-20.099999999999959
 30
0.0
 40
0.9000000000000055
 50
180.0
 51
270.0
  0
LINE
  5
1F06
  8
240
 10
28.999999999999911
 20
-18.0
 30
0.0
 11
29.499999999999911
 21
-18.5
 31
0.0
  0
LINE
  5
1F07
  8
240
 10
22.0
 20
-22.199999999999982
 30
0.0
 11
22.000000000000021
 21
-17.999999999999972
 31
0.0
  0
ARC
  5
1F08
  8
240
 10
24.000000000000028
 20
-17.999999999999972
 30
0.0
 40
2.0
 50
90.0
 51
180.0
  0
LINE
  5
1F09
  8
240
 10
28.999999999999911
 20
-15.99999999999994
 30
0.0
 11
28.999999999999911
 21
-18.0
 31
0.0
  0
LINE
  5
1F0A
  8
240
 10
15.30000000000001
 20
-19.016283142591568
 30
0.0
 11
17.518362671936579
 21
-22.85859999999996
 31
0.0
  0
LINE
  5
1F0B
  8
240
 10
17.518362671936579
 20
-22.85859999999996
 30
0.0
 11
17.763274656126828
 21
-23.0
 31
0.0
  0
LINE
  5
1F0C
  8
240
 10
21.200000000000038
 20
-23.0
 30
0.0
 11
17.763274656126828
 21
-23.0
 31
0.0
  0
LINE
  5
1F0D
  8
240
 10
9.4367253438732082
 20
-23.0
 30
0.0
 11
9.6816373280634593
 21
-22.85859999999996
 31
0.0
  0
LINE
  5
1F0E
  8
240
 10
11.89999999999997
 20
-19.016283142591519
 30
0.0
 11
9.6816373280634593
 21
-22.85859999999996
 31
0.0
  0
LINE
  5
1F0F
  8
240
 10
11.89999999999997
 20
-19.0
 30
0.0
 11
15.30000000000001
 21
-19.0
 31
0.0
  0
LINE
  5
1F10
  8
243
 10
19.0
 20
-16.300000000000001
 30
0.0
 11
19.0
 21
-23.0
 31
0.0
  0
ARC
  5
1F11
  8
240
 10
21.200000000000038
 20
-22.199999999999982
 30
0.0
 40
0.8000000000000112
 50
270.0
 51
0.0
  0
ARC
  5
1F12
  8
247
 10
6.3982231156044227
 20
-14.94321389748427
 30
0.0
 40
0.9851760864257813
 50
253.99975070172769
 51
34.963873291630819
1001
ACAD
1000
ASC_BOUNDS
1002
{
1070
    19
1005
1F26
1002
}
  0
LINE
  5
1F13
  8
247
 10
6.1405593887977821
 20
-14.72742410256239
 30
0.0
 11
6.1405593887977821
 21
-14.475150542992081
 31
0.0
1001
ACAD
1000
ASC_BOUNDS
1002
{
1070
    19
1005
1F26
1002
}
  0
LINE
  5
1F14
  8
247
 10
5.8374282852821571
 20
-14.640506225365121
 30
0.0
 11
5.8374282852821571
 21
-13.757537322777241
 31
0.0
1001
ACAD
1000
ASC_BOUNDS
1002
{
1070
    19
1005
1F26
1002
}
  0
LINE
  5
1F15
  8
247
 10
6.8193885819130156
 20
-14.669803100365121
 30
0.0
 11
6.1405593887977821
 21
-14.475150542992081
 31
0.0
1001
ACAD
1000
ASC_BOUNDS
1002
{
1070
    19
1005
1F26
1002
}
  0
LINE
  5
1F16
  8
247
 10
7.3833881155662739
 20
-17.196612792747938
 30
0.0
 11
4.988665773075124
 21
-16.509932952660051
 31
0.0
  0
ARC
  5
1F17
  8
247
 10
6.7316581741981718
 20
-14.975760894554581
 30
0.0
 40
0.3182872831821442
 50
254.00027305718419
 51
74.000273057184273
1001
ACAD
1000
ASC_BOUNDS
1002
{
1070
    19
1005
1F26
1002
}
  0
ARC
  5
1F18
  8
247
 10
6.4500190750770781
 20
-13.3325037534413
 30
0.0
 40
2.5780792236328121
 50
245.20517736984229
 51
262.7948259620506
1001
ACAD
1000
ASC_BOUNDS
1002
{
1070
    19
1005
1F26
1002
}
  0
LINE
  5
1F19
  8
247
 10
6.1405593887977821
 20
-14.72742410256239
 30
0.0
 11
5.8374282852821571
 21
-14.640506225365121
 31
0.0
1001
ACAD
1000
ASC_BOUNDS
1002
{
1070
    19
1005
1F26
1002
}
  0
LINE
  5
1F1A
  8
247
 10
6.6439277664833281
 20
-15.28171868874403
 30
0.0
 11
5.2192184464149678
 21
-14.87318749977919
 31
0.0
1001
ACAD
1000
ASC_BOUNDS
1002
{
1070
    19
1005
1F26
1002
}
  0
LINE
  5
1F1B
  8
247
 10
4.988665773075124
 20
-16.620311218040911
 30
0.0
 11
4.988665773075124
 21
-16.509932952660051
 31
0.0
  0
LINE
  5
1F1C
  8
247
 10
7.3833881155662739
 20
-17.196612792747938
 30
0.0
 11
7.3833881155662739
 21
-16.518619018333862
 31
0.0
  0
LINE
  5
1F1D
  8
247
 10
7.3833881155662739
 20
-14.20083566262098
 30
0.0
 11
5.8374282852821571
 21
-13.757537322777241
 31
0.0
1001
ACAD
1000
ASC_BOUNDS
1002
{
1070
    19
1005
1F26
1002
}
  0
LINE
  5
1F1E
  8
247
 10
7.2055812613182271
 20
-14.378653960960831
 30
0.0
 11
7.3833881155662739
 21
-14.20083566262098
 31
0.0
1001
ACAD
1000
ASC_BOUNDS
1002
{
1070
    19
1005
1F26
1002
}
  0
ARC
  5
1F1F
  8
247
 10
6.2466575638466111
 20
-13.37802835060927
 30
0.0
 40
1.288299322128293
 50
200.87218340207721
 51
222.5419489373881
1001
ACAD
1000
ASC_BOUNDS
1002
{
1070
    19
1005
1F26
1002
}
  0
LINE
  5
1F20
  8
247
 10
4.655230714481374
 20
-16.52469583107802
 30
0.0
 11
4.655230714481374
 21
-15.73633523537489
 31
0.0
  0
ARC
  5
1F21
  8
247
 10
6.2466575638466111
 20
-13.37802835060927
 30
0.0
 40
1.591427564620969
 50
200.22964506332011
 51
208.57168892371649
1001
ACAD
1000
ASC_BOUNDS
1002
{
1070
    19
1005
1F26
1002
}
  0
ARC
  5
1F22
  8
247
 10
6.2466575638466111
 20
-13.37802835060927
 30
0.0
 40
1.288295745849608
 50
0.0
 51
194.1274364964118
1001
ACAD
1000
ASC_BOUNDS
1002
{
1070
    19
1005
1F6E
1002
}
  0
ARC
  5
1F23
  8
247
 10
6.2466575638466111
 20
-13.37802835060927
 30
0.0
 40
1.591426849365233
 50
0.0
 51
194.77079396609381
1001
ACAD
1000
ASC_BOUNDS
1002
{
1070
    19
1005
1F6E
1002
}
  0
ARC
  5
1F24
  8
247
 10
5.6403953568153611
 20
-14.7259134824452
 30
0.0
 40
0.9851660728454588
 50
143.44401219705779
 51
254.00018438768541
1001
ACAD
1000
ASC_BOUNDS
1002
{
1070
    19
1005
1F26
1002
}
  0
ARC
  5
1F25
  8
247
 10
5.3069602982216111
 20
-14.56722970558973
 30
0.0
 40
0.3182875066995621
 50
91.710121382064344
 51
253.9983983544486
1001
ACAD
1000
ASC_BOUNDS
1002
{
1070
    19
1005
1F26
1002
}
  0
INSERT
  5
1F26
  8
247
  6
CONTINUOUS
  2
*X21
 10
0.0
 20
0.0
 30
0.0
1001
ACAD
1000
HATCH
1002
{
1070
    19
1000
ANSI31
1040
0.075
1040
1.570796326794895
1000
ASC_BOUNDS
1070
     1
1070
     2
1070
    15
1005
1F21
1005
1F24
1005
1F18
1005
1F12
1005
1F1E
1005
1F1D
1005
1F14
1005
1F19
1005
1F13
1005
1F15
1005
1F17
1005
1F1A
1005
1F25
1005
1F1F
1005
1F42
1000
ASC_SEEDPOINT
1011
19.650577260654469
1021
0.0
1031
-2.4777413100201922E+174
1021
-110.9729676778492
1031
0.0
1000
R14_HATCH_DATA
1000
1F26
1011
1.0
1021
0.0
1031
-2.4777413100201922E+174
1021
0.0
1031
0.0
1011
0.0
1021
0.0
1031
-2.4777413100201922E+174
1021
1.0
1031
0.0
1011
0.0
1021
0.0
1031
-2.4777413100201922E+174
1021
0.0
1031
1.0
1040
0.0
1010
0.0
1020
0.0
1030
1.0
1000
ANSI31
1070
     0
1070
     1
1071
        1
1071
       33
1071
       15
1070
     1
1040
5.0428993241005147
1040
-13.837027984398331
1040
4.7533981339149678
1040
-13.928317504661999
1070
     2
1040
6.2466575638466111
1040
-13.37802835060927
1040
1.288299322128293
1040
3.50588097603615
1040
3.8840897327625181
1070
     1
1070
     2
1040
5.3069602982216111
1040
-14.56722970558973
1040
0.3182875066995621
1040
1.600643575520674
1040
4.4331083460772751
1070
     1
1070
     1
1040
6.6439277664833281
1040
-15.28171868874403
1040
5.2192184464149678
1040
-14.87318749977919
1070
     2
1040
6.7316581741981718
1040
-14.975760894554581
1040
0.3182872831821442
1040
4.4331410658125074
1040
7.5747337194022997
1070
     1
1070
     1
1040
6.8193885819130156
1040
-14.669803100365121
1040
6.1405593887977821
1040
-14.475150542992081
1070
     1
1040
6.1405593887977821
1040
-14.72742410256239
1040
6.1405593887977821
1040
-14.475150542992081
1070
     1
1040
6.1405593887977821
1040
-14.72742410256239
1040
5.8374282852821571
1040
-14.640506225365121
1070
     1
1040
5.8374282852821571
1040
-14.640506225365121
1040
5.8374282852821571
1040
-13.757537322777241
1070
     1
1040
7.3833881155662739
1040
-14.20083566262098
1040
5.8374282852821571
1040
-13.757537322777241
1070
     1
1040
7.2055812613182271
1040
-14.378653960960831
1040
7.3833881155662739
1040
-14.20083566262098
1070
     2
1040
6.3982231156044227
1040
-14.94321389748427
1040
0.9851760864257813
1040
4.4331319489899252
1040
6.8934200153686511
1070
     1
1070
     2
1040
6.4500190750770781
1040
-13.3325037534413
1040
2.5780792236328121
1040
4.2796376880404372
1040
4.5866349702432574
1070
     1
1070
     2
1040
5.6403953568153611
1040
-14.7259134824452
1040
0.9851660728454588
1040
2.5035703051095641
1040
4.4331395182378071
1070
     1
1070
     2
1040
6.2466575638466111
1040
-13.37802835060927
1040
1.591427564620969
1040
3.4946665664545442
1040
3.640262698164241
1070
     1
1071
       15
1005
1F42
1005
1F1F
1005
1F25
1005
1F1A
1005
1F17
1005
1F15
1005
1F13
1005
1F19
1005
1F14
1005
1F1D
1005
1F1E
1005
1F12
1005
1F18
1005
1F24
1005
1F21
1070
     0
1070
     1
1040
1.570796326794895
1040
0.075
1070
     0
1070
     1
1040
2.3561944901923431
1040
19.650577260654469
1040
-110.9729676778492
1040
-0.1683798022700466
1040
-0.1683798022700466
1070
     0
1071
        1
1040
19.650577260654469
1040
-110.9729676778492
1040
0.0
1002
}
  0
POLYLINE
  5
1F27
  8
247
 66
     1
 10
0.0
 20
0.0
 30
0.0
 70
     1
1001
HATCH_DISTANCE
1040
1.0
1001
HATCH_DISPLAY
1070
     0
1001
HATCH_TYPE
1070
     7
  0
VERTEX
  5
1F28
  8
247
 10
4.655230714481374
 20
-16.52469583107802
 30
0.0
  0
VERTEX
  5
1F29
  8
247
 10
4.988665773075124
 20
-16.620311218040911
 30
0.0
  0
VERTEX
  5
1F2A
  8
247
 10
4.988665773075124
 20
-16.509932952660051
 30
0.0
  0
VERTEX
  5
1F2B
  8
247
 10
7.3833881155662739
 20
-17.196612792747938
 30
0.0
  0
VERTEX
  5
1F2C
  8
247
 10
7.3833881155662739
 20
-16.518619018333862
 30
0.0
  0
VERTEX
  5
1F2D
  8
247
 10
4.655230714481374
 20
-15.73633523537489
 30
0.0
  0
SEQEND
  5
1F2E
  8
247
  0
POLYLINE
  5
1F2F
  8
247
 66
     1
 10
0.0
 20
0.0
 30
0.0
 70
     1
  0
VERTEX
  5
1F30
  8
247
 10
4.655230714481374
 20
-16.52469583107802
 30
0.0
  0
VERTEX
  5
1F31
  8
247
 10
4.988665773075124
 20
-16.620311218040911
 30
0.0
  0
VERTEX
  5
1F32
  8
247
 10
4.988665773075124
 20
-16.509932952660051
 30
0.0
  0
VERTEX
  5
1F33
  8
247
 10
7.3833881155662739
 20
-17.196612792747938
 30
0.0
  0
VERTEX
  5
1F34
  8
247
 10
7.3833881155662739
 20
-16.518619018333862
 30
0.0
  0
VERTEX
  5
1F35
  8
247
 10
4.655230714481374
 20
-15.73633523537489
 30
0.0
  0
SEQEND
  5
1F36
  8
247
  0
INSERT
  5
1F37
  8
247
  6
CONTINUOUS
  2
*X22
 10
0.0
 20
0.0
 30
0.0
1001
ACAD
1000
HATCH
1002
{
1070
    19
1000
ANSI31
1040
0.075
1040
1.570796326794895
1000
R14_HATCH_DATA
1000
1F37
1011
1.0
1021
0.0
1031
-2.4777413100201922E+174
1021
0.0
1031
0.0
1011
0.0
1021
0.0
1031
-2.4777413100201922E+174
1021
1.0
1031
0.0
1011
0.0
1021
0.0
1031
-2.4777413100201922E+174
1021
0.0
1031
1.0
1040
0.0
1010
0.0
1020
0.0
1030
1.0
1000
ANSI31
1070
     0
1070
     0
1071
        1
1071
        7
1070
     0
1070
     1
1071
        6
1040
4.655230714481374
1040
-15.73633523537489
1040
4.655230714481374
1040
-16.52469583107802
1040
4.988665773075124
1040
-16.620311218040911
1040
4.988665773075124
1040
-16.509932952660101
1040
7.3833881155662739
1040
-17.196612792747938
1040
7.3833881155662739
1040
-16.518619018333862
1071
        0
1070
     0
1070
     1
1040
1.570796326794895
1040
0.075
1070
     0
1070
     1
1040
2.3561944901923431
1040
19.650577260654469
1040
-110.9729676778492
1040
-0.1683798022700466
1040
-0.1683798022700466
1070
     0
1040
0.0134348504236232
1071
        1
1040
5.947874004480127
1040
-16.44507193407901
1040
0.0
1002
}
  0
LINE
  5
1F38
  8
247
 10
7.3833881155662739
 20
-16.518619018333862
 30
0.0
 11
4.655230714481374
 21
-15.73633523537489
 31
0.0
  0
LINE
  5
1F39
  8
247
 10
5.4761965433627298
 20
-17.660079893635611
 30
0.0
 11
4.9689359057967382
 21
-17.152819256069609
 31
0.0
  0
LINE
  5
1F3A
  8
247
 10
4.988665773075124
 20
-16.620311218040911
 30
0.0
 11
4.655230714481374
 21
-16.52469583107802
 31
0.0
  0
POLYLINE
  5
1F3B
  8
247
 66
     1
 10
0.0
 20
0.0
 30
0.0
 70
     1
  0
VERTEX
  5
1F3C
  8
247
 10
4.9973175064735633
 20
-13.692477660911999
 30
0.0
  0
VERTEX
  5
1F3D
  8
247
 10
4.7078163162880147
 20
-13.783767181175669
 30
0.0
  0
VERTEX
  5
1F3E
  8
247
 10
4.7078163162880147
 20
-13.783767181175669
 30
0.0
  0
VERTEX
  5
1F3F
  8
247
 10
4.9973175064735633
 20
-13.692477660911999
 30
0.0
  0
SEQEND
  5
1F40
  8
247
  0
LINE
  5
1F41
  8
247
 10
4.9973175064735633
 20
-13.692477660911999
 30
0.0
 11
4.7078163162880147
 21
-13.783767181175669
 31
0.0
1001
ACAD
1000
ASC_BOUNDS
1002
{
1070
    19
1005
1F6E
1002
}
  0
LINE
  5
1F42
  8
247
 10
5.0428993241005147
 20
-13.837027984398331
 30
0.0
 11
4.7533981339149678
 21
-13.928317504661999
 31
0.0
1001
ACAD
1000
ASC_BOUNDS
1002
{
1070
    19
1005
1F26
1002
}
  0
POLYLINE
  5
1F43
  8
247
 66
     1
 10
0.0
 20
0.0
 30
0.0
 70
     1
1001
HATCH_DISTANCE
1040
1.0
1001
HATCH_DISPLAY
1070
     0
1001
HATCH_TYPE
1070
     7
  0
VERTEX
  5
1F44
  8
247
 10
4.9973175064735633
 20
-13.692477660911999
 30
0.0
  0
VERTEX
  5
1F45
  8
247
 10
4.7078163162880147
 20
-13.783767181175669
 30
0.0
  0
VERTEX
  5
1F46
  8
247
 10
4.7078163162880147
 20
-13.783767181175669
 30
0.0
  0
VERTEX
  5
1F47
  8
247
 10
4.9973175064735633
 20
-13.692477660911999
 30
0.0
  0
SEQEND
  5
1F48
  8
247
  0
POLYLINE
  5
1F49
  8
247
 66
     1
 10
0.0
 20
0.0
 30
0.0
 70
     1
  0
VERTEX
  5
1F4A
  8
247
 10
4.9973175064735633
 20
-13.692477660911999
 30
0.0
  0
VERTEX
  5
1F4B
  8
247
 10
4.7078163162880147
 20
-13.783767181175669
 30
0.0
  0
VERTEX
  5
1F4C
  8
247
 10
4.7078163162880147
 20
-13.783767181175669
 30
0.0
  0
VERTEX
  5
1F4D
  8
247
 10
4.9973175064735633
 20
-13.692477660911999
 30
0.0
  0
SEQEND
  5
1F4E
  8
247
  0
POLYLINE
  5
1F4F
  8
247
 66
     1
 10
0.0
 20
0.0
 30
0.0
 70
     1
1001
HATCH_DISTANCE
1040
1.0
1001
HATCH_DISPLAY
1070
     0
1001
HATCH_TYPE
1070
     7
  0
VERTEX
  5
1F50
  8
247
 10
4.9973175064735633
 20
-13.692477660911999
 30
0.0
  0
VERTEX
  5
1F51
  8
247
 10
4.7078163162880147
 20
-13.783767181175669
 30
0.0
  0
VERTEX
  5
1F52
  8
247
 10
4.7078163162880147
 20
-13.783767181175669
 30
0.0
  0
VERTEX
  5
1F53
  8
247
 10
4.9973175064735633
 20
-13.692477660911999
 30
0.0
  0
SEQEND
  5
1F54
  8
247
  0
LINE
  5
1F55
  8
240
 10
0.5
 20
-15.94791838842974
 30
0.0
 11
2.0
 21
-15.94791838842974
 31
0.0
  0
LINE
  5
1F56
  8
247
 10
7.3833881155662739
 20
-19.230511861299071
 30
0.0
 11
6.521355708882651
 21
-18.36847945461539
 31
0.0
  0
LINE
  5
1F57
  8
247
 10
7.3833881155662739
 20
-18.893752256759001
 30
0.0
 11
6.993493959194609
 21
-18.503858100387319
 31
0.0
  0
LINE
  5
1F58
  8
247
 10
6.166008443128927
 20
-19.023411002481961
 30
0.0
 11
5.104923707576174
 21
-17.96232626692921
 31
0.0
  0
LINE
  5
1F59
  8
247
 10
7.1102988955630622
 20
-19.294182245835941
 30
0.0
 11
5.8277194241406383
 21
-18.011602774413461
 31
0.0
  0
LINE
  5
1F5A
  8
247
 10
6.638153669346023
 20
-19.158796624158981
 30
0.0
 11
5.5770644650861509
 21
-18.097707419899091
 31
0.0
  0
ARC
  5
1F5B
  8
247
 10
6.5952560440712187
 20
-18.452739196556529
 30
0.0
 40
0.4546969681978227
 50
351.66285421114878
 51
156.33819215911009
  0
LINE
  5
1F5C
  8
247
 10
6.1787852511727692
 20
-18.270252453063279
 30
0.0
 11
7.0451477916143981
 21
-18.518669071278332
 31
0.0
  0
LINE
  5
1F5D
  8
247
 10
7.3833881155662739
 20
-19.372489410179519
 30
0.0
 11
7.3833881155662739
 21
-18.114554839867079
 31
0.0
  0
ARC
  5
1F5E
  8
240
 10
2.8000000000000109
 20
-22.199999999999982
 30
0.0
 40
0.8000000000000112
 50
180.0
 51
270.0
  0
LINE
  5
1F5F
  8
247
 10
4.9583618179970568
 20
-18.826043190970381
 30
0.0
 11
4.6552307144814318
 21
-18.522912087454738
 31
0.0
  0
LINE
  5
1F60
  8
247
 10
4.655230714481374
 20
-18.747882323997761
 30
0.0
 11
4.6552307144814886
 21
-17.769995446813191
 31
0.0
  0
LINE
  5
1F61
  8
247
 10
4.958361817996999
 20
-19.531550842064341
 30
0.0
 11
4.958361817996999
 21
-18.992465453880751
 31
0.0
1001
ACAD
1000
ASC_BOUNDS
1002
{
1070
    19
1005
1F6E
1002
}
  0
LINE
  5
1F62
  8
247
 10
4.958361817996999
 20
-18.834800201195549
 30
0.0
 11
4.9583618179979112
 21
-18.677123504418201
 31
0.0
  0
LINE
  5
1F63
  8
247
 10
4.655230714481374
 20
-19.531550842064341
 30
0.0
 11
4.655230714481374
 21
-18.905547576683489
 31
0.0
1001
ACAD
1000
ASC_BOUNDS
1002
{
1070
    19
1005
1F6E
1002
}
  0
LINE
  5
1F64
  8
247
 10
4.655230714481374
 20
-18.747882323997761
 30
0.0
 11
4.958361817996999
 21
-18.834800201195549
 31
0.0
  0
LINE
  5
1F65
  8
247
 10
4.655230714481374
 20
-18.905547576683489
 30
0.0
 11
4.958361817996999
 21
-18.992465453880751
 31
0.0
1001
ACAD
1000
ASC_BOUNDS
1002
{
1070
    19
1005
1F6E
1002
}
  0
LINE
  5
1F66
  8
247
 10
7.3833881155662739
 20
-19.372489410179519
 30
0.0
 11
4.9583618179979112
 21
-18.677123504418201
 31
0.0
  0
ARC
  5
1F67
  8
247
 10
6.2466575638466111
 20
-19.531550842064341
 30
0.0
 40
1.288295745849608
 50
180.0
 51
0.0
1001
ACAD
1000
ASC_BOUNDS
1002
{
1070
    19
1005
1F6E
1002
}
  0
ARC
  5
1F68
  8
247
 10
6.2466575638466111
 20
-19.531550842064341
 30
0.0
 40
1.591426849365233
 50
180.0
 51
0.0
1001
ACAD
1000
ASC_BOUNDS
1002
{
1070
    19
1005
1F6E
1002
}
  0
LINE
  5
1F69
  8
247
 10
5.6938632169118932
 20
-18.888025380805001
 30
0.0
 11
4.6552307144814886
 21
-17.849392878374651
 31
0.0
  0
LINE
  5
1F6A
  8
247
 10
5.221717990694799
 20
-18.752639759128041
 30
0.0
 11
4.6552307144814318
 21
-18.186152482914672
 31
0.0
  0
LINE
  5
1F6B
  8
247
 10
4.9662848986554859
 20
-17.9225731181076
 30
0.0
 11
5.8326217426808844
 21
-18.17098564962259
 31
0.0
  0
LINE
  5
1F6C
  8
247
 10
7.838084763038295
 20
-19.531550842064341
 30
0.0
 11
7.838084763038295
 21
-13.37802835060927
 31
0.0
1001
ACAD
1000
ASC_BOUNDS
1002
{
1070
    19
1005
1F6E
1002
}
  0
LINE
  5
1F6D
  8
247
 10
7.5349536673240891
 20
-19.531550842064341
 30
0.0
 11
7.5349536673240891
 21
-13.37802835060927
 31
0.0
1001
ACAD
1000
ASC_BOUNDS
1002
{
1070
    19
1005
1F6E
1002
}
  0
INSERT
  5
1F6E
  8
247
  6
CONTINUOUS
  2
*X23
 10
0.0
 20
0.0
 30
0.0
1001
ACAD
1000
HATCH
1002
{
1070
    19
1000
ANSI31
1040
0.075
1040
1.570796326794895
1000
ASC_BOUNDS
1070
     1
1070
     2
1070
    10
1005
1F41
1005
1F22
1005
1F23
1005
1F6D
1005
1F6C
1005
1F68
1005
1F67
1005
1F61
1005
1F63
1005
1F65
1000
ASC_SEEDPOINT
1011
19.650577260654469
1021
0.0
1031
-2.4777413100201922E+174
1021
-110.9729676778492
1031
0.0
1000
R14_HATCH_DATA
1000
1F6E
1011
1.0
1021
0.0
1031
-2.4777413100201922E+174
1021
0.0
1031
0.0
1011
0.0
1021
0.0
1031
-2.4777413100201922E+174
1021
1.0
1031
0.0
1011
0.0
1021
0.0
1031
-2.4777413100201922E+174
1021
0.0
1031
1.0
1040
0.0
1010
0.0
1020
0.0
1030
1.0
1000
ANSI31
1070
     0
1070
     1
1071
        1
1071
       33
1071
       10
1070
     1
1040
4.655230714481374
1040
-18.905547576683489
1040
4.958361817996999
1040
-18.992465453880751
1070
     1
1040
4.655230714481374
1040
-19.531550842064341
1040
4.655230714481374
1040
-18.905547576683489
1070
     1
1040
4.958361817996999
1040
-19.531550842064341
1040
4.958361817996999
1040
-18.992465453880751
1070
     2
1040
6.2466575638466111
1040
-19.531550842064341
1040
1.288295745849608
1040
3.1415926535897918
1040
6.2831853071795853
1070
     1
1070
     2
1040
6.2466575638466111
1040
-19.531550842064341
1040
1.591426849365233
1040
3.1415926535897918
1040
6.2831853071795853
1070
     1
1070
     1
1040
7.838084763038295
1040
-19.531550842064341
1040
7.838084763038295
1040
-13.37802835060927
1070
     1
1040
7.5349536673240891
1040
-19.531550842064341
1040
7.5349536673240891
1040
-13.37802835060927
1070
     2
1040
6.2466575638466111
1040
-13.37802835060927
1040
1.591426849365233
1040
0.0
1040
3.3993916414318419
1070
     1
1070
     2
1040
6.2466575638466111
1040
-13.37802835060927
1040
1.288295745849608
1040
0.0
1040
3.3881629353185909
1070
     1
1070
     1
1040
4.9973175064735633
1040
-13.692477660911999
1040
4.7078163162880147
1040
-13.783767181175669
1071
       10
1005
1F65
1005
1F63
1005
1F61
1005
1F67
1005
1F68
1005
1F6C
1005
1F6D
1005
1F23
1005
1F22
1005
1F41
1070
     0
1070
     1
1040
1.570796326794895
1040
0.075
1070
     0
1070
     1
1040
2.3561944901923431
1040
19.650577260654469
1040
-110.9729676778492
1040
-0.1683798022700466
1040
-0.1683798022700466
1070
     0
1071
        1
1040
19.650577260654469
1040
-110.9729676778492
1040
0.0
1002
}
  0
ARC
  5
1F6F
  8
247
 10
6.6255714432411423
 20
-18.114554839867079
 30
0.0
 40
0.7578163146972659
 50
0.0
 51
130.32984065416761
  0
LINE
  5
1F70
  8
247
 10
7.3833881155663299
 20
-18.220233047678789
 30
0.0
 11
6.5264093982073073
 21
-17.363254330319759
 31
0.0
  0
LINE
  5
1F71
  8
247
 10
7.3833881155662739
 20
-18.55699265221886
 30
0.0
 11
6.271131175708601
 21
-17.44473571236119
 31
0.0
  0
LINE
  5
1F72
  8
247
 10
7.3265705580541258
 20
-17.826655885626501
 30
0.0
 11
6.9134703974817731
 21
-17.413555725054149
 31
0.0
  0
LINE
  5
1F73
  8
240
 10
2.0
 20
-22.199999999999982
 30
0.0
 11
2.0
 21
-15.94791838842974
 31
0.0
  0
ARC
  5
1F74
  8
247
 10
5.4130470291786406
 20
-17.76687188698622
 30
0.0
 40
0.7578227519989014
 50
17.669577547398148
 51
180.2361598426715
  0
LINE
  5
1F75
  8
247
 10
6.2789581632879372
 20
-18.12608190902068
 30
0.0
 11
5.19420995568822
 21
-17.04133370142096
 31
0.0
  0
LINE
  5
1F76
  8
247
 10
6.4981649180095351
 20
-18.0085290592022
 30
0.0
 11
5.5041852420781092
 21
-17.014549383270761
 31
0.0
  0
ARC
  5
1F77
  8
247
 10
5.3827430741005156
 20
-18.105056243675669
 30
0.0
 40
0.4546839594841006
 50
351.66260168792923
 51
156.3381550951899
  0
LINE
  5
1F78
  8
247
 10
5.1782897397981742
 20
-17.698932694611131
 30
0.0
 11
4.800307656255141
 21
-17.320950611068088
 31
0.0
  0
LINE
  5
1F79
  8
247
 10
5.0008634214063363
 20
-17.85826598075942
 30
0.0
 11
4.6882359417720041
 21
-17.54563850112509
 31
0.0
  0
LINE
  5
1F7A
  8
246
 10
-13.70000000000007
 20
-9.0
 30
0.0
 11
-13.00000000000005
 21
-8.3000000000000114
 31
0.0
  0
LINE
  5
1F7B
  8
240
 10
9.4367253438732082
 20
-23.0
 30
0.0
 11
2.8000000000000109
 21
-23.0
 31
0.0
  0
LINE
  5
1F7C
  8
243
 10
2.0
 20
-16.300000000000001
 30
0.0
 11
19.0
 21
-16.300000000000001
 31
0.0
  0
LINE
  5
1F7D
  8
246
 10
39.399999999999892
 20
-12.75
 30
0.0
 11
9.9999999999999112
 21
-9.6599354831890878
 31
0.0
  0
LINE
  5
1F7E
  8
246
 10
9.9999999999999112
 20
-8.0
 30
0.0
 11
44.999999999999922
 21
-8.0
 31
0.0
  0
LINE
  5
1F7F
  8
240
 10
30.39999999999992
 20
-21.0
 30
0.0
 11
43.127207793864052
 21
-21.0
 31
0.0
  0
LINE
  5
1F80
  8
241
 10
38.499999999999908
 20
-17.103866990231719
 30
0.0
 11
29.499999999999911
 21
-17.103866990231719
 31
0.0
  0
LINE
  5
1F81
  8
241
 10
38.499999999999908
 20
-19.103866990231719
 30
0.0
 11
29.499999999999911
 21
-19.103866990231719
 31
0.0
  0
LINE
  5
1F82
  8
245
 10
0.0
 20
15.875
 30
0.0
 11
0.0
 21
-15.875
 31
0.0
  0
LINE
  5
1F83
  8
241
 10
0.5
 20
-15.94791838842974
 30
0.0
 11
0.5
 21
15.94791838842974
 31
0.0
  0
LINE
  5
1F84
  8
246
 10
-13.00000000000005
 20
-8.3000000000000114
 30
0.0
 11
-13.00000000000005
 21
8.3000000000000114
 31
0.0
  0
LINE
  5
1F85
  8
241
 10
17.600000000000019
 20
22.90573333333333
 30
0.0
 11
17.600000000000019
 21
-22.90573333333333
 31
0.0
  0
LINE
  5
1F86
  8
241
 10
9.6000000000000245
 20
22.90573333333327
 30
0.0
 11
9.6000000000000245
 21
-22.90573333333333
 31
0.0
  0
LINE
  5
1F87
  8
241
 10
2.0
 20
-15.94791838842974
 30
0.0
 11
2.0
 21
15.94791838842974
 31
0.0
  0
TEXT
  5
1F88
  8
247
 10
7.405889219459822
 20
-10.77930222570148
 30
0.0
 40
2.5
  1
BT30-NBS16-45
 50
90.0
  7
YOKO
 11
7.405889219459822
 21
-10.77930222570148
 31
0.0
 73
     1
  0
LINE
  5
1F89
  8
241
 10
21.999999999999812
 20
17.999999999999879
 30
0.0
 11
21.999999999999812
 21
-17.999999999999972
 31
0.0
  0
LINE
  5
1F8A
  8
240
 10
44.999999999999929
 20
19.168629150101481
 30
0.0
 11
44.999999999999922
 21
-19.168629150101481
 31
0.0
  0
LINE
  5
1F8B
  8
241
 10
43.127207793864052
 20
20.18921475875117
 30
0.0
 11
43.127207793864052
 21
-20.463576158940381
 31
0.0
  0
LINE
  5
1F8C
  8
240
 10
28.999999999999911
 20
18.0
 30
0.0
 11
28.999999999999911
 21
-18.0
 31
0.0
  0
LINE
  5
1F8D
  8
241
 10
28.999999999999911
 20
15.99999999999994
 30
0.0
 11
28.999999999999911
 21
-15.99999999999994
 31
0.0
  0
LINE
  5
1F8E
  8
241
 10
15.30000000000001
 20
-19.0
 30
0.0
 11
15.30000000000001
 21
19.0
 31
0.0
  0
LINE
  5
1F8F
  8
241
 10
11.89999999999997
 20
-19.0
 30
0.0
 11
11.89999999999997
 21
19.0
 31
0.0
  0
LINE
  5
1F90
  8
246
 10
10.00000000000002
 20
9.6599354831891997
 30
0.0
 11
9.9999999999999716
 21
-9.6599354831889741
 31
0.0
  0
LINE
  5
1F91
  8
241
 10
26.499999999999911
 20
-15.49999999999994
 30
0.0
 11
26.499999999999911
 21
0.0
 31
0.0
  0
LINE
  5
1F92
  8
241
 10
29.499999999999911
 20
0.0
 30
0.0
 11
29.499999999999911
 21
-18.5
 31
0.0
  0
LINE
  5
1F93
  8
246
 10
-28.00000000000011
 20
8.25
 30
0.0
 11
-27.25000000000011
 21
9.0
 31
0.0
  0
LINE
  5
1F94
  8
246
 10
-23.00000000000006
 20
3.0
 30
0.0
 11
-23.00000000000006
 21
1.893368327890868
 31
0.0
  0
LINE
  5
1F95
  8
246
 10
-22.601282525764528
 20
2.30940107675849
 30
0.0
 11
-23.00000000000006
 21
3.0
 31
0.0
  0
LINE
  5
1F96
  8
246
 10
-22.601282525764528
 20
2.30940107675849
 30
0.0
 11
-18.690598923241591
 21
2.30940107675849
 31
0.0
  0
LINE
  5
1F97
  8
246
 10
-22.601282525764528
 20
1.154700538379245
 30
0.0
 11
-18.690598923241591
 21
1.154700538379245
 31
0.0
  0
LINE
  5
1F98
  8
246
 10
-23.00000000000006
 20
-3.0
 30
0.0
 11
-23.00000000000006
 21
-1.893368327890868
 31
0.0
  0
LINE
  5
1F99
  8
246
 10
-22.601282525764528
 20
-2.30940107675849
 30
0.0
 11
-23.00000000000006
 21
-3.0
 31
0.0
  0
LINE
  5
1F9A
  8
246
 10
-22.601282525764528
 20
-1.154700538379245
 30
0.0
 11
-18.690598923241591
 21
-1.154700538379245
 31
0.0
  0
LINE
  5
1F9B
  8
246
 10
-22.601282525764528
 20
-2.30940107675849
 30
0.0
 11
-18.690598923241591
 21
-2.30940107675849
 31
0.0
  0
LINE
  5
1F9C
  8
246
 10
-22.601282525764528
 20
-2.30940107675849
 30
0.0
 11
-22.601282525764528
 21
2.30940107675849
 31
0.0
  0
LINE
  5
1F9D
  8
246
 10
-18.690598923241591
 20
-2.30940107675849
 30
0.0
 11
-18.690598923241591
 21
2.30940107675849
 31
0.0
  0
ARC
  5
1F9E
  8
246
 10
-32.00000000000005
 20
7.25
 30
0.0
 40
1.0
 50
90.0
 51
180.0
  0
LINE
  5
1F9F
  8
246
 10
-23.00000000000006
 20
-3.0
 30
0.0
 11
-33.00000000000005
 21
-3.0
 31
0.0
  0
LINE
  5
1FA0
  8
246
 10
-23.00000000000006
 20
3.0
 30
0.0
 11
-33.00000000000005
 21
3.0
 31
0.0
  0
LINE
  5
1FA1
  8
246
 10
-32.00000000000005
 20
8.25
 30
0.0
 11
-28.00000000000006
 21
8.25
 31
0.0
  0
ARC
  5
1FA2
  8
240
 10
-47.899999999999977
 20
8.3841292718131513
 30
0.0
 40
0.4999999999999967
 50
98.297338160597704
 51
180.0
  0
LINE
  5
1FA3
  8
240
 10
-48.399999999999977
 20
8.3841292718131513
 30
0.0
 11
-48.399999999999977
 21
8.25
 31
0.0
  0
LINE
  5
1FA4
  8
246
 10
-28.00000000000011
 20
-8.25
 30
0.0
 11
-27.25000000000011
 21
-9.0
 31
0.0
  0
ARC
  5
1FA5
  8
246
 10
-32.00000000000005
 20
-7.25
 30
0.0
 40
1.0
 50
180.0
 51
270.0
  0
LINE
  5
1FA6
  8
246
 10
-32.00000000000005
 20
-8.25
 30
0.0
 11
-28.00000000000006
 21
-8.25
 31
0.0
  0
ARC
  5
1FA7
  8
240
 10
-47.899999999999977
 20
-8.3841292718131513
 30
0.0
 40
0.5
 50
180.0
 51
261.70266183940231
  0
LINE
  5
1FA8
  8
240
 10
-48.399999999999977
 20
-8.3841292718131513
 30
0.0
 11
-48.399999999999977
 21
-8.2499999999999432
 31
0.0
  0
LINE
  5
1FA9
  8
240
 10
-48.399999999999977
 20
-8.2499999999999432
 30
0.0
 11
-48.399999999999977
 21
8.25
 31
0.0
  0
LINE
  5
1FAA
  8
246
 10
-33.00000000000005
 20
7.25
 30
0.0
 11
-33.00000000000005
 21
-7.25
 31
0.0
  0
LINE
  5
1FAB
  8
245
 10
-52.295925293397097
 20
0.0
 30
0.0
 11
51.406964771555167
 21
0.0
 31
0.0
  0
LINE
  5
1FAC
  8
240
 10
-47.97215511479645
 20
8.8788955190538541
 30
0.0
 11
0.5
 21
15.94791838842974
 31
0.0
  0
LINE
  5
1FAD
  8
240
 10
-47.97215511479645
 20
-8.8788955190539127
 30
0.0
 11
0.5
 21
-15.94791838842974
 31
0.0
  0
LINE
  5
1FAE
  8
246
 10
-27.25000000000011
 20
-9.0
 30
0.0
 11
-13.70000000000007
 21
-9.0
 31
0.0
  0
LINE
  5
1FAF
  8
246
 10
-27.600000000000101
 20
-8.6499999999999773
 30
0.0
 11
-13.350000000000071
 21
-8.6499999999999773
 31
0.0
  0
LINE
  5
1FB0
  8
246
 10
-27.25000000000011
 20
9.0
 30
0.0
 11
-13.70000000000007
 21
9.0
 31
0.0
  0
LINE
  5
1FB1
  8
246
 10
-27.600000000000101
 20
8.6500000000000341
 30
0.0
 11
-13.350000000000071
 21
8.6500000000000341
 31
0.0
  0
LINE
  5
1FB2
  8
246
 10
-13.00000000000005
 20
-8.0000000000000568
 30
0.0
 11
-18.690598923241591
 21
-2.30940107675849
 31
0.0
  0
LINE
  5
1FB3
  8
246
 10
-13.00000000000005
 20
8.0000000000000568
 30
0.0
 11
-18.690598923241591
 21
2.30940107675849
 31
0.0
  0
ENDBLK
  5
1FB6
  8
0
  0
BLOCK
  8
0
  2
*X21
 70
     1
 10
0.0
 20
0.0
 30
0.0
  3
*X21
  1

  0
LINE
  5
203D
  8
0
 62
     0
 10
7.2258723170623744
 20
-14.358361599233801
 30
0.0
 11
6.9416914828499747
 21
-14.07418076502139
 31
0.0
  0
LINE
  5
203E
  8
0
 62
     0
 10
7.378791255835579
 20
-14.8480401425471
 30
0.0
 11
6.4695458374321433
 21
-13.938794724143669
 31
0.0
  0
LINE
  5
203F
  8
0
 62
     0
 10
6.899016228747497
 20
-14.705024719999111
 30
0.0
 11
5.9974001920143323
 21
-13.80340868326593
 31
0.0
  0
LINE
  5
2040
  8
0
 62
     0
 10
7.3582752265834648
 20
-15.164283717835071
 30
0.0
 11
7.0023943487536542
 21
-14.808402840005259
 31
0.0
  0
LINE
  5
2041
  8
0
 62
     0
 10
6.4095006848946507
 20
-14.552268780686351
 30
0.0
 11
5.8374282852821571
 21
-13.98019638107386
 31
0.0
  0
LINE
  5
2042
  8
0
 62
     0
 10
7.2662978671887393
 20
-15.40906596298044
 30
0.0
 11
7.0016111923161191
 21
-15.144379288107819
 31
0.0
  0
LINE
  5
2043
  8
0
 62
     0
 10
6.1405593887977901
 20
-14.62008708912958
 30
0.0
 11
5.8374282852821651
 21
-14.31695598561396
 31
0.0
  0
LINE
  5
2044
  8
0
 62
     0
 10
7.1268099623661101
 20
-15.6063376626979
 30
0.0
 11
6.8057715610327634
 21
-15.28529926136455
 31
0.0
  0
LINE
  5
2045
  8
0
 62
     0
 10
5.0576135961299169
 20
-13.87390090100182
 30
0.0
 11
5.0260529205484801
 21
-13.84234022542037
 31
0.0
  0
LINE
  5
2046
  8
0
 62
     0
 10
6.945865063159955
 20
-15.762152368031851
 30
0.0
 11
6.393670993462143
 21
-15.20995829833404
 31
0.0
  0
LINE
  5
2047
  8
0
 62
     0
 10
5.141986775443903
 20
-14.295033684855881
 30
0.0
 11
4.770026962862282
 21
-13.92307387227425
 31
0.0
  0
LINE
  5
2048
  8
0
 62
     0
 10
6.7209748353949692
 20
-15.874021744806941
 30
0.0
 11
5.9215248878480011
 21
-15.074571797259971
 31
0.0
  0
LINE
  5
2049
  8
0
 62
     0
 10
4.9985899690189211
 20
-14.488396482970989
 30
0.0
 11
4.7716074644841981
 21
-14.261413978436259
 31
0.0
  0
LINE
  5
204A
  8
0
 62
     0
 10
6.4377886558501327
 20
-15.92759516980219
 30
0.0
 11
5.4493787822338291
 21
-14.93918529618589
 31
0.0
  0
LINE
  5
204B
  8
0
 62
     0
 10
6.0533119591272477
 20
-15.879878077619431
 30
0.0
 11
4.6799662293575448
 21
-14.506532347849721
 31
0.0
  0
LINE
  5
204C
  8
0
 62
     0
 10
5.6047505832183404
 20
-15.768076306250601
 30
0.0
 11
4.6600634311350433
 21
-14.8233891541673
 31
0.0
  0
ENDBLK
  5
204E
  8
0
  0
BLOCK
  8
0
  2
*X22
 70
     1
 10
0.0
 20
0.0
 30
0.0
  3
*X22
  1

  0
LINE
  5
2050
  8
0
 62
     0
 10
7.3833881155662739
 20
-16.53643502497825
 30
0.0
 11
7.358409684319807
 21
-16.511456593731779
 31
0.0
  0
LINE
  5
2051
  8
0
 62
     0
 10
7.3833881155662811
 20
-16.873194629518341
 30
0.0
 11
6.8862653482465728
 21
-16.376071862198639
 31
0.0
  0
LINE
  5
2052
  8
0
 62
     0
 10
7.3646830496546434
 20
-17.191249168146829
 30
0.0
 11
6.4141210121733323
 21
-16.24068713066552
 31
0.0
  0
LINE
  5
2053
  8
0
 62
     0
 10
6.8925368659935691
 20
-17.055862589025828
 30
0.0
 11
5.9419766761001167
 21
-16.10530239913238
 31
0.0
  0
LINE
  5
2054
  8
0
 62
     0
 10
6.4203906823324797
 20
-16.920476009904839
 30
0.0
 11
5.4698323400268833
 21
-15.96991766759924
 31
0.0
  0
LINE
  5
2055
  8
0
 62
     0
 10
5.9482444986714267
 20
-16.78508943078387
 30
0.0
 11
4.9976880039536677
 21
-15.834532936066109
 31
0.0
  0
LINE
  5
2056
  8
0
 62
     0
 10
5.476098315010324
 20
-16.64970285166288
 30
0.0
 11
4.6552307144813678
 21
-15.828835251133921
 31
0.0
  0
LINE
  5
2057
  8
0
 62
     0
 10
5.0039521313492639
 20
-16.51431627254189
 30
0.0
 11
4.6552307144813749
 21
-16.165594855674009
 31
0.0
  0
LINE
  5
2058
  8
0
 62
     0
 10
4.6865544323722892
 20
-16.53367817810501
 30
0.0
 11
4.6552307144813749
 21
-16.5023544602141
 31
0.0
  0
ENDBLK
  5
205A
  8
0
  0
BLOCK
  8
0
  2
*X23
 70
     1
 10
0.0
 20
0.0
 30
0.0
  3
*X23
  1

  0
LINE
  5
205C
  8
0
 62
     0
 10
7.7531528403672691
 20
-12.86508449529814
 30
0.0
 11
6.7596014191577307
 21
-11.87153307408861
 31
0.0
  0
LINE
  5
205D
  8
0
 62
     0
 10
6.7387118189247204
 20
-12.18740307839567
 30
0.0
 11
6.3406907568344764
 21
-11.78938201630543
 31
0.0
  0
LINE
  5
205E
  8
0
 62
     0
 10
7.835303898150447
 20
-13.283995157621399
 30
0.0
 11
7.4372828360602039
 21
-12.885974095531161
 31
0.0
  0
LINE
  5
205F
  8
0
 62
     0
 10
6.305632301644378
 20
-12.091083165655419
 30
0.0
 11
6.0177058894036071
 21
-11.80315675341464
 31
0.0
  0
LINE
  5
2060
  8
0
 62
     0
 10
7.838084763038295
 20
-13.623535627049341
 30
0.0
 11
7.5336027488004378
 21
-13.31905361281148
 31
0.0
  0
LINE
  5
2061
  8
0
 62
     0
 10
5.9927841466381082
 20
-12.114994615189239
 30
0.0
 11
5.7453955029809318
 21
-11.867605971532059
 31
0.0
  0
LINE
  5
2062
  8
0
 62
     0
 10
7.838084763038303
 20
-13.96029523158944
 30
0.0
 11
7.5349536673240891
 21
-13.657164135875229
 31
0.0
  0
LINE
  5
2063
  8
0
 62
     0
 10
5.736204340727304
 20
-12.195174413818551
 30
0.0
 11
5.5089449686681391
 21
-11.96791504175938
 31
0.0
  0
LINE
  5
2064
  8
0
 62
     0
 10
7.8380847630382871
 20
-14.297054836129529
 30
0.0
 11
7.534953667324082
 21
-13.993923740415321
 31
0.0
  0
LINE
  5
2065
  8
0
 62
     0
 10
5.519107119411081
 20
-12.314836797042419
 30
0.0
 11
5.301753547862325
 21
-12.09748322549366
 31
0.0
  0
LINE
  5
2066
  8
0
 62
     0
 10
7.8380847630382808
 20
-14.633814440669619
 30
0.0
 11
7.534953667324074
 21
-14.330683344955411
 31
0.0
  0
LINE
  5
2067
  8
0
 62
     0
 10
5.3351358297416578
 20
-12.46762511191308
 30
0.0
 11
5.1207897381591589
 21
-12.25327902033059
 31
0.0
  0
LINE
  5
2068
  8
0
 62
     0
 10
7.838084763038295
 20
-14.97057404520972
 30
0.0
 11
7.5349536673240891
 21
-14.667442949495509
 31
0.0
  0
LINE
  5
2069
  8
0
 62
     0
 10
5.1825578792479581
 20
-12.65180676595948
 30
0.0
 11
4.9651632092540083
 21
-12.43441209596554
 31
0.0
  0
LINE
  5
206A
  8
0
 62
     0
 10
7.8380847630382871
 20
-15.30733364974982
 30
0.0
 11
7.534953667324082
 21
-15.00420255403561
 31
0.0
  0
LINE
  5
206B
  8
0
 62
     0
 10
5.0631301342953421
 20
-12.869138625546951
 30
0.0
 11
4.835776556736036
 21
-12.64178504798765
 31
0.0
  0
LINE
  5
206C
  8
0
 62
     0
 10
7.838084763038303
 20
-15.64409325428991
 30
0.0
 11
7.5349536673240891
 21
-15.340962158575699
 31
0.0
  0
LINE
  5
206D
  8
0
 62
     0
 10
4.9832506308968334
 20
-13.12601872668853
 30
0.0
 11
4.7356785607414551
 21
-12.878446656533161
 31
0.0
  0
LINE
  5
206E
  8
0
 62
     0
 10
7.838084763038295
 20
-15.98085285883
 30
0.0
 11
7.534953667324082
 21
-15.67772176311577
 31
0.0
  0
LINE
  5
206F
  8
0
 62
     0
 10
4.959822060194325
 20
-13.43934976052611
 30
0.0
 11
4.6715031155168063
 21
-13.1510308158486
 31
0.0
  0
LINE
  5
2070
  8
0
 62
     0
 10
7.838084763038303
 20
-16.317612463370079
 30
0.0
 11
7.5349536673240962
 21
-16.01448136765589
 31
0.0
  0
LINE
  5
2071
  8
0
 62
     0
 10
4.905228983166622
 20
-13.72151628803852
 30
0.0
 11
4.6581538703907341
 21
-13.47444117526263
 31
0.0
  0
LINE
  5
2072
  8
0
 62
     0
 10
7.838084763038295
 20
-16.654372067910192
 30
0.0
 11
7.534953667324082
 21
-16.351240972195981
 31
0.0
  0
LINE
  5
2073
  8
0
 62
     0
 10
7.838084763038303
 20
-16.991131672450269
 30
0.0
 11
7.5349536673240891
 21
-16.688000576736059
 31
0.0
  0
LINE
  5
2074
  8
0
 62
     0
 10
7.838084763038303
 20
-17.327891276990371
 30
0.0
 11
7.5349536673240891
 21
-17.02476018127615
 31
0.0
  0
LINE
  5
2075
  8
0
 62
     0
 10
7.838084763038295
 20
-17.66465088153047
 30
0.0
 11
7.534953667324082
 21
-17.36151978581627
 31
0.0
  0
LINE
  5
2076
  8
0
 62
     0
 10
7.838084763038295
 20
-18.001410486070561
 30
0.0
 11
7.5349536673240891
 21
-17.698279390356351
 31
0.0
  0
LINE
  5
2077
  8
0
 62
     0
 10
7.838084763038295
 20
-18.33817009061065
 30
0.0
 11
7.534953667324082
 21
-18.035038994896439
 31
0.0
  0
LINE
  5
2078
  8
0
 62
     0
 10
7.838084763038303
 20
-18.674929695150752
 30
0.0
 11
7.5349536673240891
 21
-18.371798599436531
 31
0.0
  0
LINE
  5
2079
  8
0
 62
     0
 10
7.838084763038295
 20
-19.01168929969085
 30
0.0
 11
7.5349536673240891
 21
-18.70855820397664
 31
0.0
  0
LINE
  5
207A
  8
0
 62
     0
 10
7.838084763038303
 20
-19.348448904230931
 30
0.0
 11
7.5349536673240962
 21
-19.045317808516721
 31
0.0
  0
LINE
  5
207B
  8
0
 62
     0
 10
7.831293103293917
 20
-19.67841684902664
 30
0.0
 11
7.5349536673240962
 21
-19.38207741305682
 31
0.0
  0
LINE
  5
207C
  8
0
 62
     0
 10
7.778622661029762
 20
-19.96250601130258
 30
0.0
 11
7.522970525177028
 21
-19.706853875449841
 31
0.0
  0
LINE
  5
207D
  8
0
 62
     0
 10
7.6872250098678938
 20
-20.207867964680808
 30
0.0
 11
7.4557248790162278
 21
-19.976367833829151
 31
0.0
  0
LINE
  5
207E
  8
0
 62
     0
 10
7.5652253659191393
 20
-20.422627925272149
 30
0.0
 11
7.3459343375767423
 21
-20.203336896929748
 31
0.0
  0
LINE
  5
207F
  8
0
 62
     0
 10
7.416417035375062
 20
-20.61057919926817
 30
0.0
 11
7.2018554850246499
 21
-20.396017648917748
 31
0.0
  0
LINE
  5
2080
  8
0
 62
     0
 10
7.2422081152262461
 20
-20.773129883659461
 30
0.0
 11
7.0262619867751948
 21
-20.55718375520841
 31
0.0
  0
LINE
  5
2081
  8
0
 62
     0
 10
7.0421900170166207
 20
-20.90987138998991
 30
0.0
 11
6.8183640167235211
 21
-20.686045389696812
 31
0.0
  0
LINE
  5
2082
  8
0
 62
     0
 10
4.9583618179969928
 20
-19.16280279551037
 30
0.0
 11
4.7195487388096993
 21
-18.923989716323081
 31
0.0
  0
LINE
  5
2083
  8
0
 62
     0
 10
6.8139804553192604
 20
-21.018421432832628
 30
0.0
 11
6.5733066103349032
 21
-20.777747587848278
 31
0.0
  0
LINE
  5
2084
  8
0
 62
     0
 10
4.958361817997007
 20
-19.499562400050479
 30
0.0
 11
4.655230714481382
 21
-19.19643129653485
 31
0.0
  0
LINE
  5
2085
  8
0
 62
     0
 10
6.552175534086401
 20
-21.093376116139869
 30
0.0
 11
6.278258376839247
 21
-20.819458958892721
 31
0.0
  0
LINE
  5
2086
  8
0
 62
     0
 10
5.0080976163954727
 20
-19.88605780298905
 30
0.0
 11
4.6552315604422798
 21
-19.533191747035861
 31
0.0
  0
LINE
  5
2087
  8
0
 62
     0
 10
6.2450166588750866
 20
-21.122976845468671
 30
0.0
 11
5.8921506029218929
 21
-20.770110789515481
 31
0.0
  0
LINE
  5
2088
  8
0
 62
     0
 10
5.8607625419477838
 20
-21.075482333081439
 30
0.0
 11
4.7027260728295053
 21
-19.91744586396316
 31
0.0
  0
ENDBLK
  5
208A
  8
0
  0
ENDSEC
  0
SECTION
  2
ENTITIES
  0
LINE
  5
1BEE
  8
250
 10
-33.32099961687166
 20
-28.0
 30
0.0
 11
-49.320999616871653
 21
-28.0
 31
0.0
1001
ITEMNAME
1000
LNSP2
  0
TEXT
  5
1BF1
  8
250
 62
   211
 10
-63.0
 20
56.0
 30
0.0
 40
5.0
  1
BT30-NBS16-45
  7
YOKO
 11
-63.0
 21
56.0
 31
0.0
 73
     1
  0
LINE
  5
1D5F
  8
250
 10
24.23
 20
35.0
 30
0.0
 11
42.769999999999932
 21
35.0
 31
0.0
  0
LINE
  5
1D63
  8
250
 10
-0.0000000000000284
 20
16.375
 30
0.0
 11
-0.0000000000000268
 21
43.0
 31
0.0
  0
LINE
  5
1D64
  8
250
 10
44.999999999999922
 20
17.0
 30
0.0
 11
44.999999999999922
 21
43.0
 31
0.0
  0
LINE
  5
1D65
  8
250
 10
2.229999999999972
 20
42.0
 30
0.0
 11
42.769999999999932
 21
42.0
 31
0.0
  0
LINE
  5
1D6A
  8
250
 10
22.0
 20
22.700000000000038
 30
0.0
 11
22.0
 21
36.0
 31
0.0
  0
LINE
  5
1D6B
  8
250
 10
2.2299999999999711
 20
35.0
 30
0.0
 11
19.77
 21
35.0
 31
0.0
  0
LINE
  5
1D6F
  8
250
 10
45.499999999999893
 20
-8.0
 30
0.0
 11
64.0
 21
-8.0000000000000053
 31
0.0
  0
LINE
  5
1D70
  8
250
 10
45.499999999999929
 20
7.9999999999999423
 30
0.0
 11
64.0
 21
7.9999999999999369
 31
0.0
  0
LINE
  5
1D71
  8
250
 10
63.0
 20
-5.770000000000004
 30
0.0
 11
63.0
 21
5.7699999999999374
 31
0.0
  0
LINE
  5
1D75
  8
250
 10
43.627207793864059
 20
-21.0
 30
0.0
 11
71.0
 21
-21.0
 31
0.0
  0
LINE
  5
1D76
  8
250
 10
43.627207793864059
 20
20.99999999999994
 30
0.0
 11
71.0
 21
20.999999999999918
 31
0.0
  0
LINE
  5
1D77
  8
250
 10
70.0
 20
-18.77
 30
0.0
 11
70.0
 21
18.769999999999921
 31
0.0
  0
LINE
  5
1D7B
  8
250
 10
-13.00000000000005
 20
-8.8000000000000114
 30
0.0
 11
-13.00000000000006
 21
-36.0
 31
0.0
  0
LINE
  5
1D7C
  8
250
 10
44.999999999999922
 20
-19.668629150101481
 30
0.0
 11
44.999999999999922
 21
-36.0
 31
0.0
  0
LINE
  5
1D7D
  8
250
 10
-10.770000000000049
 20
-35.0
 30
0.0
 11
42.769999999999932
 21
-35.0
 31
0.0
  0
TEXT
  5
1D83
  8
250
 10
-46.892428188300208
 20
-27.0
 30
0.0
 40
3.0
  1
BT30
  7
YOKO
1001
ITEMNAME
1000
LNSP3
1001
ACAD
1000
MTEXTBEGIN
1070
    73
1070
     1
1070
    44
1040
1.0
1070
    74
1070
     0
1000
MTEXTEND
  0
LINE
  5
1D84
  8
250
 10
-25.3915672841283
 20
-14.26582032450913
 30
0.0
 11
-33.32099961687166
 21
-28.0
 31
0.0
1001
ACAD
1000
DSTYLE
1002
{
1070
     5
1000
OPEN
1070
    78
1070
     8
1070
   140
1040
3.0
1002
}
  0
LINE
  5
1D85
  8
250
 10
-25.71344005920152
 20
-14.079986991175801
 30
0.0
 11
-24.276567284128301
 21
-12.33458367406984
 31
0.0
  0
LINE
  5
1D86
  8
250
 10
-25.069694509055079
 20
-14.451653657842471
 30
0.0
 11
-24.276567284128301
 21
-12.33458367406984
 31
0.0
  0
LINE
  5
1D87
  8
250
 10
-24.276567284128301
 20
-12.33458367406984
 30
0.0
 11
-25.3915672841283
 21
-14.26582032450913
 31
0.0
  0
TEXT
  5
1D88
  8
250
 10
8.4857142857142041
 20
-34.0
 30
0.0
 40
3.0
  1
45ü`53
1001
ACAD
1000
MTEXTBEGIN
1070
    73
1070
     1
1070
    44
1040
1.0
1070
    74
1070
     0
1000
MTEXTEND
  0
LINE
  5
1D89
  8
250
 10
42.769999999999932
 20
-34.62833333333333
 30
0.0
 11
44.999999999999922
 21
-35.0
 31
0.0
  0
LINE
  5
1D8A
  8
250
 10
42.769999999999932
 20
-35.37166666666667
 30
0.0
 11
44.999999999999922
 21
-35.0
 31
0.0
  0
LINE
  5
1D8B
  8
250
 10
44.999999999999922
 20
-35.0
 30
0.0
 11
42.769999999999932
 21
-35.0
 31
0.0
  0
LINE
  5
1D8C
  8
250
 10
-10.77000000000006
 20
-35.37166666666667
 30
0.0
 11
-13.00000000000006
 21
-35.0
 31
0.0
  0
LINE
  5
1D8D
  8
250
 10
-10.77000000000006
 20
-34.628333333333337
 30
0.0
 11
-13.00000000000006
 21
-35.0
 31
0.0
  0
LINE
  5
1D8E
  8
250
 10
-13.00000000000006
 20
-35.0
 30
0.0
 11
-10.77000000000006
 21
-35.0
 31
0.0
  0
TEXT
  5
1D8F
  8
250
 10
69.0
 20
-4.0714285714285934
 30
0.0
 40
3.0
  1
\U+2205
 50
90.0
1001
ACAD
1000
MTEXTBEGIN
1070
    73
1070
     1
1070
    44
1040
1.0
1070
    74
1070
     0
1000
MTEXTEND
  0
TEXT
  5
1D90
  8
250
 10
69.0
 20
-1.3571428571428781
 30
0.0
 40
3.0
  1
42
 50
90.0
1001
ACAD
1000
MTEXTBEGIN
1070
    73
1070
     1
1070
    44
1040
1.0
1070
    74
1070
     0
1000
MTEXTEND
  0
LINE
  5
1D91
  8
250
 10
69.62833333333333
 20
18.769999999999921
 30
0.0
 11
70.0
 21
20.999999999999918
 31
0.0
  0
LINE
  5
1D92
  8
250
 10
70.37166666666667
 20
18.769999999999921
 30
0.0
 11
70.0
 21
20.999999999999918
 31
0.0
  0
LINE
  5
1D93
  8
250
 10
70.0
 20
20.999999999999918
 30
0.0
 11
70.0
 21
18.769999999999921
 31
0.0
  0
LINE
  5
1D94
  8
250
 10
70.37166666666667
 20
-18.77
 30
0.0
 11
70.0
 21
-21.0
 31
0.0
  0
LINE
  5
1D95
  8
250
 10
69.62833333333333
 20
-18.77
 30
0.0
 11
70.0
 21
-21.0
 31
0.0
  0
LINE
  5
1D96
  8
250
 10
70.0
 20
-21.0
 30
0.0
 11
70.0
 21
-18.77
 31
0.0
  0
LINE
  5
1D97
  8
250
 10
62.62833333333333
 20
5.7699999999999392
 30
0.0
 11
63.0
 21
7.9999999999999369
 31
0.0
  0
LINE
  5
1D98
  8
250
 10
63.37166666666667
 20
5.7699999999999392
 30
0.0
 11
63.0
 21
7.9999999999999369
 31
0.0
  0
LINE
  5
1D99
  8
250
 10
63.0
 20
7.9999999999999369
 30
0.0
 11
63.0
 21
5.7699999999999392
 31
0.0
  0
LINE
  5
1D9A
  8
250
 10
63.37166666666667
 20
-5.7700000000000049
 30
0.0
 11
63.0
 21
-8.0000000000000053
 31
0.0
  0
LINE
  5
1D9B
  8
250
 10
62.62833333333333
 20
-5.7700000000000049
 30
0.0
 11
63.0
 21
-8.0000000000000053
 31
0.0
  0
LINE
  5
1D9C
  8
250
 10
63.0
 20
-8.0000000000000053
 30
0.0
 11
63.0
 21
-5.7700000000000049
 31
0.0
  0
TEXT
  5
1D9D
  8
250
 10
61.736305379628888
 20
-7.3611067831993022
 30
0.0
 40
3.0
  1
MAX.
 50
90.0
  0
TEXT
  5
1D9E
  8
250
 10
61.736305379628888
 20
2.9246075025149829
 30
0.0
 40
3.0
  1
\U+2205
 50
90.0
  0
TEXT
  5
1D9F
  8
250
 10
61.736305379628888
 20
5.638893216800696
 30
0.0
 40
3.0
  1
16
 50
90.0
  0
TEXT
  5
1DA0
  8
250
 10
8.1428571428571228
 20
36.0
 30
0.0
 40
3.0
  1
22
1001
ACAD
1000
MTEXTBEGIN
1070
    73
1070
     1
1070
    44
1040
1.0
1070
    74
1070
     0
1000
MTEXTEND
  0
LINE
  5
1DA1
  8
250
 10
19.77
 20
35.37166666666667
 30
0.0
 11
22.0
 21
35.0
 31
0.0
  0
LINE
  5
1DA2
  8
250
 10
19.77
 20
34.62833333333333
 30
0.0
 11
22.0
 21
35.0
 31
0.0
  0
LINE
  5
1DA3
  8
250
 10
22.0
 20
35.0
 30
0.0
 11
19.77
 21
35.0
 31
0.0
  0
LINE
  5
1DA4
  8
250
 10
2.2299999999999711
 20
34.62833333333333
 30
0.0
 11
-0.0000000000000273
 21
35.0
 31
0.0
  0
LINE
  5
1DA5
  8
250
 10
2.2299999999999711
 20
35.371666666666663
 30
0.0
 11
-0.0000000000000273
 21
35.0
 31
0.0
  0
LINE
  5
1DA6
  8
250
 10
-0.0000000000000273
 20
35.0
 30
0.0
 11
2.2299999999999711
 21
35.0
 31
0.0
  0
TEXT
  5
1DA7
  8
250
 10
19.642857142857078
 20
43.0
 30
0.0
 40
3.0
  1
45
1001
ACAD
1000
MTEXTBEGIN
1070
    73
1070
     1
1070
    44
1040
1.0
1070
    74
1070
     0
1000
MTEXTEND
  0
LINE
  5
1DA8
  8
250
 10
42.769999999999932
 20
42.371666666666663
 30
0.0
 11
44.999999999999922
 21
42.0
 31
0.0
  0
LINE
  5
1DA9
  8
250
 10
42.769999999999932
 20
41.62833333333333
 30
0.0
 11
44.999999999999922
 21
42.0
 31
0.0
  0
LINE
  5
1DAA
  8
250
 10
44.999999999999922
 20
42.0
 30
0.0
 11
42.769999999999932
 21
42.0
 31
0.0
  0
LINE
  5
1DAB
  8
250
 10
2.2299999999999711
 20
41.62833333333333
 30
0.0
 11
-0.0000000000000268
 21
42.0
 31
0.0
  0
LINE
  5
1DAC
  8
250
 10
2.2299999999999711
 20
42.371666666666663
 30
0.0
 11
-0.0000000000000268
 21
42.0
 31
0.0
  0
LINE
  5
1DAD
  8
250
 10
-0.0000000000000268
 20
42.0
 30
0.0
 11
2.2299999999999711
 21
42.0
 31
0.0
  0
TEXT
  5
1DAE
  8
250
 10
30.64285714285711
 20
36.0
 30
0.0
 40
3.0
  1
23
1001
ACAD
1000
MTEXTBEGIN
1070
    73
1070
     1
1070
    44
1040
1.0
1070
    74
1070
     0
1000
MTEXTEND
  0
LINE
  5
1DAF
  8
250
 10
42.769999999999932
 20
35.37166666666667
 30
0.0
 11
44.999999999999929
 21
35.0
 31
0.0
  0
LINE
  5
1DB0
  8
250
 10
42.769999999999932
 20
34.62833333333333
 30
0.0
 11
44.999999999999929
 21
35.0
 31
0.0
  0
LINE
  5
1DB1
  8
250
 10
44.999999999999929
 20
35.0
 30
0.0
 11
42.769999999999932
 21
35.0
 31
0.0
  0
LINE
  5
1DB2
  8
250
 10
24.23
 20
34.62833333333333
 30
0.0
 11
22.0
 21
35.0
 31
0.0
  0
LINE
  5
1DB3
  8
250
 10
24.23
 20
35.371666666666663
 30
0.0
 11
22.0
 21
35.0
 31
0.0
  0
LINE
  5
1DB4
  8
250
 10
22.0
 20
35.0
 30
0.0
 11
24.23
 21
35.0
 31
0.0
  0
INSERT
  5
1FB8
  8
240
  2
A$C703B59A7
 10
0.0
 20
0.0
 30
0.0
  0
VIEWPORT
  5
22
 67
     1
  8
0
 10
261.51769911504419
 20
148.5
 30
0.0
 40
523.0353982300885
 41
297.0
 68
     1
 69
     1
1001
ACAD
1000
MVIEW
1002
{
1070
    16
1010
0.0
1020
0.0
1030
0.0
1010
0.0
1020
0.0
1030
1.0
1040
0.0
1040
297.0
1040
261.51769911504419
1040
148.5
1040
50.0
1040
0.0
1040
0.0
1070
     0
1070
   100
1070
     1
1070
     1
1070
     0
1070
     0
1070
     0
1070
     0
1040
0.0
1040
0.0
1040
0.0
1040
1.0
1040
1.0
1040
10.0
1040
10.0
1070
     0
1002
{
1002
}
1002
}
1001
GENIUS_GENODEF_13
1002
{
1000
HIER
1070
     0
1002
}
1002
{
1000
MANEDIT
1070
     0
1002
}
1002
{
1000
NOSEL
1070
     0
1002
}
1002
{
1000
BEHIND
1070
     0
1002
}
1002
{
1000
OTHER
1070
     0
1002
}
1002
{
1000
REACTOR
1002
}
1001
GENIUS_GENOBJ-N-SDF_13
1002
{
1000
OWNER
1000
GEN
1002
}
1001
GENIUS_GENSCREG_15
1000
PF
1040
1.0
1000
DF
1040
1.0
1000
MIN
1011
0.0
1021
0.0
1031
-2.4777413100201922E+174
1021
0.0
1031
0.0
1000
MAX
1011
523.0353982300885
1021
0.0
1031
-2.4777413100201922E+174
1021
297.0
1031
0.0
1000
FLAGS
1070
     2
  0
ENDSEC
  0
EOF
