  0
SECTION
  2
HEADER
  9
$ACADVER
  1
AC1009
  9
$INSBASE
 10
0.0
 20
0.0
 30
0.0
  9
$EXTMIN
 10
-49.4000000000000128
 20
-25.0
 30
0.0
  9
$EXTMAX
 10
77.0178242041719017
 20
54.0
 30
0.0
  9
$LIMMIN
 10
0.0
 20
0.0
  9
$LIMMAX
 10
297.0
 20
210.0
  9
$ORTHOMODE
 70
     0
  9
$REGENMODE
 70
     1
  9
$FILLMODE
 70
     1
  9
$QTEXTMODE
 70
     0
  9
$MIRRTEXT
 70
     1
  9
$DRAGMODE
 70
     2
  9
$LTSCALE
 40
10.0
  9
$OSMODE
 70
   807
  9
$ATTMODE
 70
     1
  9
$TEXTSIZE
 40
3.0
  9
$TRACEWID
 40
1.0
  9
$TEXTSTYLE
  7
YOKO
  9
$CLAYER
  8
240
  9
$CELTYPE
  6
BYLAYER
  9
$CECOLOR
 62
   256
  9
$DIMSCALE
 40
1.0
  9
$DIMASZ
 40
2.2299999999999991
  9
$DIMEXO
 40
0.5
  9
$DIMDLI
 40
7.0
  9
$DIMRND
 40
0.0
  9
$DIMDLE
 40
0.0
  9
$DIMEXE
 40
1.0
  9
$DIMTP
 40
0.0
  9
$DIMTM
 40
0.01
  9
$DIMTXT
 40
2.799999999999998
  9
$DIMCEN
 40
0.0
  9
$DIMTSZ
 40
0.0
  9
$DIMTOL
 70
     0
  9
$DIMLIM
 70
     0
  9
$DIMTIH
 70
     0
  9
$DIMTOH
 70
     0
  9
$DIMSE1
 70
     0
  9
$DIMSE2
 70
     0
  9
$DIMTAD
 70
     3
  9
$DIMZIN
 70
     9
  9
$DIMBLK
  1
OPEN
  9
$DIMASO
 70
     1
  9
$DIMSHO
 70
     1
  9
$DIMPOST
  1

  9
$DIMAPOST
  1

  9
$DIMALT
 70
     0
  9
$DIMALTD
 70
     2
  9
$DIMALTF
 40
25.3999999999999986
  9
$DIMLFAC
 40
1.0
  9
$DIMTOFL
 70
     1
  9
$DIMTVP
 40
0.0
  9
$DIMTIX
 70
     1
  9
$DIMSOXD
 70
     0
  9
$DIMSAH
 70
     0
  9
$DIMBLK1
  1

  9
$DIMBLK2
  1

  9
$DIMSTYLE
  2
BIGT
  9
$DIMCLRD
 70
   256
  9
$DIMCLRE
 70
   256
  9
$DIMCLRT
 70
    40
  9
$DIMTFAC
 40
1.0
  9
$DIMGAP
 40
1.0
  9
$LUNITS
 70
     2
  9
$LUPREC
 70
     6
  9
$SKETCHINC
 40
1.0
  9
$FILLETRAD
 40
0.0
  9
$AUNITS
 70
     0
  9
$AUPREC
 70
     6
  9
$MENU
  1
.
  9
$ELEVATION
 40
0.0
  9
$PELEVATION
 40
0.0
  9
$THICKNESS
 40
0.0
  9
$LIMCHECK
 70
     0
  9
$BLIPMODE
 70
     0
  9
$CHAMFERA
 40
0.2
  9
$CHAMFERB
 40
0.2
  9
$SKPOLY
 70
     0
  9
$TDCREATE
 40
2457728.6548495381139219
  9
$TDUPDATE
 40
2458289.6524074068292975
  9
$TDINDWG
 40
0.0033701968
  9
$TDUSRTIMER
 40
0.003358588
  9
$USRTIMER
 70
     1
  9
$ANGBASE
 50
0.0
  9
$ANGDIR
 70
     0
  9
$PDMODE
 70
     1
  9
$PDSIZE
 40
0.0
  9
$PLINEWID
 40
0.0
  9
$COORDS
 70
     1
  9
$SPLFRAME
 70
     0
  9
$SPLINETYPE
 70
     6
  9
$SPLINESEGS
 70
     4
  9
$ATTDIA
 70
     1
  9
$ATTREQ
 70
     1
  9
$HANDLING
 70
     1
  9
$HANDSEED
  5
46C2
  9
$SURFTAB1
 70
     6
  9
$SURFTAB2
 70
     6
  9
$SURFTYPE
 70
     6
  9
$SURFU
 70
     6
  9
$SURFV
 70
     6
  9
$UCSNAME
  2

  9
$UCSORG
 10
0.0
 20
0.0
 30
0.0
  9
$UCSXDIR
 10
1.0
 20
0.0
 30
0.0
  9
$UCSYDIR
 10
0.0
 20
1.0
 30
0.0
  9
$PUCSNAME
  2

  9
$PUCSORG
 10
0.0
 20
0.0
 30
0.0
  9
$PUCSXDIR
 10
1.0
 20
0.0
 30
0.0
  9
$PUCSYDIR
 10
0.0
 20
1.0
 30
0.0
  9
$USERI1
 70
     1
  9
$USERI2
 70
     0
  9
$USERI3
 70
     0
  9
$USERI4
 70
     0
  9
$USERI5
 70
     0
  9
$USERR1
 40
0.0
  9
$USERR2
 40
0.0
  9
$USERR3
 40
0.0
  9
$USERR4
 40
0.0
  9
$USERR5
 40
0.0
  9
$WORLDVIEW
 70
     1
  9
$SHADEDGE
 70
     3
  9
$SHADEDIF
 70
    70
  9
$TILEMODE
 70
     1
  9
$MAXACTVP
 70
    16
  9
$PLIMCHECK
 70
     0
  9
$PEXTMIN
 10
1.0000000000000000E+20
 20
1.0000000000000000E+20
 30
1.0000000000000000E+20
  9
$PEXTMAX
 10
-1.0000000000000000E+20
 20
-1.0000000000000000E+20
 30
-1.0000000000000000E+20
  9
$PLIMMIN
 10
0.0
 20
0.0
  9
$PLIMMAX
 10
420.0
 20
297.0
  9
$UNITMODE
 70
     0
  9
$VISRETAIN
 70
     1
  9
$PLINEGEN
 70
     0
  9
$PSLTSCALE
 70
     1
  0
ENDSEC
  0
SECTION
  2
TABLES
  0
TABLE
  2
VPORT
 70
     1
  0
VPORT
  2
*ACTIVE
 70
     0
 10
0.0
 20
0.0
 11
1.0
 21
1.0
 12
43.3685459723595201
 22
14.9414858381600606
 13
0.0
 23
0.0
 14
7.0
 24
7.0
 15
7.0
 25
7.0
 16
0.0
 26
0.0
 36
1.0
 17
0.0
 27
0.0
 37
0.0
 40
144.9578419589921907
 41
1.887387387387387
 42
50.0
 43
0.0
 44
0.0
 50
0.0
 51
0.0
 71
     0
 72
  2000
 73
     1
 74
     0
 75
     0
 76
     1
 77
     0
 78
     0
  0
ENDTAB
  0
TABLE
  2
LTYPE
 70
    22
  0
LTYPE
  2
CONTINUOUS
 70
     0
  3
Solid line
 72
    65
 73
     0
 40
0.0
  0
LTYPE
  2
CENTER2
 70
     0
  3
___ _ ___ _ ___ _ ___ _ ___ _ ___ _ ___ _ ___ _
 72
    65
 73
     4
 40
1.125
 49
0.75
 49
-0.125
 49
0.125
 49
-0.125
  0
LTYPE
  2
HIDDEN2
 70
     0
  3
_ _ _ _ _ _ _ _ _ _ _ _ _ _ _ _ _ _ _ _ _ _ _ _
 72
    65
 73
     2
 40
0.1875
 49
0.125
 49
-0.0625
  0
LTYPE
  2
PHANTOM2
 70
     0
  3
___ _ _ ___ _ _ ___ _ _ ___ _ _ ___ _ _ ___ _ _
 72
    65
 73
     6
 40
1.25
 49
0.625
 49
-0.125
 49
0.125
 49
-0.125
 49
0.125
 49
-0.125
  0
LTYPE
  2
AMCONSTR
 70
     0
  3
_______________________
 72
    65
 73
     2
 40
9999.0
 49
9999.0
 49
0.0
  0
LTYPE
  2
HIDDEN
 70
     0
  3
Hidden __ __ __ __ __ __ __ __ __ __ __ __ __ _
 72
    65
 73
     2
 40
0.375
 49
0.25
 49
-0.125
  0
LTYPE
  2
CENTER
 70
     0
  3
Center ____ _ ____ _ ____ _ ____ _ ____ _ ____
 72
    65
 73
     4
 40
2.0
 49
1.25
 49
-0.25
 49
0.25
 49
-0.25
  0
LTYPE
  2
AMZIGZAG2
 70
     0
  3
/\/-/\/-/\/-/\/-/\/-/\/
 72
    65
 73
     2
 40
0.4401
 49
0.0001
 49
-0.4400000000000001
  0
LTYPE
  2
ACANSTGB
 70
     0
  3
__ . . __ . .
 72
    65
 73
     6
 40
0.35433070866
 49
0.15748031496
 49
-0.03937007874
 49
0.03937007874
 49
-0.03937007874
 49
0.03937007874
 49
-0.03937007874
  0
LTYPE
  2
ACANSTGL
 70
     0
  3
_ _ _ _ _
 72
    65
 73
     2
 40
0.11811023622
 49
0.07874015748
 49
-0.03937007874
  0
ENDTAB
  0
TABLE
  2
LAYER
 70
     9
  0
LAYER
  2
0
 70
     0
 62
     7
  6
CONTINUOUS
  0
LAYER
  2
240
 70
     0
 62
     4
  6
CONTINUOUS
  0
LAYER
  2
DEFPOINTS
 70
     0
 62
     7
  6
CONTINUOUS
  0
LAYER
  2
245
 70
     0
 62
     2
  6
CENTER2
  0
LAYER
  2
241
 70
     0
 62
   211
  6
CONTINUOUS
  0
LAYER
  2
242
 70
     0
 62
     3
  6
CONTINUOUS
  0
LAYER
  2
243
 70
     0
 62
   211
  6
HIDDEN2
  0
LAYER
  2
247
 70
     0
 62
    60
  6
CONTINUOUS
  0
LAYER
  2
250
 70
     0
 62
     3
  6
CONTINUOUS
  0
ENDTAB
  0
TABLE
  2
STYLE
 70
    10
  0
STYLE
  2
STANDARD
 70
     0
 40
0.0
 41
1.0
 50
0.0
 71
     0
 42
3.0
  3
romans.shx
  4
extfont.shx
  0
STYLE
  2
YOKO
 70
     0
 40
0.0
 41
1.0
 50
0.0
 71
     0
 42
3.0
  3
romans.shx
  4
extfont.shx
  0
STYLE
  2

 70
     1
 40
0.0
 41
1.0
 50
0.0
 71
     0
 42
3.0
  3
genltshp.shx
  4

  0
STYLE
  2
ACANSGDT
 70
     0
 40
0.0
 41
1.0
 50
0.0
 71
     0
 42
3.0
  3
amgdt.shx
  4

  0
ENDTAB
  0
TABLE
  2
VIEW
 70
     0
  0
ENDTAB
  0
TABLE
  2
UCS
 70
     0
  0
ENDTAB
  0
TABLE
  2
APPID
 70
    37
  0
APPID
  2
ACAD
 70
     0
  0
APPID
  2
ACADANNOTATIVE
 70
     0
  0
APPID
  2
GLOBAL
 70
     0
  0
APPID
  2
DETAIL
 70
     0
  0
APPID
  2
GRPNAME
 70
     0
  0
APPID
  2
GPARA
 70
     0
  0
APPID
  2
MCAD_NO_VIS
 70
     0
  0
APPID
  2
ACAD_TEMP_GRAPHIC
 70
     0
  0
APPID
  2
ACATTRIBSERVICES
 70
     0
  0
APPID
  2
GENIUS_GENSCREG_15
 70
     0
  0
APPID
  2
GENIUS_GENODEF_13
 70
     0
  0
APPID
  2
GENIUS_GENOBJ-N-SDF_13
 70
     0
  0
APPID
  2
GENIUS_GENREC_14
 70
     0
  0
APPID
  2
GENIUS_GENOBJ-N-REC_13
 70
     0
  0
APPID
  2
GENIUS_GENDIMSH_14
 70
     0
  0
APPID
  2
GENIUS_GENOBJ-N-DIM_13
 70
     0
  0
APPID
  2
GENIUS_GENDIM_13
 70
     0
  0
APPID
  2
GENIUS_GENDTOL_13
 70
     0
  0
APPID
  2
GENIUS_GENOLIS_13
 70
     0
  0
APPID
  2
GENIUS_GENOENT_13
 70
     0
  0
APPID
  2
GENIUS_GENOBJ-F-FEM_13
 70
     0
  0
APPID
  2
GENIUS_GENOREF_13
 70
     0
  0
APPID
  2
GENIUS_GEFFEM_13
 70
     0
  0
APPID
  2
GENIUS_GEFFEMP_13
 70
     0
  0
APPID
  2
AD_DRAW
 70
     0
  0
APPID
  2
DESIGNERASSEMBLIES
 70
     0
  0
APPID
  2
ACADM_DIM_EDIT
 70
     0
  0
APPID
  2
AMDT_DM_ADJ
 70
     0
  0
APPID
  2
ITEMNAME
 70
     0
  0
APPID
  2
GENIUS_GENOBJ-N-FIL_13
 70
     0
  0
APPID
  2
GENIUS_GENFIL_13
 70
     0
  0
APPID
  2
GENIUS_GENOBJ-N-CHA_13
 70
     0
  0
APPID
  2
ACAD_NAV_VCDISPLAY
 70
     0
  0
APPID
  2
ACAD_EXEMPT_FROM_CAD_STANDARDS
 70
     0
  0
APPID
  2
ACAD_MLEADERVER
 70
     0
  0
APPID
  2
ACAD_DSTYLE_DIMJAG
 70
     0
  0
APPID
  2
ACAD_DSTYLE_DIMBREAK
 70
     0
  0
ENDTAB
  0
TABLE
  2
DIMSTYLE
 70
    31
  0
DIMSTYLE
  2
STANDARD
 70
     0
  3

  4

  5

  6

  7

 40
1.0
 41
0.18
 42
0.0625
 43
0.38
 44
0.18
 45
0.0
 46
0.0
 47
0.0
 48
0.0
140
0.18
141
0.09
142
0.0
143
25.3999999999999986
144
1.0
145
0.0
146
1.0
147
0.09
 71
     0
 72
     0
 73
     1
 74
     1
 75
     0
 76
     0
 77
     0
 78
     0
170
     0
171
     2
172
     0
173
     0
174
     0
175
     0
176
     0
177
     0
178
     0
  0
DIMSTYLE
  2
BIGT
 70
     0
  3

  4

  5

  6

  7

 40
1.0
 41
2.2299999999999991
 42
0.5
 43
7.0
 44
1.0
 45
0.0
 46
0.0
 47
0.0
 48
0.01
140
2.799999999999998
141
0.0
142
0.0
143
25.3999999999999986
144
1.0
145
0.0
146
1.0
147
1.0
 71
     0
 72
     0
 73
     0
 74
     0
 75
     0
 76
     0
 77
     3
 78
     9
170
     0
171
     2
172
     1
173
     0
174
     1
175
     0
176
   256
177
   256
178
    40
  0
DIMSTYLE
  2
AM_ANSI
 70
     0
  3

  4
mm
  5

  6

  7

 40
1.0
 41
0.12
 42
0.05
 43
0.5
 44
0.1
 45
0.0
 46
0.0
 47
0.1
 48
0.1
140
0.12
141
0.0
142
0.0
143
25.3999999999999986
144
1.0
145
0.0
146
0.71
147
0.06
 71
     0
 72
     0
 73
     1
 74
     1
 75
     0
 76
     0
 77
     0
 78
     7
170
     0
171
     2
172
     0
173
     0
174
     0
175
     0
176
   256
177
   256
178
     2
  0
DIMSTYLE
  2
AM_ANSI$3
 70
     0
  3

  4
mm
  5

  6

  7

 40
1.0
 41
0.12
 42
0.05
 43
0.5
 44
0.1
 45
0.0
 46
0.0
 47
0.1
 48
0.1
140
0.12
141
0.0
142
0.0
143
25.3999999999999986
144
1.0
145
0.0
146
0.71
147
0.06
 71
     0
 72
     0
 73
     1
 74
     1
 75
     0
 76
     0
 77
     0
 78
     7
170
     0
171
     2
172
     0
173
     0
174
     0
175
     0
176
   256
177
   256
178
     2
  0
DIMSTYLE
  2
AM_ANSI$4
 70
     0
  3

  4
mm
  5

  6

  7

 40
1.0
 41
0.12
 42
0.05
 43
0.5
 44
0.1
 45
0.0
 46
0.0
 47
0.1
 48
0.1
140
0.12
141
0.0
142
0.0
143
25.3999999999999986
144
1.0
145
0.0
146
0.71
147
0.06
 71
     0
 72
     0
 73
     1
 74
     1
 75
     0
 76
     0
 77
     0
 78
     7
170
     0
171
     2
172
     0
173
     0
174
     0
175
     0
176
   256
177
   256
178
     2
  0
DIMSTYLE
  2
AM_ANSI$7
 70
     0
  3

  4
mm
  5

  6

  7

 40
1.0
 41
0.12
 42
0.05
 43
0.5
 44
0.1
 45
0.0
 46
0.0
 47
0.1
 48
0.1
140
0.12
141
0.0
142
0.0
143
25.3999999999999986
144
1.0
145
0.0
146
0.71
147
0.06
 71
     0
 72
     0
 73
     1
 74
     1
 75
     0
 76
     0
 77
     0
 78
     7
170
     0
171
     2
172
     0
173
     0
174
     0
175
     0
176
   256
177
   256
178
     2
  0
DIMSTYLE
  2
AM_ANSI$SF
 70
     0
  3

  4
mm
  5

  6

  7

 40
1.0
 41
0.12
 42
0.05
 43
0.5
 44
0.1
 45
0.0
 46
0.0
 47
0.1
 48
0.1
140
0.12
141
0.0
142
0.0
143
25.3999999999999986
144
1.0
145
0.0
146
0.71
147
0.06
 71
     0
 72
     0
 73
     1
 74
     1
 75
     1
 76
     1
 77
     0
 78
     7
170
     0
171
     2
172
     0
173
     0
174
     0
175
     0
176
   256
177
   256
178
     2
  0
DIMSTYLE
  2
AM_ANSI$SH
 70
     0
  3

  4
mm
  5

  6
GENAXEH
  7

 40
1.0
 41
0.12
 42
0.05
 43
0.5
 44
0.1
 45
0.0
 46
0.0
 47
0.1
 48
0.1
140
0.12
141
0.0
142
0.0
143
25.3999999999999986
144
1.0
145
0.0
146
0.71
147
0.06
 71
     0
 72
     0
 73
     1
 74
     1
 75
     1
 76
     1
 77
     0
 78
     7
170
     0
171
     2
172
     0
173
     1
174
     0
175
     0
176
   256
177
   256
178
     2
  0
ENDTAB
  0
ENDSEC
  0
SECTION
  2
BLOCKS
  0
BLOCK
  8
0
  2
$MODEL_SPACE
 70
     0
 10
0.0
 20
0.0
 30
0.0
  3
$MODEL_SPACE
  1

  0
ENDBLK
  5
4583
  8
0
  0
BLOCK
 67
     1
  8
0
  2
$PAPER_SPACE
 70
     0
 10
0.0
 20
0.0
 30
0.0
  3
$PAPER_SPACE
  1

  0
ENDBLK
  5
457F
 67
     1
  8
0
  0
BLOCK
  8
0
  2
_OPEN
 70
     0
 10
0.0
 20
0.0
 30
0.0
  3
_OPEN
  1

  0
LINE
  5
441A
  8
0
  6
BYBLOCK
 62
     0
 10
-1.0
 20
0.1666666666666666
 30
0.0
 11
0.0
 21
0.0
 31
0.0
  0
LINE
  5
441B
  8
0
  6
BYBLOCK
 62
     0
 10
-1.0
 20
-0.1666666666666666
 30
0.0
 11
0.0
 21
0.0
 31
0.0
  0
LINE
  5
441C
  8
0
  6
BYBLOCK
 62
     0
 10
0.0
 20
0.0
 30
0.0
 11
-1.0
 21
0.0
 31
0.0
  0
ENDBLK
  5
441D
  8
0
  0
BLOCK
  8
0
  2
GENAXEH
 70
     0
 10
0.0
 20
0.0
 30
0.0
  3
GENAXEH
  1

  0
LINE
  5
4455
  8
0
 10
-1.0
 20
0.0
 30
0.0
 11
1.0
 21
0.0
 31
0.0
  0
ENDBLK
  5
4456
  8
0
  0
BLOCK
  8
0
  2
_ACMFILLEDHALF
 70
     0
 10
0.0
 20
0.0
 30
0.0
  3
_ACMFILLEDHALF
  1

  0
TRACE
  5
4643
  8
240
 62
     0
 10
-0.8
 20
0.0
 30
0.0
 11
-1.0
 21
0.166666666
 31
0.0
 12
0.0
 22
0.0
 32
0.0
 13
0.0
 23
0.0
 33
0.0
  0
LINE
  5
4644
  8
240
 62
     0
 10
-1.0
 20
0.0
 30
0.0
 11
-0.8
 21
0.0
 31
0.0
  0
ENDBLK
  5
4642
  8
0
  0
ENDSEC
  0
SECTION
  2
ENTITIES
  0
LINE
  5
422E
  8
245
  6
CENTER2
 10
-49.4000000000000128
 20
0.0
 30
0.0
 11
65.3384911892179616
 21
0.0
 31
0.0
  0
LINE
  5
4260
  8
240
  6
CONTINUOUS
 10
21.9999999999999289
 20
22.7000000000001911
 30
0.0
 11
21.7000000000002409
 21
23.0
 31
0.0
  0
LINE
  5
4261
  8
240
  6
CONTINUOUS
 10
63.0000000000001421
 20
25.0
 30
0.0
 11
63.0000000000001421
 21
-25.0
 31
0.0
  0
LINE
  5
4262
  8
241
  6
CONTINUOUS
 10
40.0000000000001492
 20
-22.6999999999999602
 30
0.0
 11
40.0000000000001492
 21
22.6999999999999886
 31
0.0
  0
LINE
  5
4263
  8
241
  6
CONTINUOUS
 10
42.3000000000003027
 20
25.0000000000000213
 30
0.0
 11
42.3000000000002814
 21
-24.9999999999999609
 31
0.0
  0
LINE
  5
4264
  8
240
  6
CONTINUOUS
 10
42.3000000000002672
 20
-24.9999999999999716
 30
0.0
 11
63.0000000000001421
 21
-25.0
 31
0.0
  0
LINE
  5
4265
  8
240
  6
CONTINUOUS
 10
22.0000000000001705
 20
-22.6999999999999886
 30
0.0
 11
40.0000000000001492
 21
-22.6999999999999886
 31
0.0
  0
LINE
  5
4266
  8
240
  6
CONTINUOUS
 10
21.7000000000000988
 20
-23.0
 30
0.0
 11
22.0000000000001705
 21
-22.6999999999999602
 31
0.0
  0
LINE
  5
4267
  8
240
  6
CONTINUOUS
 10
42.3000000000002672
 20
-24.9999999999999716
 30
0.0
 11
40.0000000000001492
 21
-22.6999999999999602
 31
0.0
  0
LINE
  5
4268
  8
240
  6
CONTINUOUS
 10
63.0000000000001421
 20
25.0
 30
0.0
 11
42.3000000000002672
 21
25.0
 31
0.0
  0
LINE
  5
4269
  8
243
  6
HIDDEN2
 10
63.0000000000001421
 20
14.0
 30
0.0
 11
30.9500000000001307
 21
14.0
 31
0.0
  0
LINE
  5
426A
  8
240
  6
CONTINUOUS
 10
21.9999999999999289
 20
22.7000000000001911
 30
0.0
 11
40.0000000000001492
 21
22.7000000000000384
 31
0.0
  0
LINE
  5
426B
  8
240
  6
CONTINUOUS
 10
42.3000000000002672
 20
25.0
 30
0.0
 11
40.0000000000001492
 21
22.6999999999999886
 31
0.0
  0
LINE
  5
426C
  8
241
  6
CONTINUOUS
 10
21.9999999999999289
 20
22.7000000000001911
 30
0.0
 11
22.0000000000001705
 21
-22.6999999999999602
 31
0.0
  0
LINE
  5
426D
  8
243
  6
HIDDEN2
 10
63.0000000000001421
 20
-14.0
 30
0.0
 11
30.9500000000001307
 21
-14.0
 31
0.0
  0
TEXT
  5
426E
  8
241
  6
CONTINUOUS
 10
-48.3999999999999915
 20
49.0
 30
0.0
 40
5.0
  1
BT30-CKB5-63
  7
YOKO
 11
-48.3999999999999915
 21
49.0
 31
0.0
 73
     1
  0
POLYLINE
  5
426F
  8
241
  6
CONTINUOUS
 66
     1
 10
0.0
 20
0.0
 30
0.0
 70
     1
  0
VERTEX
  5
4270
  8
241
  6
CONTINUOUS
 10
47.5
 20
-1.443375669999998
 30
0.0
  0
VERTEX
  5
4271
  8
241
  6
CONTINUOUS
 10
50.0
 20
-2.8867513499999991
 30
0.0
  0
VERTEX
  5
4272
  8
241
  6
CONTINUOUS
 10
52.5
 20
-1.443375669999998
 30
0.0
  0
VERTEX
  5
4273
  8
241
  6
CONTINUOUS
 10
52.5
 20
1.443375669999998
 30
0.0
  0
VERTEX
  5
4274
  8
241
  6
CONTINUOUS
 10
50.0
 20
2.8867513499999991
 30
0.0
  0
VERTEX
  5
4275
  8
241
  6
CONTINUOUS
 10
47.5
 20
1.443375669999998
 30
0.0
  0
SEQEND
  5
4276
  8
241
  6
CONTINUOUS
  0
CIRCLE
  5
4277
  8
242
 10
50.0
 20
0.0
 30
0.0
 40
4.5
  0
CIRCLE
  5
4278
  8
241
  6
CONTINUOUS
 10
50.0
 20
0.0
 30
0.0
 40
5.1500000000000004
  0
LINE
  5
4279
  8
245
  6
CENTER2
 10
50.0
 20
6.1982482399999981
 30
0.0
 11
50.0
 21
-6.1500000000000004
 31
0.0
  0
LINE
  5
427A
  8
250
  6
CONTINUOUS
 10
0.0
 20
16.375
 30
0.0
 11
0.0
 21
36.0
 31
0.0
  0
LINE
  5
427B
  8
250
  6
CONTINUOUS
 10
63.0
 20
25.5
 30
0.0
 11
63.0
 21
36.0
 31
0.0
  0
LINE
  5
427C
  8
250
  6
CONTINUOUS
 10
2.2299999999999991
 20
35.0
 30
0.0
 11
60.7700000000000031
 21
35.0
 31
0.0
  0
POLYLINE
  5
427D
  8
250
  6
CONTINUOUS
 66
     1
 10
0.0
 20
0.0
 30
0.0
1001
ACAD
1000
DSTYLE
1002
{
1070
     6
1000
OPEN
1070
    41
1040
2.0
1070
    42
1040
2.0
1070
    44
1040
2.0
1070
    79
1070
     2
1070
   140
1040
4.0
1070
   179
1070
     3
1070
   343
1005
0
1070
   371
1070
    -1
1070
   372
1070
    -1
1002
}
  0
VERTEX
  5
427E
  8
250
  6
CONTINUOUS
 10
60.2139961500828491
 20
26.7320508075210412
 30
0.0
  0
VERTEX
  5
427F
  8
250
  6
CONTINUOUS
 10
67.2407522652261349
 20
38.9027494099999984
 30
0.0
  0
VERTEX
  5
4280
  8
241
  6
CONTINUOUS
 10
77.0178242041719017
 20
38.9027494099999984
 30
0.0
  0
SEQEND
  5
4281
  8
250
  6
CONTINUOUS
  0
TEXT
  5
4282
  8
250
  6
CONTINUOUS
 10
68.0929632464914363
 20
39.9027494099999984
 30
0.0
 40
2.799999999999998
  1
CK5
  7
YOKO
1001
ITEMNAME
1000
LNSP3
1001
ACAD
1000
MTEXTBEGIN
1070
    73
1070
     1
1070
    44
1040
1.0
1070
    74
1070
     0
1000
MTEXTEND
1000
MTEXTBEGIN
1070
    73
1070
     1
1070
    44
1040
1.0
1070
    74
1070
     0
1000
MTEXTEND
1000
MTEXTBEGIN
1070
    73
1070
     1
1070
    44
1040
1.0
1070
    74
1070
     0
1000
MTEXTEND
  0
LINE
  5
4283
  8
250
  6
CONTINUOUS
 10
63.5
 20
-25.0
 30
0.0
 11
74.5
 21
-25.0
 31
0.0
  0
LINE
  5
4284
  8
250
  6
CONTINUOUS
 10
63.5
 20
25.0
 30
0.0
 11
74.5
 21
25.0
 31
0.0
  0
LINE
  5
4285
  8
250
  6
CONTINUOUS
 10
73.5
 20
-22.7699999999999996
 30
0.0
 11
73.5
 21
22.7699999999999996
 31
0.0
  0
TEXT
  5
4286
  8
250
  6
CONTINUOUS
 10
28.7666666666666693
 20
36.0
 30
0.0
 40
2.799999999999998
  1
63
1001
ACAD
1000
MTEXTBEGIN
1070
    73
1070
     1
1070
    44
1040
1.0
1070
    74
1070
     0
1000
MTEXTEND
1000
MTEXTBEGIN
1070
    73
1070
     1
1070
    44
1040
1.0
1070
    74
1070
     0
1000
MTEXTEND
  0
LINE
  5
4287
  8
250
  6
CONTINUOUS
 10
60.7700000000000031
 20
35.3716666666666697
 30
0.0
 11
63.0
 21
35.0
 31
0.0
  0
LINE
  5
4288
  8
250
  6
CONTINUOUS
 10
60.7700000000000031
 20
34.6283333333333303
 30
0.0
 11
63.0
 21
35.0
 31
0.0
  0
LINE
  5
4289
  8
250
  6
CONTINUOUS
 10
63.0
 20
35.0
 30
0.0
 11
60.7700000000000031
 21
35.0
 31
0.0
  0
LINE
  5
428A
  8
250
  6
CONTINUOUS
 10
2.2299999999999991
 20
34.6283333333333303
 30
0.0
 11
0.0
 21
35.0
 31
0.0
  0
LINE
  5
428B
  8
250
  6
CONTINUOUS
 10
2.2299999999999991
 20
35.3716666666666697
 30
0.0
 11
0.0
 21
35.0
 31
0.0
  0
LINE
  5
428C
  8
250
  6
CONTINUOUS
 10
0.0
 20
35.0
 30
0.0
 11
2.2299999999999991
 21
35.0
 31
0.0
  0
TEXT
  5
428D
  8
250
  6
CONTINUOUS
 10
72.4999999999999858
 20
-3.9333333333333309
 30
0.0
 40
2.799999999999998
  1
\U+220550
 50
90.0
1001
ACAD
1000
MTEXTBEGIN
1070
    73
1070
     1
1070
    44
1040
1.0
1070
    74
1070
     0
1000
MTEXTEND
1000
MTEXTBEGIN
1070
    73
1070
     1
1070
    44
1040
1.0
1070
    74
1070
     0
1000
MTEXTEND
  0
LINE
  5
428E
  8
250
  6
CONTINUOUS
 10
73.1283333333333303
 20
22.7699999999999996
 30
0.0
 11
73.5
 21
25.0
 31
0.0
  0
LINE
  5
428F
  8
250
  6
CONTINUOUS
 10
73.8716666666666697
 20
22.7699999999999996
 30
0.0
 11
73.5
 21
25.0
 31
0.0
  0
LINE
  5
4290
  8
250
  6
CONTINUOUS
 10
73.5
 20
25.0
 30
0.0
 11
73.5
 21
22.7699999999999996
 31
0.0
  0
LINE
  5
4291
  8
250
  6
CONTINUOUS
 10
73.8716666666666697
 20
-22.7699999999999996
 30
0.0
 11
73.5
 21
-25.0
 31
0.0
  0
LINE
  5
4292
  8
250
  6
CONTINUOUS
 10
73.1283333333333303
 20
-22.7699999999999996
 30
0.0
 11
73.5
 21
-25.0
 31
0.0
  0
LINE
  5
4293
  8
250
  6
CONTINUOUS
 10
73.5
 20
-25.0
 30
0.0
 11
73.5
 21
-22.7699999999999996
 31
0.0
  0
LINE
  5
4294
  8
250
  6
CONTINUOUS
 10
60.5026712846697023
 20
26.5653841408405711
 30
0.0
 11
59.2139961499999998
 21
25.0
 31
0.0
  0
LINE
  5
4295
  8
250
  6
CONTINUOUS
 10
59.9253210154960314
 20
26.8987174742015291
 30
0.0
 11
59.2139961499999998
 21
25.0
 31
0.0
  0
LINE
  5
4296
  8
250
  6
CONTINUOUS
 10
59.2139961499999998
 20
25.0
 30
0.0
 11
60.2139961500828491
 21
26.7320508075210412
 31
0.0
  0
LINE
  5
430F
  8
240
  6
CONTINUOUS
 10
17.5999999999999694
 20
23.0
 30
0.0
 11
21.7000000000002409
 21
23.0
 31
0.0
  0
LINE
  5
4310
  8
243
  6
HIDDEN2
 10
18.9999999999999609
 20
16.3000000000000114
 30
0.0
 11
1.999999999999976
 21
16.3000000000000114
 31
0.0
  0
LINE
  5
4311
  8
240
  6
CONTINUOUS
 10
17.5999999999999694
 20
-23.0
 30
0.0
 11
21.7000000000000988
 21
-23.0
 31
0.0
  0
LINE
  5
4312
  8
243
  6
HIDDEN2
 10
18.9999999999999609
 20
-16.3000000000000114
 30
0.0
 11
1.999999999999976
 21
-16.3000000000000398
 31
0.0
  0
LINE
  5
4313
  8
240
  6
CONTINUOUS
 10
-48.3999999999999915
 20
-8.8165000019866966
 30
0.0
 11
0.4999999999999787
 21
-15.9479183884092208
 31
0.0
  0
LINE
  5
4314
  8
240
  6
CONTINUOUS
 10
-48.3999999999999915
 20
-8.8165000019866966
 30
0.0
 11
-48.3999999999999915
 21
8.8165000019866966
 31
0.0
  0
LINE
  5
4315
  8
240
  6
CONTINUOUS
 10
15.2905989199999901
 20
-19.0
 30
0.0
 11
17.5999999999999694
 21
-23.0
 31
0.0
  0
LINE
  5
4316
  8
240
  6
CONTINUOUS
 10
11.9094010799999808
 20
-19.0
 30
0.0
 11
9.5999999999999712
 21
-23.0
 31
0.0
  0
LINE
  5
4317
  8
241
  6
CONTINUOUS
 10
17.5999999999999588
 20
23.0000000000000604
 30
0.0
 11
17.5999999999999694
 21
-23.0
 31
0.0
  0
LINE
  5
4318
  8
241
  6
CONTINUOUS
 10
9.5999999999999712
 20
-23.0
 30
0.0
 11
9.5999999999999712
 21
23.0
 31
0.0
  0
LINE
  5
4319
  8
240
  6
CONTINUOUS
 10
9.5999999999999712
 20
-23.0
 30
0.0
 11
1.999999999999976
 21
-23.0
 31
0.0
  0
LINE
  5
431A
  8
241
  6
CONTINUOUS
 10
15.2905989199999901
 20
-19.0
 30
0.0
 11
15.2905989199999706
 21
19.0
 31
0.0
  0
LINE
  5
431B
  8
241
  6
CONTINUOUS
 10
11.9094010799999808
 20
-19.0
 30
0.0
 11
11.9094010799999594
 21
19.0
 31
0.0
  0
LINE
  5
431C
  8
241
  6
CONTINUOUS
 10
1.999999999999976
 20
15.9479183884092208
 30
0.0
 11
1.999999999999976
 21
-15.9468589448889606
 31
0.0
  0
LINE
  5
431D
  8
240
  6
CONTINUOUS
 10
0.4999999999999787
 20
-15.9468589448889606
 30
0.0
 11
1.999999999999976
 21
-15.9468589448889606
 31
0.0
  0
LINE
  5
431E
  8
240
  6
CONTINUOUS
 10
11.9094010799999808
 20
-19.0
 30
0.0
 11
15.2905989199999901
 21
-19.0
 31
0.0
  0
LINE
  5
431F
  8
240
  6
CONTINUOUS
 10
-48.3999999999999915
 20
8.8165000019866966
 30
0.0
 11
0.4999999999999787
 21
15.9479183884092208
 31
0.0
  0
LINE
  5
4320
  8
240
  6
CONTINUOUS
 10
15.2905989199999901
 20
19.0
 30
0.0
 11
17.5999999999999694
 21
23.0
 31
0.0
  0
LINE
  5
4321
  8
240
  6
CONTINUOUS
 10
11.9094010799999808
 20
19.0
 30
0.0
 11
9.5999999999999712
 21
23.0
 31
0.0
  0
LINE
  5
4322
  8
240
  6
CONTINUOUS
 10
0.4999999999999293
 20
15.9479183884092208
 30
0.0
 11
1.999999999999976
 21
15.9479183884092208
 31
0.0
  0
LINE
  5
4323
  8
240
  6
CONTINUOUS
 10
11.9094010799999808
 20
19.0
 30
0.0
 11
15.2905989199999901
 21
19.0
 31
0.0
  0
LINE
  5
4324
  8
240
  6
CONTINUOUS
 10
9.5999999999999712
 20
23.0
 30
0.0
 11
1.999999999999976
 21
23.0
 31
0.0
  0
LINE
  5
4326
  8
243
  6
HIDDEN2
 10
18.9999999999999609
 20
-16.3000000000000114
 30
0.0
 11
18.9999999999999609
 21
-23.0
 31
0.0
  0
LINE
  5
4327
  8
243
  6
HIDDEN2
 10
18.9999999999999609
 20
16.3000000000000114
 30
0.0
 11
18.9999999999999609
 21
23.0
 31
0.0
  0
LINE
  5
4328
  8
247
  6
CONTINUOUS
 10
6.9999999999999201
 20
-13.75
 30
0.0
 11
6.999999999999976
 21
-9.1153846156699974
 31
0.0
  0
LINE
  5
4329
  8
247
  6
CONTINUOUS
 10
4.499999999999976
 20
-12.9548934999879197
 30
0.0
 11
6.5999999999159851
 21
-13.5570588100573506
 31
0.0
  0
LINE
  5
432A
  8
247
  6
CONTINUOUS
 10
5.4961538461139741
 20
-12.3251514035190404
 30
0.0
 11
5.4961538461139741
 21
-13.2405360188670294
 31
0.0
  0
ARC
  5
432B
  8
247
  6
CONTINUOUS
 10
4.8847190672940739
 20
-12.0872634019467498
 30
0.0
 40
0.3876715809326743
 50
72.9978896752930098
 51
172.9241662185135056
  0
ARC
  5
432C
  8
247
  6
CONTINUOUS
 10
4.80522313102799
 20
-12.3824775568040693
 30
0.0
 40
0.6933047965358772
 50
4.7429368522022131
 51
73.8492262732667513
1001
GENIUS_GENOBJ-N-FIL_13
1002
{
1000
OWNER
1000
GEN
1002
}
1001
GENIUS_GENODEF_13
1002
{
1000
HIER
1070
     0
1002
}
1002
{
1000
MANEDIT
1070
     0
1002
}
1002
{
1000
NOSEL
1070
     0
1002
}
1002
{
1000
BEHIND
1070
     0
1002
}
1002
{
1000
OTHER
1070
     0
1002
}
1002
{
1000
REACTOR
1002
}
  0
LINE
  5
432D
  8
247
  6
CONTINUOUS
 10
6.5999999999159851
 20
-12.6416741947093598
 30
0.0
 11
6.5999999999159851
 21
-13.5570588100573506
 31
0.0
  0
LINE
  5
432E
  8
247
  6
CONTINUOUS
 10
4.499999999999976
 20
-12.9548934999879197
 30
0.0
 11
4.499999999999976
 21
-12.0395088846399307
 31
0.0
  0
ARC
  5
432F
  8
247
  6
CONTINUOUS
 10
5.8874169627678494
 20
-12.3783064762668005
 30
0.0
 40
0.394857301075386
 50
65.990941652528889
 51
172.2634434590690944
  0
ARC
  5
4330
  8
247
  6
CONTINUOUS
 10
5.8912003273325437
 20
-12.7124466104269196
 30
0.0
 40
0.7123241612361686
 50
5.701985164256504
 51
77.2773384368220064
1001
GENIUS_GENOBJ-N-FIL_13
1002
{
1000
OWNER
1000
GEN
1002
}
1001
GENIUS_GENODEF_13
1002
{
1000
HIER
1070
     0
1002
}
1002
{
1000
MANEDIT
1070
     0
1002
}
1002
{
1000
NOSEL
1070
     0
1002
}
1002
{
1000
BEHIND
1070
     0
1002
}
1002
{
1000
OTHER
1070
     0
1002
}
1002
{
1000
REACTOR
1002
}
  0
LINE
  5
4331
  8
247
  6
CONTINUOUS
 10
6.5999999999159851
 20
-11.6839818870633394
 30
0.0
 11
4.499999999999976
 21
-11.0818165769939601
 31
0.0
  0
LINE
  5
4332
  8
247
  6
CONTINUOUS
 10
4.499999999999976
 20
-9.5856627309079272
 30
0.0
 11
4.499999999999976
 21
-9.9816783643035496
 31
0.0
  0
LINE
  5
4333
  8
247
  6
CONTINUOUS
 10
6.5999999999159851
 20
-10.60873965394393
 30
0.0
 11
6.5999999999159851
 21
-10.1779704231919297
 31
0.0
  0
ARC
  5
4334
  8
247
  6
CONTINUOUS
 10
5.9582995950833348
 20
-9.3818165770699125
 30
0.0
 40
1.576855057639547
 50
202.3594881415293969
 51
254.9932485428469136
  0
ARC
  5
4335
  8
247
  6
CONTINUOUS
 10
5.065818858538111
 20
-9.8475113661331761
 30
0.0
 40
0.6234706797009447
 50
94.9945893190753168
 51
155.1663289573041027
1001
GENIUS_GENOBJ-N-FIL_13
1002
{
1000
OWNER
1000
GEN
1002
}
1001
GENIUS_GENODEF_13
1002
{
1000
HIER
1070
     0
1002
}
1002
{
1000
MANEDIT
1070
     0
1002
}
1002
{
1000
NOSEL
1070
     0
1002
}
1002
{
1000
BEHIND
1070
     0
1002
}
1002
{
1000
OTHER
1070
     0
1002
}
1002
{
1000
REACTOR
1002
}
  0
ARC
  5
4336
  8
247
  6
CONTINUOUS
 10
5.6621021219694141
 20
-10.4441839510327501
 30
0.0
 40
0.9749472149106982
 50
15.8460965557806794
 51
82.325137004169278
  0
ARC
  5
4337
  8
247
  6
CONTINUOUS
 10
5.8714704019710409
 20
-10.0352116387721804
 30
0.0
 40
0.9271945638692008
 50
249.7136016704968995
 51
321.7887456564109243
1001
GENIUS_GENOBJ-N-FIL_13
1002
{
1000
OWNER
1000
GEN
1002
}
1001
GENIUS_GENODEF_13
1002
{
1000
HIER
1070
     0
1002
}
1002
{
1000
MANEDIT
1070
     0
1002
}
1002
{
1000
NOSEL
1070
     0
1002
}
1002
{
1000
BEHIND
1070
     0
1002
}
1002
{
1000
OTHER
1070
     0
1002
}
1002
{
1000
REACTOR
1002
}
  0
LINE
  5
4338
  8
247
  6
CONTINUOUS
 10
5.7923076922559531
 20
-9.9625858078159126
 30
0.0
 11
5.7923076922559531
 21
-9.4779704232199702
 31
0.0
  0
ARC
  5
4339
  8
247
  6
CONTINUOUS
 10
5.749999999999976
 20
-13.75
 30
0.0
 40
1.25
 50
180.0
 51
0.0
  0
LINE
  5
433A
  8
247
  6
CONTINUOUS
 10
4.499999999999976
 20
-13.75
 30
0.0
 11
4.499999999999976
 21
-13.3038461539139803
 31
0.0
  0
ARC
  5
433B
  8
247
  6
CONTINUOUS
 10
5.749999999999976
 20
-9.1153846156699974
 30
0.0
 40
1.25
 50
0.0
 51
180.0
  0
LINE
  5
433C
  8
250
  6
CONTINUOUS
 10
-29.1926459999999892
 20
-20.9932665409933215
 30
0.0
 11
-41.7824880886792087
 21
-20.9932665409933215
 31
0.0
1001
ITEMNAME
1000
LNSP2
  0
TEXT
  5
433D
  8
250
  6
CONTINUOUS
 10
-40.3441776961946772
 20
-19.9932665409933215
 30
0.0
 40
2.799999999999998
  1
BT30
  7
YOKO
1001
ITEMNAME
1000
LNSP3
1001
ACAD
1000
MTEXTBEGIN
1070
    73
1070
     1
1070
    44
1040
1.0
1070
    74
1070
     0
1000
MTEXTEND
1000
MTEXTBEGIN
1070
    73
1070
     1
1070
    44
1040
1.0
1070
    74
1070
     0
1000
MTEXTEND
1000
MTEXTBEGIN
1070
    73
1070
     1
1070
    44
1040
1.0
1070
    74
1070
     0
1000
MTEXTEND
1000
MTEXTBEGIN
1070
    73
1070
     1
1070
    44
1040
1.0
1070
    74
1070
     0
1000
MTEXTEND
  0
LINE
  5
433E
  8
250
  6
CONTINUOUS
 10
-25.3149999996330699
 20
-14.2769866516444992
 30
0.0
 11
-29.1926459999999892
 21
-20.9932665409933215
 31
0.0
1001
ACAD
1000
DSTYLE
1002
{
1070
     6
1000
OPEN
1070
   343
1005
0
1002
}
  0
LINE
  5
433F
  8
250
  6
CONTINUOUS
 10
-25.6368727747415797
 20
-14.0911533183723297
 30
0.0
 11
-24.2000000000000206
 21
-12.3457500009933501
 31
0.0
  0
LINE
  5
4340
  8
250
  6
CONTINUOUS
 10
-24.9931272245245495
 20
-14.4628199849166794
 30
0.0
 11
-24.2000000000000206
 21
-12.3457500009933501
 31
0.0
  0
LINE
  5
4341
  8
250
  6
CONTINUOUS
 10
-24.2000000000000206
 20
-12.3457500009933501
 30
0.0
 11
-25.3149999996330699
 21
-14.2769866516444992
 31
0.0
  0
LINE
  5
4342
  8
241
  6
CONTINUOUS
 10
0.4999999999999787
 20
-15.9479183884092208
 30
0.0
 11
0.4999999999999787
 21
15.9479183884092208
 31
0.0
  0
LINE
  5
4343
  8
240
  6
CONTINUOUS
 10
1.999999999999976
 20
23.0
 30
0.0
 11
1.999999999999976
 21
15.9479183884092208
 31
0.0
  0
LINE
  5
4344
  8
240
  6
CONTINUOUS
 10
1.999999999999976
 20
-23.0
 30
0.0
 11
1.999999999999976
 21
-15.9468589448889606
 31
0.0
  0
LINE
  5
4345
  8
245
  6
CENTER2
 10
0.0
 20
-16.875
 30
0.0
 11
0.0
 21
16.875
 31
0.0
  0
VIEWPORT
  5
22
 67
     1
  8
0
 10
261.517699115044195
 20
148.5
 30
0.0
 40
523.0353982300885036
 41
297.0
 68
     1
 69
     1
1001
ACAD
1000
MVIEW
1002
{
1070
    16
1010
0.0
1020
0.0
1030
0.0
1010
0.0
1020
0.0
1030
1.0
1040
0.0
1040
297.0
1040
261.517699115044195
1040
148.5
1040
50.0
1040
0.0
1040
0.0
1070
     0
1070
   100
1070
     1
1070
     1
1070
     0
1070
     0
1070
     0
1070
     0
1040
0.0
1040
0.0
1040
0.0
1040
1.0
1040
1.0
1040
10.0
1040
10.0
1070
     0
1002
{
1002
}
1002
}
1001
GENIUS_GENODEF_13
1002
{
1000
HIER
1070
     0
1002
}
1002
{
1000
MANEDIT
1070
     0
1002
}
1002
{
1000
NOSEL
1070
     0
1002
}
1002
{
1000
BEHIND
1070
     0
1002
}
1002
{
1000
OTHER
1070
     0
1002
}
1002
{
1000
REACTOR
1002
}
1001
GENIUS_GENOBJ-N-SDF_13
1002
{
1000
OWNER
1000
GEN
1002
}
1001
GENIUS_GENSCREG_15
1000
PF
1040
1.0
1000
DF
1040
1.0
1000
MIN
1011
0.0
1021
0.0
1031
0.0
1021
0.0
1031
0.0
1000
MAX
1011
523.0353982300885036
1021
0.0
1031
0.0
1021
297.0
1031
0.0
1000
FLAGS
1070
     4
  0
ENDSEC
  0
EOF
