  0
SECTION
  2
HEADER
  9
$ACADVER
  1
AC1015
  9
$ACADMAINTVER
 70
     6
  9
$DWGCODEPAGE
  3
ANSI_1252
  9
$INSBASE
 10
0.0
 20
0.0
 30
0.0
  9
$EXTMIN
 10
0.0
 20
0.0
 30
0.0
  9
$EXTMAX
 10
210.0
 20
297.0
 30
0.0
  9
$LIMMIN
 10
0.0
 20
0.0
  9
$LIMMAX
 10
0.0
 20
0.0
  9
$ORTHOMODE
 70
     0
  9
$REGENMODE
 70
     1
  9
$FILLMODE
 70
     1
  9
$QTEXTMODE
 70
     0
  9
$MIRRTEXT
 70
     1
  9
$LTSCALE
 40
1.0
  9
$ATTMODE
 70
     1
  9
$TEXTSIZE
 40
0.0
  9
$TRACEWID
 40
0.05
  9
$TEXTSTYLE
  7
STANDARD
  9
$CLAYER
  8
0
  9
$CELTYPE
  6
CONTINUOUS
  9
$CECOLOR
 62
   256
  9
$CELTSCALE
 40
1.0
  9
$DISPSILH
 70
     0
  9
$DIMSCALE
 40
1.0
  9
$DIMASZ
 40
0.0
  9
$DIMEXO
 40
0.0
  9
$DIMDLI
 40
0.38
  9
$DIMRND
 40
0.0
  9
$DIMDLE
 40
1000.0
  9
$DIMEXE
 40
0.18
  9
$DIMTP
 40
0.0
  9
$DIMTM
 40
0.0
  9
$DIMTXT
 40
3.5
  9
$DIMCEN
 40
0.09
  9
$DIMTSZ
 40
0.0
  9
$DIMTOL
 70
     0
  9
$DIMLIM
 70
     0
  9
$DIMTIH
 70
     1
  9
$DIMTOH
 70
     1
  9
$DIMSE1
 70
     0
  9
$DIMSE2
 70
     0
  9
$DIMTAD
 70
     1
  9
$DIMZIN
 70
     0
  9
$DIMBLK
  1

  9
$DIMASO
 70
     1
  9
$DIMSHO
 70
     1
  9
$DIMPOST
  1

  9
$DIMAPOST
  1

  9
$DIMALT
 70
     0
  9
$DIMALTD
 70
     2
  9
$DIMALTF
 40
0.0394
  9
$DIMLFAC
 40
1.0
  9
$DIMTOFL
 70
     0
  9
$DIMTVP
 40
0.0
  9
$DIMTIX
 70
     0
  9
$DIMSOXD
 70
     0
  9
$DIMSAH
 70
     0
  9
$DIMBLK1
  1

  9
$DIMBLK2
  1

  9
$DIMSTYLE
  2
STANDARD
  9
$DIMCLRD
 70
     0
  9
$DIMCLRE
 70
     0
  9
$DIMCLRT
 70
     0
  9
$DIMTFAC
 40
1.0
  9
$DIMGAP
 40
0.0
  9
$DIMJUST
 70
     0
  9
$DIMSD1
 70
     0
  9
$DIMSD2
 70
     0
  9
$DIMTOLJ
 70
     1
  9
$DIMTZIN
 70
     0
  9
$DIMALTZ
 70
     0
  9
$DIMALTTZ
 70
     0
  9
$DIMUPT
 70
     0
  9
$DIMDEC
 70
     4
  9
$DIMTDEC
 70
     4
  9
$DIMALTU
 70
     2
  9
$DIMALTTD
 70
     2
  9
$DIMTXSTY
  7
STANDARD
  9
$DIMAUNIT
 70
     0
  9
$DIMADEC
 70
     0
  9
$DIMALTRND
 40
0.0
  9
$DIMAZIN
 70
     0
  9
$DIMDSEP
 70
    46
  9
$DIMATFIT
 70
     3
  9
$DIMFRAC
 70
     0
  9
$DIMLDRBLK
  1

  9
$DIMLUNIT
 70
     2
  9
$DIMLWD
 70
    -2
  9
$DIMLWE
 70
    -2
  9
$DIMTMOVE
 70
     2
  9
$LUNITS
 70
     2
  9
$LUPREC
 70
     2
  9
$SKETCHINC
 40
0.1
  9
$FILLETRAD
 40
0.0
  9
$AUNITS
 70
     0
  9
$AUPREC
 70
     2
  9
$MENU
  1
acad
  9
$ELEVATION
 40
0.0
  9
$PELEVATION
 40
0.0
  9
$THICKNESS
 40
0.0
  9
$LIMCHECK
 70
     0
  9
$CHAMFERA
 40
0.0
  9
$CHAMFERB
 40
0.0
  9
$CHAMFERC
 40
0.0
  9
$CHAMFERD
 40
0.0
  9
$SKPOLY
 70
     0
  9
$TDCREATE
 40
2447893.0
  9
$TDUCREATE
 40
2447892.916666667
  9
$TDUPDATE
 40
2458327.548790914
  9
$TDUUPDATE
 40
2458327.465457581
  9
$TDINDWG
 40
0.0
  9
$TDUSRTIMER
 40
0.0
  9
$USRTIMER
 70
     1
  9
$ANGBASE
 50
0.0
  9
$ANGDIR
 70
     0
  9
$PDMODE
 70
     0
  9
$PDSIZE
 40
-1.0
  9
$PLINEWID
 40
0.0
  9
$SPLFRAME
 70
     0
  9
$SPLINETYPE
 70
     6
  9
$SPLINESEGS
 70
     8
  9
$HANDSEED
  5
3E2
  9
$SURFTAB1
 70
     6
  9
$SURFTAB2
 70
     6
  9
$SURFTYPE
 70
     6
  9
$SURFU
 70
     6
  9
$SURFV
 70
     6
  9
$UCSBASE
  2

  9
$UCSNAME
  2

  9
$UCSORG
 10
0.0
 20
0.0
 30
0.0
  9
$UCSXDIR
 10
1.0
 20
0.0
 30
0.0
  9
$UCSYDIR
 10
0.0
 20
1.0
 30
0.0
  9
$UCSORTHOREF
  2

  9
$UCSORTHOVIEW
 70
     0
  9
$UCSORGTOP
 10
0.0
 20
0.0
 30
0.0
  9
$UCSORGBOTTOM
 10
0.0
 20
0.0
 30
0.0
  9
$UCSORGLEFT
 10
0.0
 20
0.0
 30
0.0
  9
$UCSORGRIGHT
 10
0.0
 20
0.0
 30
0.0
  9
$UCSORGFRONT
 10
0.0
 20
0.0
 30
0.0
  9
$UCSORGBACK
 10
0.0
 20
0.0
 30
0.0
  9
$PUCSBASE
  2

  9
$PUCSNAME
  2

  9
$PUCSORG
 10
0.0
 20
0.0
 30
0.0
  9
$PUCSXDIR
 10
1.0
 20
0.0
 30
0.0
  9
$PUCSYDIR
 10
0.0
 20
1.0
 30
0.0
  9
$PUCSORTHOREF
  2

  9
$PUCSORTHOVIEW
 70
     0
  9
$PUCSORGTOP
 10
0.0
 20
0.0
 30
0.0
  9
$PUCSORGBOTTOM
 10
0.0
 20
0.0
 30
0.0
  9
$PUCSORGLEFT
 10
0.0
 20
0.0
 30
0.0
  9
$PUCSORGRIGHT
 10
0.0
 20
0.0
 30
0.0
  9
$PUCSORGFRONT
 10
0.0
 20
0.0
 30
0.0
  9
$PUCSORGBACK
 10
0.0
 20
0.0
 30
0.0
  9
$USERI1
 70
     0
  9
$USERI2
 70
     0
  9
$USERI3
 70
     0
  9
$USERI4
 70
     0
  9
$USERI5
 70
     0
  9
$USERR1
 40
0.0
  9
$USERR2
 40
0.0
  9
$USERR3
 40
0.0
  9
$USERR4
 40
0.0
  9
$USERR5
 40
0.0
  9
$WORLDVIEW
 70
     1
  9
$SHADEDGE
 70
     3
  9
$SHADEDIF
 70
    70
  9
$TILEMODE
 70
     1
  9
$MAXACTVP
 70
    16
  9
$PINSBASE
 10
0.0
 20
0.0
 30
0.0
  9
$PLIMCHECK
 70
     0
  9
$PEXTMIN
 10
1.000000000000000E+20
 20
1.000000000000000E+20
 30
1.000000000000000E+20
  9
$PEXTMAX
 10
-1.000000000000000E+20
 20
-1.000000000000000E+20
 30
-1.000000000000000E+20
  9
$PLIMMIN
 10
0.0
 20
0.0
  9
$PLIMMAX
 10
12.0
 20
9.0
  9
$UNITMODE
 70
     0
  9
$VISRETAIN
 70
     0
  9
$PLINEGEN
 70
     1
  9
$PSLTSCALE
 70
     1
  9
$TREEDEPTH
 70
  3020
  9
$CMLSTYLE
  2
STANDARD
  9
$CMLJUST
 70
     0
  9
$CMLSCALE
 40
1.0
  9
$PROXYGRAPHICS
 70
     1
  9
$MEASUREMENT
 70
     0
  9
$CELWEIGHT
370
    -1
  9
$ENDCAPS
280
     0
  9
$JOINSTYLE
280
     0
  9
$LWDISPLAY
290
     0
  9
$INSUNITS
 70
     0
  9
$HYPERLINKBASE
  1

  9
$STYLESHEET
  1

  9
$XEDIT
290
     1
  9
$CEPSNTYPE
380
     0
  9
$PSTYLEMODE
290
     1
  9
$FINGERPRINTGUID
  2
{564E16CD-4BA0-47ED-8EC3-0A60C12AA200}
  9
$VERSIONGUID
  2
{FAEB1C32-E019-11D5-929B-00C0DF256EC4}
  9
$EXTNAMES
290
     1
  9
$PSVPSCALE
 40
0.0
  9
$OLESTARTUP
290
     0
  0
ENDSEC
  0
SECTION
  2
CLASSES
  0
CLASS
  1
LWPOLYLINE
  2
AcDbPolyline
  3
ObjectDBX Classes
 90
        0
280
     0
281
     1
  0
CLASS
  1
IMAGE
  2
AcDbRasterImage
  3
ISM
 90
      127
280
     0
281
     1
  0
CLASS
  1
OLE2FRAME
  2
AcDbOle2Frame
  3
ObjectDBX Classes
 90
        0
280
     0
281
     1
  0
CLASS
  1
HATCH
  2
AcDbHatch
  3
ObjectDBX Classes
 90
        0
280
     0
281
     1
  0
CLASS
  1
DICTIONARYVAR
  2
AcDbDictionaryVar
  3
ObjectDBX Classes
 90
        0
280
     0
281
     0
  0
CLASS
  1
RASTERVARIABLES
  2
AcDbRasterVariables
  3
ISM
 90
        0
280
     0
281
     0
  0
CLASS
  1
IMAGEDEF
  2
AcDbRasterImageDef
  3
ISM
 90
        0
280
     0
281
     0
  0
CLASS
  1
IMAGEDEF_REACTOR
  2
AcDbRasterImageDefReactor
  3
ISM
 90
        1
280
     0
281
     0
  0
CLASS
  1
IDBUFFER
  2
AcDbIdBuffer
  3
ObjectDBX Classes
 90
        0
280
     0
281
     0
  0
CLASS
  1
SPATIAL_FILTER
  2
AcDbSpatialFilter
  3
ObjectDBX Classes
 90
        0
280
     0
281
     0
  0
CLASS
  1
XRECORD
  2
AcDbXrecord
  3
ObjectDBX Classes
 90
        0
280
     0
281
     0
  0
CLASS
  1
SORTENTSTABLE
  2
AcDbSortentsTable
  3
ObjectDBX Classes
 90
        0
280
     0
281
     0
  0
CLASS
  1
LAYER_INDEX
  2
AcDbLayerIndex
  3
ObjectDBX Classes
 90
        0
280
     0
281
     0
  0
CLASS
  1
SPATIAL_INDEX
  2
AcDbSpatialIndex
  3
AutoCAD 2000
 90
        0
280
     0
281
     0
  0
CLASS
  1
OBJECT_PTR
  2
CAseDLPNTableRecord
  3
ASE-LPNTableRecord
 90
        1
280
     0
281
     0
  0
CLASS
  1
LAYOUT
  2
AcDbLayout
  3
ObjectDBX Classes
 90
        0
280
     0
281
     0
  0
CLASS
  1
PLOTSETTINGS
  2
AcDbPlotSettings
  3
ObjectDBX Classes
 90
        0
280
     0
281
     0
  0
CLASS
  1
ACDBDICTIONARYWDFLT
  2
AcDbDictionaryWithDefault
  3
ObjectDBX Classes
 90
        0
280
     0
281
     0
  0
CLASS
  1
ACDBPLACEHOLDER
  2
AcDbPlaceHolder
  3
ObjectDBX Classes
 90
        0
280
     0
281
     0
  0
CLASS
  1
VBA_PROJECT
  2
AcDbVbaProject
  3
ObjectDBX Classes
 90
        0
280
     0
281
     0
  0
CLASS
  1
WIPEOUT
  2
AcDbWipeout
  3
WipeOut|AutoCAD Express Tool|expresstools@autodesk.com
 90
      127
280
     0
281
     1
  0
CLASS
  1
WIPEOUTVARIABLES
  2
AcDbWipeoutVariables
  3
WipeOut|AutoCAD Express Tool|expresstools@autodesk.com
 90
        0
280
     0
281
     0
  0
CLASS
  1
RTEXT
  2
RText
  3
RText|AutoCAD Express Tool|expresstools@autodesk.com
 90
        0
280
     0
281
     1
  0
CLASS
  1
ARCALIGNEDTEXT
  2
AcDbArcAlignedText
  3
ATEXT|AutoCAD Express Tool|expresstools@autodesk.com
 90
        0
280
     0
281
     1
  0
CLASS
  1
SCALE
  2
AcDbScale
  3
ObjectDBX Classes
 90
     1153
280
     0
281
     0
  0
CLASS
  1
VISUALSTYLE
  2
AcDbVisualStyle
  3
ObjectDBX Classes
 90
     4095
280
     0
281
     0
  0
CLASS
  1
MATERIAL
  2
AcDbMaterial
  3
ObjectDBX Classes
 90
     1153
280
     0
281
     0
  0
ENDSEC
  0
SECTION
  2
TABLES
  0
TABLE
  2
VPORT
  5
7
102
{ACAD_XDICTIONARY
360
3A7
102
}
330
0
100
AcDbSymbolTable
 70
     1
  0
VPORT
  5
15
330
7
100
AcDbSymbolTableRecord
100
AcDbViewportTableRecord
  2
*ACTIVE
 70
     0
 10
0.0
 20
0.0
 11
1.0
 21
1.0
 12
105.0
 22
148.5
 13
0.0
 23
0.0
 14
1.0
 24
1.0
 15
0.0
 25
0.0
 16
0.0
 26
0.0
 36
1.0
 17
0.0
 27
0.0
 37
0.0
 40
297.0
 41
1.4142857143
 42
50.0
 43
0.0
 44
0.0
 50
0.0
 51
0.0
 71
     0
 72
  2000
 73
     1
 74
     1
 75
     0
 76
     0
 77
     0
 78
     0
281
     0
 65
     1
110
0.0
120
0.0
130
0.0
111
1.0
121
0.0
131
0.0
112
0.0
122
1.0
132
0.0
 79
     0
146
0.0
  0
ENDTAB
  0
TABLE
  2
LTYPE
  5
4
330
0
100
AcDbSymbolTable
 70
     6
  0
LTYPE
  5
11
330
4
100
AcDbSymbolTableRecord
100
AcDbLinetypeTableRecord
  2
BYBLOCK
 70
     0
  3

 72
    65
 73
     0
 40
0.0
  0
LTYPE
  5
12
330
4
100
AcDbSymbolTableRecord
100
AcDbLinetypeTableRecord
  2
BYLAYER
 70
     0
  3

 72
    65
 73
     0
 40
0.0
  0
LTYPE
  5
13
330
4
100
AcDbSymbolTableRecord
100
AcDbLinetypeTableRecord
  2
CONTINUOUS
 70
     0
  3
Solid line
 72
    65
 73
     0
 40
0.0
  0
LTYPE
  5
1D
330
4
100
AcDbSymbolTableRecord
100
AcDbLinetypeTableRecord
  2
HIDDEN
 70
     0
  3
Hidden __ __ __ __ __ __ __ __ __ __ __ __ __ __
 72
    65
 73
     2
 40
1.905
 49
1.27
 74
     0
 49
-0.635
 74
     0
  0
LTYPE
  5
1E
330
4
100
AcDbSymbolTableRecord
100
AcDbLinetypeTableRecord
  2
PHANTOM
 70
     0
  3
Phantom ______  __  __  ______  __  __  ______
 72
    65
 73
     6
 40
12.7
 49
6.35
 74
     0
 49
-1.27
 74
     0
 49
1.27
 74
     0
 49
-1.27
 74
     0
 49
1.27
 74
     0
 49
-1.27
 74
     0
  0
LTYPE
  5
1F
330
4
100
AcDbSymbolTableRecord
100
AcDbLinetypeTableRecord
  2
CENTER
 70
     0
  3
Center ____ _ ____ _ ____ _ ____ _ ____ _ ____
 72
    65
 73
     4
 40
10.16
 49
6.35
 74
     0
 49
-1.27
 74
     0
 49
1.27
 74
     0
 49
-1.27
 74
     0
  0
LTYPE
  5
20
330
4
100
AcDbSymbolTableRecord
100
AcDbLinetypeTableRecord
  2
CENTERX2
 70
     0
  3
Center (2x) ________  __  ________  __  _____
 72
    65
 73
     4
 40
20.32
 49
12.7
 74
     0
 49
-2.54
 74
     0
 49
2.54
 74
     0
 49
-2.54
 74
     0
  0
LTYPE
  5
21
330
4
100
AcDbSymbolTableRecord
100
AcDbLinetypeTableRecord
  2
DOT2
 70
     0
  3
Dot (.5x) ........................................
 72
    65
 73
     2
 40
0.635
 49
0.0
 74
     0
 49
-0.635
 74
     0
  0
LTYPE
  5
3D1
330
5
100
AcDbSymbolTableRecord
100
AcDbLinetypeTableRecord
  2
DASH
 70
     0
  3
DASH _ _ _ _ _
 72
    65
 73
     2
 40
0.75
 49
0.40
 74
     0
 49
-0.35
 74
     0
  0
LTYPE
  5
3D2
330
5
100
AcDbSymbolTableRecord
100
AcDbLinetypeTableRecord
  2
LONGDASH_DASH
 70
     0
  3
LONGDASH_DASH __ . __ . __
 72
    65
 73
     4
 40
0.85
 49
0.40
 74
     0
 49
-0.20
 74
     0
 49
0.05
 74
     0
 49
-0.20
 74
     0
  0
LTYPE
  5
3D3
330
5
100
AcDbSymbolTableRecord
100
AcDbLinetypeTableRecord
  2
LONGDASH_DASH_DASH
 70
     0
  3
LONGDASH_DASH_DASH __ . . __ . . __
 72
    65
 73
     6
 40
1.10
 49
0.40
 74
     0
 49
-0.20
 74
     0
 49
0.05
 74
     0
 49
-0.20
 74
     0
 49
0.05
 74
     0
 49
-0.20
 74
     0
  0
ENDTAB
  0
TABLE
  2
LAYER
  5
2
330
0
100
AcDbSymbolTable
 70
     8
  0
LAYER
  5
23
330
2
100
AcDbSymbolTableRecord
100
AcDbLayerTableRecord
  2
DEFPOINTS
 70
     0
 62
     7
  6
CONTINUOUS
290
     0
370
    -3
390
0
  0
LAYER
  5
3D4
330
2
100
AcDbSymbolTableRecord
100
AcDbLayerTableRecord
  2
0
 70
     0
 62
     -1
  6
CONTINUOUS
370
    -3
390
F
  0
LAYER
  5
3D5
330
2
100
AcDbSymbolTableRecord
100
AcDbLayerTableRecord
  2
1
 70
     0
 62
     4
  6
CONTINUOUS
370
    50
390
F
  0
LAYER
  5
3D6
330
2
100
AcDbSymbolTableRecord
100
AcDbLayerTableRecord
  2
2
 70
     0
 62
     7
  6
CONTINUOUS
370
    25
390
F
  0
LAYER
  5
3D7
330
2
100
AcDbSymbolTableRecord
100
AcDbLayerTableRecord
  2
3
 70
     0
 62
     1
  6
DASH
370
    35
390
F
  0
LAYER
  5
3D8
330
2
100
AcDbSymbolTableRecord
100
AcDbLayerTableRecord
  2
4
 70
     0
 62
     2
  6
LONGDASH_DASH
370
    25
390
F
  0
LAYER
  5
3D9
330
2
100
AcDbSymbolTableRecord
100
AcDbLayerTableRecord
  2
6
 70
     0
 62
     5
  6
CONTINUOUS
370
    -3
390
F
  0
LAYER
  5
3DA
330
2
100
AcDbSymbolTableRecord
100
AcDbLayerTableRecord
  2
CUT
 70
     0
 62
     1
  6
CONTINUOUS
370
    25
390
F
  0
LAYER
  5
3DB
330
2
100
AcDbSymbolTableRecord
100
AcDbLayerTableRecord
  2
NOCUT
 70
     0
 62
     7
  6
CONTINUOUS
370
    25
390
F
  0
LAYER
  5
3DC
330
2
100
AcDbSymbolTableRecord
100
AcDbLayerTableRecord
  2
SK1
 70
     0
 62
     4
  6
CONTINUOUS
370
    50
390
F
  0
LAYER
  5
3DD
330
2
100
AcDbSymbolTableRecord
100
AcDbLayerTableRecord
  2
SK2
 70
     0
 62
     7
  6
CONTINUOUS
370
    25
390
F
  0
LAYER
  5
3DE
330
2
100
AcDbSymbolTableRecord
100
AcDbLayerTableRecord
  2
SK3
 70
     0
 62
     1
  6
DASH
370
    35
390
F
  0
LAYER
  5
3DF
330
2
100
AcDbSymbolTableRecord
100
AcDbLayerTableRecord
  2
SK4
 70
     0
 62
     2
  6
LONGDASH_DASH
370
    25
390
F
  0
LAYER
  5
3E0
330
2
100
AcDbSymbolTableRecord
100
AcDbLayerTableRecord
  2
SK6
 70
     0
 62
     5
  6
CONTINUOUS
370
    -3
390
F
  0
LAYER
  5
3E1
330
2
100
AcDbSymbolTableRecord
100
AcDbLayerTableRecord
  2
INFTOTAL
 70
     0
 62
     9
  6
CONTINUOUS
370
    18
390
F
  0
ENDTAB
  0
TABLE
  2
STYLE
  5
3
330
0
100
AcDbSymbolTable
 70
     2
  0
STYLE
  5
17
330
3
100
AcDbSymbolTableRecord
100
AcDbTextStyleTableRecord
  2
STANDARD
 70
     0
 40
0.0
 41
1.0
 50
0.0
 71
     0
 42
0.2
  3
txt
  4

  0
STYLE
  5
39F
330
3
100
AcDbSymbolTableRecord
100
AcDbTextStyleTableRecord
  2
BMG_Text
 70
     0
 40
3.5
 41
1.0
 50
0.0
 71
     0
 42
0.0
  3
monos.ttf
  4

1001
ACAD
1000
Monospac821 BT
1071
       49
  0
ENDTAB
  0
TABLE
  2
VIEW
  5
5
330
0
100
AcDbSymbolTable
 70
     0
  0
ENDTAB
  0
TABLE
  2
UCS
  5
6
330
0
100
AcDbSymbolTable
 70
     0
  0
ENDTAB
  0
TABLE
  2
APPID
  5
8
330
0
100
AcDbSymbolTable
 70
     1
  0
APPID
  5
16
330
8
100
AcDbSymbolTableRecord
100
AcDbRegAppTableRecord
  2
ACAD
 70
     0
  0
ENDTAB
  0
TABLE
  2
DIMSTYLE
  5
9
330
0
100
AcDbSymbolTable
 70
     1
100
AcDbDimStyleTable
  0
DIMSTYLE
105
18
330
9
100
AcDbSymbolTableRecord
100
AcDbDimStyleTableRecord
  2
STANDARD
 70
     0
178
     0
340
17
  0
ENDTAB
  0
TABLE
  2
BLOCK_RECORD
  5
1
330
0
100
AcDbSymbolTable
 70
     0
  0
BLOCK_RECORD
  5
A
330
1
100
AcDbSymbolTableRecord
100
AcDbBlockTableRecord
  2
*MODEL_SPACE
340
388
  0
BLOCK_RECORD
  5
B
330
1
100
AcDbSymbolTableRecord
100
AcDbBlockTableRecord
  2
*PAPER_SPACE
340
389
  0
ENDTAB
  0
ENDSEC
  0
SECTION
  2
BLOCKS
  0
BLOCK
  5
D
330
A
100
AcDbEntity
  8
0
100
AcDbBlockBegin
  2
*MODEL_SPACE
 70
     0
 10
0.0
 20
0.0
 30
0.0
  3
*MODEL_SPACE
  1

  0
ENDBLK
  5
E
330
A
100
AcDbEntity
  8
0
100
AcDbBlockEnd
  0
BLOCK
  5
F
330
B
100
AcDbEntity
 67
     1
  8
0
100
AcDbBlockBegin
  2
*PAPER_SPACE
 70
     0
 10
0.0
 20
0.0
 30
0.0
  3
*PAPER_SPACE
  1

  0
ENDBLK
  5
10
330
B
100
AcDbEntity
 67
     1
  8
0
100
AcDbBlockEnd
  0
ENDSEC
  0
SECTION
  2
ENTITIES
  0
ARC
  5
29
330
A
100
AcDbEntity
  8
1
  6
CONTINUOUS
370
    50
100
AcDbCircle
 10
77.2064970982
 20
144.8874356674
 30
0.0
 40
0.5
100
AcDbArc
 50
66.4218215218
 51
90.0
  0
ARC
  5
2A
330
A
100
AcDbEntity
  8
1
  6
CONTINUOUS
370
    50
100
AcDbCircle
 10
77.2064970982
 20
215.1374356674
 30
0.0
 40
0.5
100
AcDbArc
 50
270.0
 51
293.5781784782001
  0
LINE
  5
2B
330
A
100
AcDbEntity
  8
1
  6
CONTINUOUS
370
    50
100
AcDbLine
 10
75.9064970982
 20
214.9374356674
 30
0.0
 11
-23.8401628377
 21
200.3910477601
 31
0.0
  0
LINE
  5
2C
330
A
100
AcDbEntity
  8
1
  6
CONTINUOUS
370
    50
100
AcDbLine
 10
-23.8401628377
 20
159.6338235747
 30
0.0
 11
75.9064970982
 21
145.0874356674
 31
0.0
  0
LINE
  5
2D
330
A
100
AcDbEntity
  8
1
  6
CONTINUOUS
370
    50
100
AcDbLine
 10
75.9064970982
 20
145.0874356674
 30
0.0
 11
76.4493873748
 21
145.3405895609
 31
0.0
  0
LINE
  5
2E
330
A
100
AcDbEntity
  8
1
  6
CONTINUOUS
370
    50
100
AcDbLine
 10
76.4493873748
 20
214.6842817739
 30
0.0
 11
75.9064970982
 21
214.9374356674
 31
0.0
  0
LINE
  5
2F
330
A
100
AcDbEntity
  8
1
  6
CONTINUOUS
370
    50
100
AcDbLine
 10
76.6606965057
 20
145.3874356674
 30
0.0
 11
77.2064970982
 21
145.3874356674
 31
0.0
  0
LINE
  5
30
330
A
100
AcDbEntity
  8
1
  6
CONTINUOUS
370
    50
100
AcDbLine
 10
77.2064970982
 20
214.6374356674
 30
0.0
 11
76.6606965057
 21
214.6374356674
 31
0.0
  0
ARC
  5
31
330
A
100
AcDbEntity
  8
1
  6
CONTINUOUS
370
    50
100
AcDbCircle
 10
99.9564970982
 20
156.0624356674
 30
0.0
 40
5.0
100
AcDbArc
 50
81.890385544
 51
180.0
  0
ARC
  5
32
330
A
100
AcDbEntity
  8
1
  6
CONTINUOUS
370
    50
100
AcDbCircle
 10
99.9564970982
 20
203.9624356674
 30
0.0
 40
5.0
100
AcDbArc
 50
180.0
 51
278.109614456
  0
ARC
  5
33
330
A
100
AcDbEntity
  8
1
  6
CONTINUOUS
370
    50
100
AcDbCircle
 10
-23.4435029018
 20
161.849777241
 30
0.0
 40
2.25
100
AcDbArc
 50
180.0
 51
258.0
  0
ARC
  5
34
330
A
100
AcDbEntity
  8
1
  6
CONTINUOUS
370
    50
100
AcDbCircle
 10
-23.4435029018
 20
198.1750940938
 30
0.0
 40
2.25
100
AcDbArc
 50
102.0
 51
180.0
  0
LINE
  5
35
330
A
100
AcDbEntity
  8
1
  6
CONTINUOUS
370
    50
100
AcDbLine
 10
119.1328326863
 20
161.0124356674
 30
0.0
 11
197.7864970982
 21
166.5124356674
 31
0.0
  0
LINE
  5
36
330
A
100
AcDbEntity
  8
1
  6
CONTINUOUS
370
    50
100
AcDbLine
 10
197.7864970982
 20
193.5124356674
 30
0.0
 11
119.1328326863
 21
199.0124356674
 31
0.0
  0
LINE
  5
37
330
A
100
AcDbEntity
  8
1
  6
CONTINUOUS
370
    50
100
AcDbLine
 10
100.6618338972
 20
161.0124356674
 30
0.0
 11
119.1328326863
 21
161.0124356674
 31
0.0
  0
LINE
  5
38
330
A
100
AcDbEntity
  8
1
  6
CONTINUOUS
370
    50
100
AcDbLine
 10
119.1328326863
 20
199.0124356674
 30
0.0
 11
100.6618338972
 21
199.0124356674
 31
0.0
  0
LINE
  5
39
330
A
100
AcDbEntity
  8
1
  6
CONTINUOUS
370
    50
100
AcDbLine
 10
197.7878828897
 20
166.5124356674
 30
0.0
 11
234.8733689942
 21
169.4311267222
 31
0.0
  0
LINE
  5
3A
330
A
100
AcDbEntity
  8
1
  6
CONTINUOUS
370
    50
100
AcDbLine
 10
234.8733689942
 20
190.5937446125
 30
0.0
 11
197.7878828897
 21
193.5124356674
 31
0.0
  0
ARC
  5
3B
330
A
100
AcDbEntity
  8
1
  6
CONTINUOUS
370
    50
100
AcDbCircle
 10
233.9064970982
 20
171.1818861965
 30
0.0
 40
2.0
100
AcDbArc
 50
298.9100507072
 51
0.0
  0
ARC
  5
3C
330
A
100
AcDbEntity
  8
1
  6
CONTINUOUS
370
    50
100
AcDbCircle
 10
233.9064970982
 20
188.8429851383
 30
0.0
 40
2.0
100
AcDbArc
 50
0.0
 51
61.08994929280001
  0
LINE
  5
3D
330
A
100
AcDbEntity
  8
1
  6
CONTINUOUS
370
    50
100
AcDbLine
 10
83.7733355907
 20
133.2530983652
 30
0.0
 11
83.7733355907
 21
209.8624356674
 31
0.0
  0
LINE
  5
3E
330
A
100
AcDbEntity
  8
1
  6
CONTINUOUS
370
    50
100
AcDbLine
 10
78.756497096
 20
133.2530983652
 30
0.0
 11
83.7733355907
 21
133.2530983652
 31
0.0
  0
LINE
  5
3F
330
A
100
AcDbEntity
  8
1
  6
CONTINUOUS
370
    50
100
AcDbLine
 10
77.9064970982
 20
133.5105741455
 30
0.0
 11
78.756497096
 21
133.2530983652
 31
0.0
  0
LINE
  5
40
330
A
100
AcDbEntity
  8
1
  6
CONTINUOUS
370
    50
100
AcDbLine
 10
77.9064970982
 20
209.8624356674
 30
0.0
 11
77.9064970982
 21
133.5105741455
 31
0.0
  0
LINE
  5
41
330
A
100
AcDbEntity
  8
1
  6
CONTINUOUS
370
    50
100
AcDbLine
 10
83.7733355907
 20
209.8624356674
 30
0.0
 11
77.9064970982
 21
209.8624356674
 31
0.0
  0
LINE
  5
42
330
A
100
AcDbEntity
  8
1
  6
CONTINUOUS
370
    50
100
AcDbLine
 10
94.4564970982
 20
133.2530983652
 30
0.0
 11
94.4564970982
 21
209.8624356674
 31
0.0
  0
LINE
  5
43
330
A
100
AcDbEntity
  8
1
  6
CONTINUOUS
370
    50
100
AcDbLine
 10
94.4564970982
 20
209.8624356674
 30
0.0
 11
94.9564970982
 21
209.8624356674
 31
0.0
  0
LINE
  5
44
330
A
100
AcDbEntity
  8
1
  6
CONTINUOUS
370
    50
100
AcDbLine
 10
94.9564970982
 20
209.8624356674
 30
0.0
 11
94.9564970982
 21
133.6566816755
 31
0.0
  0
LINE
  5
45
330
A
100
AcDbEntity
  8
1
  6
CONTINUOUS
370
    50
100
AcDbLine
 10
94.9564970982
 20
133.6566816755
 30
0.0
 11
94.4564970982
 21
133.2530983652
 31
0.0
  0
LINE
  5
46
330
A
100
AcDbEntity
  8
1
  6
CONTINUOUS
370
    50
100
AcDbLine
 10
90.2396586056
 20
209.8624356674
 30
0.0
 11
90.2396586056
 21
133.2530983652
 31
0.0
  0
LINE
  5
47
330
A
100
AcDbEntity
  8
1
  6
CONTINUOUS
370
    50
100
AcDbLine
 10
94.4564970982
 20
209.8624356674
 30
0.0
 11
90.2396586056
 21
209.8624356674
 31
0.0
  0
LINE
  5
48
330
A
100
AcDbEntity
  8
1
  6
CONTINUOUS
370
    50
100
AcDbLine
 10
90.2396586056
 20
133.2530983652
 30
0.0
 11
94.4564970982
 21
133.2530983652
 31
0.0
  0
LINE
  5
49
330
A
100
AcDbEntity
  8
1
  6
CONTINUOUS
370
    50
100
AcDbLine
 10
77.4064970982
 20
134.1959743789
 30
0.0
 11
77.4064970982
 21
209.8624356674
 31
0.0
  0
LINE
  5
4A
330
A
100
AcDbEntity
  8
1
  6
CONTINUOUS
370
    50
100
AcDbLine
 10
77.4064970982
 20
209.8624356674
 30
0.0
 11
77.9064970982
 21
209.8624356674
 31
0.0
  0
LINE
  5
4B
330
A
100
AcDbEntity
  8
1
  6
CONTINUOUS
370
    50
100
AcDbLine
 10
77.9064970982
 20
133.5105741455
 30
0.0
 11
77.4064970982
 21
134.1959743789
 31
0.0
  0
LINE
  5
4C
330
A
100
AcDbEntity
  8
1
  6
CONTINUOUS
370
    50
100
AcDbLine
 10
85.0814970982
 20
209.8624356674
 30
0.0
 11
83.7733355907
 21
209.8624356674
 31
0.0
  0
LINE
  5
4D
330
A
100
AcDbEntity
  8
1
  6
CONTINUOUS
370
    50
100
AcDbLine
 10
85.0814970982
 20
135.3656601887
 30
0.0
 11
85.0814970982
 21
209.8624356674
 31
0.0
  0
LWPOLYLINE
  5
4E
330
A
100
AcDbEntity
  8
1
  6
CONTINUOUS
370
    50
100
AcDbPolyline
 90
        3
 70
   128
 43
0.0
 10
84.3802550047
 20
134.1030983674
 10
84.4275671691
 20
134.1882006769
 10
85.0814970982
 20
135.3656601887
  0
LINE
  5
53
330
A
100
AcDbEntity
  8
1
  6
CONTINUOUS
370
    50
100
AcDbLine
 10
83.7733355907
 20
133.2530983652
 30
0.0
 11
84.3802550047
 21
134.1030983674
 31
0.0
  0
LINE
  5
54
330
A
100
AcDbEntity
  8
1
  6
CONTINUOUS
370
    50
100
AcDbLine
 10
88.9314970982
 20
209.8624356674
 30
0.0
 11
88.9314970982
 21
135.3656601887
 31
0.0
  0
LINE
  5
55
330
A
100
AcDbEntity
  8
1
  6
CONTINUOUS
370
    50
100
AcDbLine
 10
90.2396586056
 20
209.8624356674
 30
0.0
 11
88.9314970982
 21
209.8624356674
 31
0.0
  0
LINE
  5
56
330
A
100
AcDbEntity
  8
1
  6
CONTINUOUS
370
    50
100
AcDbLine
 10
89.6327391916
 20
134.1030983674
 30
0.0
 11
90.2396586056
 21
133.2530983652
 31
0.0
  0
LINE
  5
57
330
A
100
AcDbEntity
  8
1
  6
CONTINUOUS
370
    50
100
AcDbLine
 10
88.9314970982
 20
135.3656601887
 30
0.0
 11
89.6327391916
 21
134.1030983674
 31
0.0
  0
ARC
  5
58
330
A
100
AcDbEntity
  8
1
  6
CONTINUOUS
370
    50
100
AcDbCircle
 10
88.4216041722
 20
135.8547525867
 30
0.0
 40
0.5100127724
100
AcDbArc
 50
358.7578664212
 51
88.8885406704
  0
LINE
  5
59
330
A
100
AcDbEntity
  8
1
  6
CONTINUOUS
370
    50
100
AcDbLine
 10
88.4314970982
 20
209.8624356674
 30
0.0
 11
88.4314970982
 21
136.3646694015
 31
0.0
  0
LINE
  5
5A
330
A
100
AcDbEntity
  8
1
  6
CONTINUOUS
370
    50
100
AcDbLine
 10
88.4314970982
 20
209.8624356674
 30
0.0
 11
88.9314970982
 21
209.8624356674
 31
0.0
  0
ARC
  5
5B
330
A
100
AcDbEntity
  8
1
  6
CONTINUOUS
370
    50
100
AcDbCircle
 10
85.5929786155
 20
135.8532279469
 30
0.0
 40
0.5115703146
100
AcDbArc
 50
91.28603577269999
 51
181.0675571357
  0
LINE
  5
5C
330
A
100
AcDbEntity
  8
1
  6
CONTINUOUS
370
    50
100
AcDbLine
 10
85.0814970982
 20
209.8624356674
 30
0.0
 11
85.5814970982
 21
209.8624356674
 31
0.0
  0
LINE
  5
5D
330
A
100
AcDbEntity
  8
1
  6
CONTINUOUS
370
    50
100
AcDbLine
 10
85.5814970982
 20
209.8624356674
 30
0.0
 11
85.5814970982
 21
136.3646694015
 31
0.0
  0
LINE
  5
5E
330
A
100
AcDbEntity
  8
1
  6
CONTINUOUS
370
    50
100
AcDbLine
 10
88.4314970982
 20
136.3646694015
 30
0.0
 11
85.5814970982
 21
136.3646694015
 31
0.0
  0
LINE
  5
5F
330
A
100
AcDbEntity
  8
1
  6
CONTINUOUS
370
    50
100
AcDbLine
 10
85.5814970982
 20
209.8624356674
 30
0.0
 11
88.4314970982
 21
209.8624356674
 31
0.0
  0
LINE
  5
60
330
A
100
AcDbEntity
  8
1
  6
CONTINUOUS
370
    50
100
AcDbLine
 10
-23.8401628377
 20
200.3910477601
 30
0.0
 11
-23.8401628377
 21
159.6338235747
 31
0.0
  0
LINE
  5
61
330
A
100
AcDbEntity
  8
1
  6
CONTINUOUS
370
    50
100
AcDbLine
 10
75.9064970982
 20
145.0874356674
 30
0.0
 11
75.9064970982
 21
214.9374356674
 31
0.0
  0
LINE
  5
62
330
A
100
AcDbEntity
  8
1
  6
CONTINUOUS
370
    50
100
AcDbLine
 10
83.7733355907
 20
218.5235136191
 30
0.0
 11
85.0814970982
 21
215.613482852
 31
0.0
  0
LINE
  5
63
330
A
100
AcDbEntity
  8
1
  6
CONTINUOUS
370
    50
100
AcDbLine
 10
85.0814970982
 20
215.0121142373
 30
0.0
 11
85.0814970982
 21
215.613482852
 31
0.0
  0
ARC
  5
64
330
A
100
AcDbEntity
  8
1
  6
CONTINUOUS
370
    50
100
AcDbCircle
 10
85.6782426435
 20
214.9449830188
 30
0.0
 40
0.6005096556
100
AcDbArc
 50
173.5814650332
 51
260.7289175417
  0
LINE
  5
65
330
A
100
AcDbEntity
  8
1
  6
CONTINUOUS
370
    50
100
AcDbLine
 10
88.4314970982
 20
214.3523177289
 30
0.0
 11
85.5814970982
 21
214.3523177289
 31
0.0
  0
ARC
  5
66
330
A
100
AcDbEntity
  8
1
  6
CONTINUOUS
370
    50
100
AcDbCircle
 10
88.3664231756
 20
214.9209819652
 30
0.0
 40
0.5723754267
100
AcDbArc
 50
276.5281284855
 51
9.161488939600002
  0
LINE
  5
67
330
A
100
AcDbEntity
  8
1
  6
CONTINUOUS
370
    50
100
AcDbLine
 10
88.9314970982
 20
215.613482852
 30
0.0
 11
88.9314970982
 21
215.0121142373
 31
0.0
  0
LWPOLYLINE
  5
68
330
A
100
AcDbEntity
  8
1
  6
CONTINUOUS
370
    50
100
AcDbPolyline
 90
        3
 70
   128
 43
0.0
 10
88.9314970982
 20
215.613482852
 10
89.0197966485
 20
215.812838265
 10
90.2396586056
 20
218.5235136191
  0
LINE
  5
6D
330
A
100
AcDbEntity
  8
1
  6
CONTINUOUS
370
    50
100
AcDbLine
 10
90.2396586056
 20
218.5235136191
 30
0.0
 11
94.4564970982
 21
218.5235136191
 31
0.0
  0
LINE
  5
6E
330
A
100
AcDbEntity
  8
1
  6
CONTINUOUS
370
    50
100
AcDbLine
 10
94.9564970982
 20
217.8889207868
 30
0.0
 11
94.4564970982
 21
218.5235136191
 31
0.0
  0
LINE
  5
6F
330
A
100
AcDbEntity
  8
1
  6
CONTINUOUS
370
    50
100
AcDbLine
 10
77.9064970982
 20
218.5235136191
 30
0.0
 11
77.4064970982
 21
217.8889207868
 31
0.0
  0
LINE
  5
70
330
A
100
AcDbEntity
  8
1
  6
CONTINUOUS
370
    50
100
AcDbLine
 10
77.9064970982
 20
218.5235136191
 30
0.0
 11
83.7733355907
 21
218.5235136191
 31
0.0
  0
LINE
  5
71
330
A
100
AcDbEntity
  8
1
  6
CONTINUOUS
370
    50
100
AcDbLine
 10
77.4064970982
 20
217.8889207868
 30
0.0
 11
77.4064970982
 21
209.8624356674
 31
0.0
  0
LINE
  5
72
330
A
100
AcDbEntity
  8
1
  6
CONTINUOUS
370
    50
100
AcDbLine
 10
94.9564970982
 20
217.8889207868
 30
0.0
 11
94.9564970982
 21
209.8624356674
 31
0.0
  0
LINE
  5
73
330
A
100
AcDbEntity
  8
1
  6
CONTINUOUS
370
    50
100
AcDbLine
 10
88.4314970982
 20
223.6602019333
 30
0.0
 11
88.4314970982
 21
214.3523177289
 31
0.0
  0
ARC
  5
74
330
A
100
AcDbEntity
  8
1
  6
CONTINUOUS
370
    50
100
AcDbCircle
 10
88.4239378865
 20
224.1678789817
 30
0.0
 40
0.5077333229
100
AcDbArc
 50
270.8530598843001
 51
1.5005330242
  0
LINE
  5
75
330
A
100
AcDbEntity
  8
1
  6
CONTINUOUS
370
    50
100
AcDbLine
 10
85.5814970982
 20
223.6602019333
 30
0.0
 11
85.5814970982
 21
214.3523177289
 31
0.0
  0
LINE
  5
76
330
A
100
AcDbEntity
  8
1
  6
CONTINUOUS
370
    50
100
AcDbLine
 10
88.4314970982
 20
223.6602019333
 30
0.0
 11
85.5814970982
 21
223.6602019333
 31
0.0
  0
ARC
  5
77
330
A
100
AcDbEntity
  8
1
  6
CONTINUOUS
370
    50
100
AcDbCircle
 10
85.5907342715
 20
224.169489394
 30
0.0
 40
0.5093712232
100
AcDbArc
 50
178.6854922077
 51
268.9609148839
  0
LINE
  5
78
330
A
100
AcDbEntity
  8
1
  6
CONTINUOUS
370
    50
100
AcDbLine
 10
88.9314970982
 20
224.6592111461
 30
0.0
 11
88.9314970982
 21
215.613482852
 31
0.0
  0
LINE
  5
79
330
A
100
AcDbEntity
  8
1
  6
CONTINUOUS
370
    50
100
AcDbLine
 10
88.9314970982
 20
224.6592111461
 30
0.0
 11
89.6327391916
 21
225.9217729674
 31
0.0
  0
LINE
  5
7A
330
A
100
AcDbEntity
  8
1
  6
CONTINUOUS
370
    50
100
AcDbLine
 10
90.2396586056
 20
226.7717729696
 30
0.0
 11
89.6327391916
 21
225.9217729674
 31
0.0
  0
LINE
  5
7B
330
A
100
AcDbEntity
  8
1
  6
CONTINUOUS
370
    50
100
AcDbLine
 10
90.2396586056
 20
226.7717729696
 30
0.0
 11
90.2396586056
 21
218.5235136191
 31
0.0
  0
LINE
  5
7C
330
A
100
AcDbEntity
  8
1
  6
CONTINUOUS
370
    50
100
AcDbLine
 10
83.7733355907
 20
218.5235136191
 30
0.0
 11
83.7733355907
 21
226.7717729696
 31
0.0
  0
LINE
  5
7D
330
A
100
AcDbEntity
  8
1
  6
CONTINUOUS
370
    50
100
AcDbLine
 10
84.3802550047
 20
225.9217729674
 30
0.0
 11
83.7733355907
 21
226.7717729696
 31
0.0
  0
LINE
  5
7E
330
A
100
AcDbEntity
  8
1
  6
CONTINUOUS
370
    50
100
AcDbLine
 10
84.3802550047
 20
225.9217729674
 30
0.0
 11
85.0814970982
 21
224.6592111461
 31
0.0
  0
LINE
  5
7F
330
A
100
AcDbEntity
  8
1
  6
CONTINUOUS
370
    50
100
AcDbLine
 10
85.0814970982
 20
215.613482852
 30
0.0
 11
85.0814970982
 21
224.6592111461
 31
0.0
  0
LINE
  5
80
330
A
100
AcDbEntity
  8
1
  6
CONTINUOUS
370
    50
100
AcDbLine
 10
94.4564970982
 20
218.5235136191
 30
0.0
 11
94.4564970982
 21
226.7717729696
 31
0.0
  0
LINE
  5
81
330
A
100
AcDbEntity
  8
1
  6
CONTINUOUS
370
    50
100
AcDbLine
 10
94.4564970982
 20
226.7717729696
 30
0.0
 11
94.9564970982
 21
226.3681896593
 31
0.0
  0
LINE
  5
82
330
A
100
AcDbEntity
  8
1
  6
CONTINUOUS
370
    50
100
AcDbLine
 10
94.9564970982
 20
226.3681896593
 30
0.0
 11
94.9564970982
 21
217.8889207868
 31
0.0
  0
LINE
  5
83
330
A
100
AcDbEntity
  8
1
  6
CONTINUOUS
370
    50
100
AcDbLine
 10
77.4064970982
 20
225.8288969559
 30
0.0
 11
77.9064970982
 21
226.5142971893
 31
0.0
  0
LINE
  5
84
330
A
100
AcDbEntity
  8
1
  6
CONTINUOUS
370
    50
100
AcDbLine
 10
77.9064970982
 20
226.5142971893
 30
0.0
 11
77.9064970982
 21
218.5235136191
 31
0.0
  0
LINE
  5
85
330
A
100
AcDbEntity
  8
1
  6
CONTINUOUS
370
    50
100
AcDbLine
 10
77.4064970982
 20
217.8889207868
 30
0.0
 11
77.4064970982
 21
225.8288969559
 31
0.0
  0
LINE
  5
86
330
A
100
AcDbEntity
  8
1
  6
CONTINUOUS
370
    50
100
AcDbLine
 10
94.4564970982
 20
226.7717729696
 30
0.0
 11
90.2396586056
 21
226.7717729696
 31
0.0
  0
LINE
  5
87
330
A
100
AcDbEntity
  8
1
  6
CONTINUOUS
370
    50
100
AcDbLine
 10
83.7733355907
 20
226.7717729696
 30
0.0
 11
78.756497096
 21
226.7717729696
 31
0.0
  0
LINE
  5
88
330
A
100
AcDbEntity
  8
1
  6
CONTINUOUS
370
    50
100
AcDbLine
 10
77.9064970982
 20
226.5142971893
 30
0.0
 11
78.756497096
 21
226.7717729696
 31
0.0
  0
LINE
  5
89
330
A
100
AcDbEntity
  8
1
  6
CONTINUOUS
370
    50
100
AcDbLine
 10
100.6618338972
 20
161.0124356674
 30
0.0
 11
100.6618338972
 21
199.0124356674
 31
0.0
  0
LINE
  5
8A
330
A
100
AcDbEntity
  8
1
  6
CONTINUOUS
370
    50
100
AcDbLine
 10
-25.6935029018
 20
161.8497772592
 30
0.0
 11
-25.6935029018
 21
198.1750940938
 31
0.0
  0
LINE
  5
8B
330
A
100
AcDbEntity
  8
1
  6
CONTINUOUS
370
    50
100
AcDbLine
 10
119.1328326863
 20
161.0124356674
 30
0.0
 11
119.1328326863
 21
199.0124356674
 31
0.0
  0
LINE
  5
8C
330
A
100
AcDbEntity
  8
1
  6
CONTINUOUS
370
    50
100
AcDbLine
 10
197.7864970982
 20
166.5124356674
 30
0.0
 11
197.7864970982
 21
193.5124356674
 31
0.0
  0
LINE
  5
8D
330
A
100
AcDbEntity
  8
1
  6
CONTINUOUS
370
    50
100
AcDbLine
 10
234.8733689942
 20
190.5937446125
 30
0.0
 11
234.8733689942
 21
169.4311267222
 31
0.0
  0
LINE
  5
8E
330
A
100
AcDbEntity
  8
1
  6
CONTINUOUS
370
    50
100
AcDbLine
 10
197.7878828897
 20
166.5124356674
 30
0.0
 11
197.7878828897
 21
193.5124356674
 31
0.0
  0
LINE
  5
8F
330
A
100
AcDbEntity
  8
1
  6
CONTINUOUS
370
    50
100
AcDbLine
 10
235.9064970982
 20
171.1818862471
 30
0.0
 11
235.9064970982
 21
188.8429851383
 31
0.0
  0
LINE
  5
90
330
A
100
AcDbEntity
  8
1
  6
CONTINUOUS
370
    50
100
AcDbLine
 10
77.2064970982
 20
145.3874356674
 30
0.0
 11
77.2064970982
 21
214.6374356674
 31
0.0
  0
LINE
  5
91
330
A
100
AcDbEntity
  8
1
  6
CONTINUOUS
370
    50
100
AcDbLine
 10
76.4493873748
 20
145.3405895609
 30
0.0
 11
76.4493873748
 21
214.6842817739
 31
0.0
  0
LINE
  5
92
330
A
100
AcDbEntity
  8
1
  6
CONTINUOUS
370
    50
100
AcDbLine
 10
76.6606965057
 20
145.3874356674
 30
0.0
 11
76.6606965057
 21
214.6374356674
 31
0.0
  0
LINE
  5
93
330
A
100
AcDbEntity
  8
1
  6
CONTINUOUS
370
    50
100
AcDbLine
 10
-23.9113042062
 20
159.6489451394
 30
0.0
 11
-23.9113042062
 21
200.3759261954
 31
0.0
  0
LWPOLYLINE
  5
94
330
A
100
AcDbEntity
  8
1
  6
CONTINUOUS
370
    50
100
AcDbPolyline
 90
       23
 70
   128
 43
0.0
 10
94.1290497077
 20
166.3470656488
 10
93.9373832581
 20
165.6324820788
 10
93.6308244296
 20
164.9757898198
 10
93.2342087955
 20
164.4301901733
 10
92.7796677956
 20
164.0398843776
 10
92.3040256385
 20
163.8364926872
 10
91.845816023
 20
163.8364926872
 10
91.4421603671
 20
164.0398843776
 10
91.1257604514
 20
164.4301901733
 10
90.9222491153
 20
164.9757898198
 10
90.848113637
 20
165.6324820788
 10
90.909360032
 20
166.3470656488
 10
91.1010264817
 20
167.0616492188
 10
91.4075853101
 20
167.7183414778
 10
91.8042009443
 20
168.2639411244
 10
92.2587419441
 20
168.65424692
 10
92.7343841012
 20
168.8576386104
 10
93.1925937167
 20
168.8576386104
 10
93.5962493726
 20
168.65424692
 10
93.9126492884
 20
168.2639411244
 10
94.1161606244
 20
167.7183414778
 10
94.1902961027
 20
167.0616492188
 10
94.1290497077
 20
166.3470656488
  0
LWPOLYLINE
  5
AD
330
A
100
AcDbEntity
  8
1
  6
CONTINUOUS
370
    50
100
AcDbPolyline
 90
       26
 70
   128
 43
0.0
 10
86.0205844412
 20
167.7821167271
 10
86.0259240822
 20
167.2676145572
 10
86.0203374699
 20
166.8140090977
 10
86.0028204829
 20
166.4656233996
 10
85.9631039642
 20
166.2140790365
 10
85.8571573974
 20
166.0975138897
 10
85.7358060552
 20
166.1112138362
 10
85.5677793044
 20
166.1572783039
 10
85.3265549158
 20
166.2265528277
 10
84.9174185622
 20
166.351779563
 10
84.0770770927
 20
166.7193705525
 10
83.4785216776
 20
167.1851987915
 10
83.1851855419
 20
167.6137139496
 10
83.0739169011
 20
168.0276564753
 10
83.118726965
 20
168.4512709076
 10
83.2976632709
 20
168.8223170975
 10
83.7330461258
 20
169.2665286386
 10
84.5434176635
 20
169.6717329205
 10
85.0722864536
 20
169.7792261557
 10
85.3883026229
 20
169.7727733434
 10
85.6016365611
 20
169.7051096063
 10
85.7490254161
 20
169.5812500695
 10
85.8921952236
 20
169.2633849777
 10
85.9832453473
 20
168.6277673997
 10
86.0139951002
 20
168.0321161201
 10
86.0205844412
 20
167.7821167271
  0
LWPOLYLINE
  5
C9
330
A
100
AcDbEntity
  8
1
  6
CONTINUOUS
370
    50
100
AcDbPolyline
 90
       21
 70
   128
 43
0.0
 10
93.4364419404
 20
166.456988804
 10
93.260773281
 20
165.8239296389
 10
92.9750218549
 20
165.2528387156
 10
92.6071590028
 20
164.7996183928
 10
92.1931937036
 20
164.5086330335
 10
91.7736477651
 20
164.4083663119
 10
91.3895892669
 20
164.5086330335
 10
91.0786125307
 20
164.7996183928
 10
90.8711581261
 20
165.2528387156
 10
90.7875331357
 20
165.8239296389
 10
90.8359233562
 20
166.456988804
 10
91.0115920156
 20
167.0900479691
 10
91.2973434417
 20
167.6611388924
 10
91.6652062938
 20
168.1143592152
 10
92.079171593
 20
168.4053445746
 10
92.4987175315
 20
168.5056112961
 10
92.8827760297
 20
168.4053445746
 10
93.1937527659
 20
168.1143592152
 10
93.4012071705
 20
167.6611388924
 10
93.4848321609
 20
167.0900479691
 10
93.4364419404
 20
166.456988804
  0
LWPOLYLINE
  5
E0
330
A
100
AcDbEntity
  8
1
  6
CONTINUOUS
370
    50
100
AcDbPolyline
 90
       21
 70
   128
 43
0.0
 10
84.2515690674
 20
169.0929460656
 10
84.075900408
 20
168.4598869005
 10
83.7901489819
 20
167.8887959773
 10
83.4222861298
 20
167.4355756545
 10
83.0083208306
 20
167.1445902951
 10
82.5887748921
 20
167.0443235735
 10
82.2047163939
 20
167.1445902951
 10
81.8937396577
 20
167.4355756545
 10
81.6862852531
 20
167.8887959773
 10
81.6026602627
 20
168.4598869005
 10
81.6510504832
 20
169.0929460656
 10
81.8267191426
 20
169.7260052307
 10
82.1124705687
 20
170.297096154
 10
82.4803334208
 20
170.7503164768
 10
82.89429872
 20
171.0413018362
 10
83.3138446585
 20
171.1415685577
 10
83.6979031567
 20
171.0413018362
 10
84.0088798929
 20
170.7503164768
 10
84.2163342975
 20
170.297096154
 10
84.2999592879
 20
169.7260052307
 10
84.2515690674
 20
169.0929460656
  0
LINE
  5
F7
330
A
100
AcDbEntity
  8
1
  6
CONTINUOUS
370
    50
100
AcDbLine
 10
77.6596509917
 20
144.7124356674
 30
0.0
 11
77.6596509917
 21
216.2550946987
 31
0.0
  0
LINE
  5
F8
330
A
100
AcDbEntity
  8
1
  6
CONTINUOUS
370
    50
100
AcDbLine
 10
77.7064970982
 20
144.7124356674
 30
0.0
 11
77.7064970982
 21
216.0437855679
 31
0.0
  0
LWPOLYLINE
  5
F9
330
A
100
AcDbEntity
  8
1
  6
CONTINUOUS
370
    50
100
AcDbPolyline
 90
       23
 70
   128
 43
0.0
 10
84.4915770596
 20
169.0951445287
 10
84.3072823964
 20
168.4080449422
 10
84.0125142922
 20
167.7766100778
 10
83.6311531055
 20
167.251995033
 10
83.1940944518
 20
166.8767009987
 10
82.7367462238
 20
166.6811320656
 10
82.2961600551
 20
166.6811320656
 10
81.9080296167
 20
166.8767009987
 10
81.6037989285
 20
167.251995033
 10
81.4081149515
 20
167.7766100778
 10
81.3368308377
 20
168.4080449422
 10
81.3957216022
 20
169.0951445287
 10
81.5800162653
 20
169.7822441153
 10
81.8747843696
 20
170.4136789797
 10
82.2561455563
 20
170.9382940245
 10
82.69320421
 20
171.3135880588
 10
83.150552438
 20
171.5091569918
 10
83.5911386067
 20
171.5091569918
 10
83.9792690451
 20
171.3135880588
 10
84.2834997333
 20
170.9382940245
 10
84.4791837103
 20
170.4136789797
 10
84.550467824
 20
169.7822441153
 10
84.4915770596
 20
169.0951445287
  0
LWPOLYLINE
  5
112
330
A
100
AcDbEntity
  8
1
  6
CONTINUOUS
370
    50
100
AcDbPolyline
 90
       23
 70
   128
 43
0.0
 10
84.499237504
 20
169.0929460656
 10
84.3149428409
 20
168.4058464791
 10
84.0201747366
 20
167.7744116147
 10
83.6388135499
 20
167.2497965699
 10
83.2017548962
 20
166.8745025356
 10
82.7444066682
 20
166.6789336025
 10
82.3038204995
 20
166.6789336025
 10
81.9156900611
 20
166.8745025356
 10
81.6114593729
 20
167.2497965699
 10
81.4157753959
 20
167.7744116147
 10
81.3444912822
 20
168.4058464791
 10
81.4033820466
 20
169.0929460656
 10
81.5876767098
 20
169.7800456522
 10
81.882444814
 20
170.4114805166
 10
82.2638060007
 20
170.9360955614
 10
82.7008646544
 20
171.3113895956
 10
83.1582128824
 20
171.5069585287
 10
83.5987990511
 20
171.5069585287
 10
83.9869294895
 20
171.3113895956
 10
84.2911601777
 20
170.9360955614
 10
84.4868441547
 20
170.4114805166
 10
84.5581282685
 20
169.7800456522
 10
84.499237504
 20
169.0929460656
  0
LWPOLYLINE
  5
12B
330
A
100
AcDbEntity
  8
1
  6
CONTINUOUS
370
    50
100
AcDbPolyline
 90
       21
 70
   128
 43
0.0
 10
84.243908623
 20
169.0951445287
 10
84.0682399636
 20
168.4620853636
 10
83.7824885375
 20
167.8909944404
 10
83.4146256854
 20
167.4377741176
 10
83.0006603862
 20
167.1467887582
 10
82.5811144477
 20
167.0465220366
 10
82.1970559495
 20
167.1467887582
 10
81.8860792133
 20
167.4377741176
 10
81.6786248087
 20
167.8909944404
 10
81.5949998183
 20
168.4620853636
 10
81.6433900388
 20
169.0951445287
 10
81.8190586982
 20
169.7282036938
 10
82.1048101243
 20
170.2992946171
 10
82.4726729764
 20
170.7525149399
 10
82.8866382756
 20
171.0435002993
 10
83.3061842141
 20
171.1437670208
 10
83.6902427123
 20
171.0435002993
 10
84.0012194485
 20
170.7525149399
 10
84.2086738531
 20
170.2992946171
 10
84.2922988435
 20
169.7282036938
 10
84.243908623
 20
169.0951445287
  0
LWPOLYLINE
  5
142
330
A
100
AcDbEntity
  8
1
  6
CONTINUOUS
370
    50
100
AcDbPolyline
 90
       21
 70
   128
 43
0.0
 10
60.5451807945
 20
175.8964181636
 10
60.0986902983
 20
175.3813455836
 10
59.2169815429
 20
174.8894775262
 10
57.6321192042
 20
174.5389156037
 10
55.9606998265
 20
174.6574188298
 10
55.1006492671
 20
174.9892347995
 10
54.5430698631
 20
175.4309678122
 10
54.2471032773
 20
175.906758562
 10
54.149807059
 20
176.4612450709
 10
54.2543697587
 20
176.9645324065
 10
54.5189655292
 20
177.4193085167
 10
55.0676797854
 20
177.9123697178
 10
56.0007731721
 20
178.3201111977
 10
57.4567898594
 20
178.4586919097
 10
58.9379582882
 20
178.1571239593
 10
59.860696668
 20
177.6881651541
 10
60.3683144973
 20
177.2247065483
 10
60.6081612534
 20
176.8164019066
 10
60.6831367825
 20
176.4383736578
 10
60.619916455
 20
176.0630409852
 10
60.5451807945
 20
175.8964181636
  0
LINE
  5
159
330
A
100
AcDbEntity
  8
1
  6
CONTINUOUS
370
    50
100
AcDbLine
 10
77.4064970982
 20
143.9624356674
 30
0.0
 11
79.6064970982
 21
143.9624356674
 31
0.0
  0
LINE
  5
15A
330
A
100
AcDbEntity
  8
1
  6
CONTINUOUS
370
    50
100
AcDbLine
 10
79.6064970982
 20
218.2624356674
 30
0.0
 11
77.4064970982
 21
218.2624356674
 31
0.0
  0
LINE
  5
15B
330
A
100
AcDbEntity
  8
1
  6
CONTINUOUS
370
    50
100
AcDbLine
 10
-24.9330314091
 20
167.0820117502
 30
0.0
 11
-24.9330314091
 21
192.9428595846
 31
0.0
  0
LINE
  5
15C
330
A
100
AcDbEntity
  8
1
  6
CONTINUOUS
370
    50
100
AcDbLine
 10
79.2958369264
 20
144.7124356674
 30
0.0
 11
77.4064970982
 21
144.7124356674
 31
0.0
  0
LINE
  5
15D
330
A
100
AcDbEntity
  8
1
  6
CONTINUOUS
370
    50
100
AcDbLine
 10
77.4064970982
 20
217.5124356674
 30
0.0
 11
79.2958369264
 21
217.5124356674
 31
0.0
  0
LINE
  5
15E
330
A
100
AcDbEntity
  8
1
  6
CONTINUOUS
370
    50
100
AcDbLine
 10
78.756497096
 20
133.2530983652
 30
0.0
 11
79.6064970982
 21
134.1030983674
 31
0.0
  0
LINE
  5
15F
330
A
100
AcDbEntity
  8
1
  6
CONTINUOUS
370
    50
100
AcDbLine
 10
78.756497096
 20
226.7717729696
 30
0.0
 11
79.6064970982
 21
225.9217729674
 31
0.0
  0
LINE
  5
160
330
A
100
AcDbEntity
  8
1
  6
CONTINUOUS
370
    50
100
AcDbLine
 10
-24.4330314091
 20
167.3706868848
 30
0.0
 11
-24.4330314091
 21
192.65418445
 31
0.0
  0
LINE
  5
161
330
A
100
AcDbEntity
  8
1
  6
CONTINUOUS
370
    50
100
AcDbLine
 10
79.6064970982
 20
134.1030983674
 30
0.0
 11
84.3802550047
 21
134.1030983674
 31
0.0
  0
LINE
  5
162
330
A
100
AcDbEntity
  8
1
  6
CONTINUOUS
370
    50
100
AcDbLine
 10
89.6327391916
 20
134.1030983674
 30
0.0
 11
94.9564970982
 21
134.1030983674
 31
0.0
  0
LINE
  5
163
330
A
100
AcDbEntity
  8
1
  6
CONTINUOUS
370
    50
100
AcDbLine
 10
79.6064970982
 20
134.1030983674
 30
0.0
 11
79.6064970982
 21
143.9624356674
 31
0.0
  0
LINE
  5
164
330
A
100
AcDbEntity
  8
1
  6
CONTINUOUS
370
    50
100
AcDbLine
 10
79.6064970982
 20
143.9624356674
 30
0.0
 11
94.9564970982
 21
143.9624356674
 31
0.0
  0
LINE
  5
165
330
A
100
AcDbEntity
  8
1
  6
CONTINUOUS
370
    50
100
AcDbLine
 10
94.9564970982
 20
144.7124356674
 30
0.0
 11
79.2958369264
 21
144.7124356674
 31
0.0
  0
LINE
  5
166
330
A
100
AcDbEntity
  8
1
  6
CONTINUOUS
370
    50
100
AcDbLine
 10
79.6064970982
 20
143.9624356674
 30
0.0
 11
79.2958369264
 21
144.7124356674
 31
0.0
  0
LINE
  5
167
330
A
100
AcDbEntity
  8
1
  6
CONTINUOUS
370
    50
100
AcDbLine
 10
79.6064970982
 20
225.9217729674
 30
0.0
 11
84.3802550047
 21
225.9217729674
 31
0.0
  0
LINE
  5
168
330
A
100
AcDbEntity
  8
1
  6
CONTINUOUS
370
    50
100
AcDbLine
 10
89.6327391916
 20
225.9217729674
 30
0.0
 11
94.9564970982
 21
225.9217729674
 31
0.0
  0
LINE
  5
169
330
A
100
AcDbEntity
  8
1
  6
CONTINUOUS
370
    50
100
AcDbLine
 10
79.6064970982
 20
225.9217729674
 30
0.0
 11
79.6064970982
 21
218.2624356674
 31
0.0
  0
LINE
  5
16A
330
A
100
AcDbEntity
  8
1
  6
CONTINUOUS
370
    50
100
AcDbLine
 10
94.9564970982
 20
218.2624356674
 30
0.0
 11
79.6064970982
 21
218.2624356674
 31
0.0
  0
LINE
  5
16B
330
A
100
AcDbEntity
  8
1
  6
CONTINUOUS
370
    50
100
AcDbLine
 10
79.2958369264
 20
217.5124356674
 30
0.0
 11
94.9564970982
 21
217.5124356674
 31
0.0
  0
LINE
  5
16C
330
A
100
AcDbEntity
  8
1
  6
CONTINUOUS
370
    50
100
AcDbLine
 10
79.6064970982
 20
218.2624356674
 30
0.0
 11
79.2958369264
 21
217.5124356674
 31
0.0
  0
LINE
  5
16D
330
A
100
AcDbEntity
  8
1
  6
CONTINUOUS
370
    50
100
AcDbLine
 10
-16.9635990913
 20
192.5124356674
 30
0.0
 11
-16.9635990913
 21
167.5124356674
 31
0.0
  0
LINE
  5
16E
330
A
100
AcDbEntity
  8
1
  6
CONTINUOUS
370
    50
100
AcDbLine
 10
-16.7037914701
 20
192.6624356674
 30
0.0
 11
-16.7037914701
 21
167.3624356674
 31
0.0
  0
LINE
  5
16F
330
A
100
AcDbEntity
  8
1
  6
CONTINUOUS
370
    50
100
AcDbLine
 10
-13.9935029018
 20
192.6624356674
 30
0.0
 11
-13.9935029018
 21
167.3624356674
 31
0.0
  0
LINE
  5
170
330
A
100
AcDbEntity
  8
1
  6
CONTINUOUS
370
    50
100
AcDbLine
 10
-12.7882842149
 20
190.5749356674
 30
0.0
 11
-12.7882842149
 21
169.4499356674
 31
0.0
  0
LINE
  5
171
330
A
100
AcDbEntity
  8
1
  6
CONTINUOUS
370
    50
100
AcDbLine
 10
-23.6935029018
 20
192.5124356674
 30
0.0
 11
-23.6935029018
 21
167.538118258
 31
0.0
  0
LINE
  5
172
330
A
100
AcDbEntity
  8
1
  6
CONTINUOUS
370
    50
100
AcDbLine
 10
23.3164970982
 20
192.0124356674
 30
0.0
 11
23.3164970982
 21
168.0124356674
 31
0.0
  0
LINE
  5
173
330
A
100
AcDbEntity
  8
1
  6
CONTINUOUS
370
    50
100
AcDbLine
 10
23.3064970982
 20
192.0124356674
 30
0.0
 11
23.3064970982
 21
168.0124356674
 31
0.0
  0
LINE
  5
174
330
A
100
AcDbEntity
  8
1
  6
CONTINUOUS
370
    50
100
AcDbLine
 10
38.3064970982
 20
190.5749356674
 30
0.0
 11
38.3064970982
 21
169.4499356674
 31
0.0
  0
LINE
  5
175
330
A
100
AcDbEntity
  8
1
  6
CONTINUOUS
370
    50
100
AcDbLine
 10
38.3292452378
 20
190.5124356674
 30
0.0
 11
38.3292452378
 21
169.5124356674
 31
0.0
  0
LWPOLYLINE
  5
176
330
A
100
AcDbEntity
  8
1
  6
CONTINUOUS
370
    50
100
AcDbPolyline
 90
       38
 70
   128
 43
0.0
 10
60.5451807945
 20
184.1284531712
 10
60.35309447
 20
184.4015710396
 10
60.0986902983
 20
184.6435257512
 10
59.6850376402
 20
184.9179041588
 10
59.2169815429
 20
185.1353938085
 10
58.4520941034
 20
185.3647146292
 10
57.6321192042
 20
185.4859557311
 10
56.8035414979
 20
185.4931273996
 10
55.9606998265
 20
185.367452505
 10
55.5210521622
 20
185.2317505394
 10
55.1006492671
 20
185.0356365353
 10
54.805343962
 20
184.8388658613
 10
54.5430698631
 20
184.5939035226
 10
54.3756088035
 20
184.37159434
 10
54.2471032773
 20
184.1181127728
 10
54.1713880545
 20
183.8516250612
 10
54.149807059
 20
183.5636262639
 10
54.1792130494
 20
183.3125347306
 10
54.2543697587
 20
183.0603389282
 10
54.3676305762
 20
182.826839428
 10
54.5189655292
 20
182.605562818
 10
54.7686831087
 20
182.3413386083
 10
55.0676797854
 20
182.1125016169
 10
55.5110546631
 20
181.8749116582
 10
56.0007731721
 20
181.704760137
 10
56.7130045795
 20
181.578424592
 10
57.4567898594
 20
181.5661794251
 10
58.2006104072
 20
181.6619622334
 10
58.9379582882
 20
181.8677473755
 10
59.4113647129
 20
182.0707400763
 10
59.860696668
 20
182.3367061807
 10
60.1291945658
 20
182.5491692841
 10
60.3683144973
 20
182.8001647865
 10
60.5034270502
 20
182.9936026669
 10
60.6081612534
 20
183.2084694282
 10
60.6831367825
 20
183.5864976769
 10
60.619916455
 20
183.9618303495
 10
60.5451807945
 20
184.1284531712
  0
LINE
  5
19E
330
A
100
AcDbEntity
  8
1
  6
CONTINUOUS
370
    50
100
AcDbLine
 10
84.3064970982
 20
190.5124356674
 30
0.0
 11
84.3064970982
 21
169.5124356674
 31
0.0
  0
LINE
  5
19F
330
A
100
AcDbEntity
  8
1
  6
CONTINUOUS
370
    50
100
AcDbLine
 10
87.4819235787
 20
175.0124356674
 30
0.0
 11
87.4819235787
 21
185.0124356674
 31
0.0
  0
LINE
  5
1A0
330
A
100
AcDbEntity
  8
1
  6
CONTINUOUS
370
    50
100
AcDbLine
 10
234.7711544716
 20
176.0124356674
 30
0.0
 11
234.7711544716
 21
184.0124356674
 31
0.0
  0
LINE
  5
1A1
330
A
100
AcDbEntity
  8
1
  6
CONTINUOUS
370
    50
100
AcDbLine
 10
82.0064970982
 20
217.3124356674
 30
0.0
 11
92.0064970982
 21
217.3124356674
 31
0.0
  0
LINE
  5
1A2
330
A
100
AcDbEntity
  8
1
  6
CONTINUOUS
370
    50
100
AcDbLine
 10
186.3064970982
 20
175.0124356674
 30
0.0
 11
186.3064970982
 21
185.0124356674
 31
0.0
  0
LINE
  5
1A3
330
A
100
AcDbEntity
  8
1
  6
CONTINUOUS
370
    50
100
AcDbLine
 10
187.7498727712
 20
177.5124356674
 30
0.0
 11
187.7498727712
 21
182.5124356674
 31
0.0
  0
LINE
  5
1A4
330
A
100
AcDbEntity
  8
1
  6
CONTINUOUS
370
    50
100
AcDbLine
 10
82.3064976643
 20
212.8124356674
 30
0.0
 11
91.7064970982
 21
212.8124356674
 31
0.0
  0
LINE
  5
1A5
330
A
100
AcDbEntity
  8
1
  6
CONTINUOUS
370
    50
100
AcDbLine
 10
92.0064970982
 20
213.1124356674
 30
0.0
 11
82.0321504812
 21
213.1124356674
 31
0.0
  0
LINE
  5
1A6
330
A
100
AcDbEntity
  8
1
  6
CONTINUOUS
370
    50
100
AcDbLine
 10
200.4064970982
 20
184.2124356674
 30
0.0
 11
200.4064970982
 21
175.8124356674
 31
0.0
  0
LINE
  5
1A7
330
A
100
AcDbEntity
  8
1
  6
CONTINUOUS
370
    50
100
AcDbLine
 10
199.9064970982
 20
176.3124361131
 30
0.0
 11
199.9064970982
 21
183.7124356674
 31
0.0
  0
LINE
  5
1A8
330
A
100
AcDbEntity
  8
1
  6
CONTINUOUS
370
    50
100
AcDbLine
 10
209.906497102
 20
184.0124356674
 30
0.0
 11
209.906497102
 21
176.0124356674
 31
0.0
  0
LINE
  5
1A9
330
A
100
AcDbEntity
  8
1
  6
CONTINUOUS
370
    50
100
AcDbLine
 10
209.7910270482
 20
175.8124356674
 30
0.0
 11
209.7910270482
 21
184.2124356674
 31
0.0
  0
LINE
  5
1AA
330
A
100
AcDbEntity
  8
1
  6
CONTINUOUS
370
    50
100
AcDbLine
 10
85.9064970982
 20
212.4124356674
 30
0.0
 11
88.1064970982
 21
212.4124356674
 31
0.0
  0
LINE
  5
1AB
330
A
100
AcDbEntity
  8
1
  6
CONTINUOUS
370
    50
100
AcDbLine
 10
85.7564970982
 20
209.0024356674
 30
0.0
 11
88.2564970982
 21
209.0024356674
 31
0.0
  0
LINE
  5
1AC
330
A
100
AcDbEntity
  8
1
  6
CONTINUOUS
370
    50
100
AcDbLine
 10
85.7564970982
 20
209.0124356674
 30
0.0
 11
88.2564970982
 21
209.0124356674
 31
0.0
  0
LINE
  5
1AD
330
A
100
AcDbEntity
  8
1
  6
CONTINUOUS
370
    50
100
AcDbLine
 10
85.9064970982
 20
206.4124356674
 30
0.0
 11
88.1064970982
 21
206.4124356674
 31
0.0
  0
LWPOLYLINE
  5
1AE
330
A
100
AcDbEntity
  8
1
  6
CONTINUOUS
370
    50
100
AcDbPolyline
 90
       21
 70
   128
 43
0.0
 10
84.243908623
 20
190.9297268061
 10
84.0682399636
 20
191.5627859712
 10
83.7824885375
 20
192.1338768944
 10
83.4146256854
 20
192.5870972172
 10
83.0006603862
 20
192.8780825766
 10
82.5811144477
 20
192.9783492982
 10
82.1970559495
 20
192.8780825766
 10
81.8860792133
 20
192.5870972172
 10
81.6786248087
 20
192.1338768944
 10
81.5949998183
 20
191.5627859712
 10
81.6433900388
 20
190.9297268061
 10
81.8190586982
 20
190.2966676409
 10
82.1048101243
 20
189.7255767177
 10
82.4726729764
 20
189.2723563949
 10
82.8866382756
 20
188.9813710355
 10
83.3061842141
 20
188.8811043139
 10
83.6902427123
 20
188.9813710355
 10
84.0012194485
 20
189.2723563949
 10
84.2086738531
 20
189.7255767177
 10
84.2922988435
 20
190.2966676409
 10
84.243908623
 20
190.9297268061
  0
LINE
  5
1C5
330
A
100
AcDbEntity
  8
1
  6
CONTINUOUS
370
    50
100
AcDbLine
 10
88.4314970982
 20
136.3646694015
 30
0.0
 11
88.4314970982
 21
223.6602019333
 31
0.0
  0
LINE
  5
1C6
330
A
100
AcDbEntity
  8
1
  6
CONTINUOUS
370
    50
100
AcDbLine
 10
88.9314970982
 20
209.8624356674
 30
0.0
 11
88.9314970982
 21
215.0121142373
 31
0.0
  0
LINE
  5
1C7
330
A
100
AcDbEntity
  8
1
  6
CONTINUOUS
370
    50
100
AcDbLine
 10
85.5814970982
 20
136.3646694015
 30
0.0
 11
85.5814970982
 21
223.6602019333
 31
0.0
  0
LINE
  5
1C8
330
A
100
AcDbEntity
  8
1
  6
CONTINUOUS
370
    50
100
AcDbLine
 10
85.0814970982
 20
209.8624356674
 30
0.0
 11
85.0814970982
 21
215.0121142373
 31
0.0
  0
LINE
  5
1C9
330
A
100
AcDbEntity
  8
1
  6
CONTINUOUS
370
    50
100
AcDbLine
 10
83.7733355907
 20
218.5235136191
 30
0.0
 11
83.7733355907
 21
209.8624356674
 31
0.0
  0
LINE
  5
1CA
330
A
100
AcDbEntity
  8
1
  6
CONTINUOUS
370
    50
100
AcDbLine
 10
94.4564970982
 20
218.5235136191
 30
0.0
 11
94.4564970982
 21
209.8624356674
 31
0.0
  0
LINE
  5
1CB
330
A
100
AcDbEntity
  8
1
  6
CONTINUOUS
370
    50
100
AcDbLine
 10
90.2396586056
 20
209.8624356674
 30
0.0
 11
90.2396586056
 21
218.5235136191
 31
0.0
  0
LINE
  5
1CC
330
A
100
AcDbEntity
  8
1
  6
CONTINUOUS
370
    50
100
AcDbLine
 10
77.9064970982
 20
209.8624356674
 30
0.0
 11
77.9064970982
 21
218.5235136191
 31
0.0
  0
LWPOLYLINE
  5
1CD
330
A
100
AcDbEntity
  8
1
  6
CONTINUOUS
370
    50
100
AcDbPolyline
 90
       14
 70
   128
 43
0.0
 10
94.9564970982
 20
176.9127304794
 10
93.7887655036
 20
178.3265496901
 10
92.7920032924
 20
179.8595926394
 10
91.978911257
 20
181.4923252201
 10
91.3598498553
 20
183.203943075
 10
90.9427071974
 20
184.9726366866
 10
90.7327985353
 20
186.7758692756
 10
90.7327985353
 20
188.5906639654
 10
90.9427071974
 20
190.3938965545
 10
91.3598498553
 20
192.1625901661
 10
91.978911257
 20
193.8742080209
 10
92.7920032924
 20
195.5069406016
 10
93.7887655036
 20
197.0399835509
 10
94.9564970982
 20
198.4538027616
  0
LWPOLYLINE
  5
1DD
330
A
100
AcDbEntity
  8
1
  6
CONTINUOUS
370
    50
100
AcDbPolyline
 90
       14
 70
   128
 43
0.0
 10
94.9564970982
 20
174.663219936
 10
93.7887655036
 20
176.0770391467
 10
92.7920032924
 20
177.610082096
 10
91.978911257
 20
179.2428146767
 10
91.3598498553
 20
180.9544325315
 10
90.9427071974
 20
182.7231261431
 10
90.7327985353
 20
184.5263587322
 10
90.7327985353
 20
186.341153422
 10
90.9427071974
 20
188.144386011
 10
91.3598498553
 20
189.9130796226
 10
91.978911257
 20
191.6246974775
 10
92.7920032924
 20
193.2574300582
 10
93.7887655036
 20
194.7904730075
 10
94.9564970982
 20
196.2042922181
  0
LWPOLYLINE
  5
1ED
330
A
100
AcDbEntity
  8
1
  6
CONTINUOUS
370
    50
100
AcDbPolyline
 90
       23
 70
   128
 43
0.0
 10
84.499237504
 20
190.9319252692
 10
84.3149428409
 20
191.6190248557
 10
84.0201747366
 20
192.2504597201
 10
83.6388135499
 20
192.7750747649
 10
83.2017548962
 20
193.1503687992
 10
82.7444066682
 20
193.3459377323
 10
82.3038204995
 20
193.3459377323
 10
81.9156900611
 20
193.1503687992
 10
81.6114593729
 20
192.7750747649
 10
81.4157753959
 20
192.2504597201
 10
81.3444912822
 20
191.6190248557
 10
81.4033820466
 20
190.9319252692
 10
81.5876767098
 20
190.2448256826
 10
81.882444814
 20
189.6133908182
 10
82.2638060007
 20
189.0887757734
 10
82.7008646544
 20
188.7134817391
 10
83.1582128824
 20
188.5179128061
 10
83.5987990511
 20
188.5179128061
 10
83.9869294895
 20
188.7134817391
 10
84.2911601777
 20
189.0887757734
 10
84.4868441547
 20
189.6133908182
 10
84.5581282685
 20
190.2448256826
 10
84.499237504
 20
190.9319252692
  0
LWPOLYLINE
  5
206
330
A
100
AcDbEntity
  8
1
  6
CONTINUOUS
370
    50
100
AcDbPolyline
 90
       23
 70
   128
 43
0.0
 10
84.4915770596
 20
190.9297268061
 10
84.3072823964
 20
191.6168263926
 10
84.0125142922
 20
192.248261257
 10
83.6311531055
 20
192.7728763018
 10
83.1940944518
 20
193.1481703361
 10
82.7367462238
 20
193.3437392691
 10
82.2961600551
 20
193.3437392691
 10
81.9080296167
 20
193.1481703361
 10
81.6037989285
 20
192.7728763018
 10
81.4081149515
 20
192.248261257
 10
81.3368308377
 20
191.6168263926
 10
81.3957216022
 20
190.9297268061
 10
81.5800162653
 20
190.2426272195
 10
81.8747843696
 20
189.6111923551
 10
82.2561455563
 20
189.0865773103
 10
82.69320421
 20
188.711283276
 10
83.150552438
 20
188.515714343
 10
83.5911386067
 20
188.515714343
 10
83.9792690451
 20
188.711283276
 10
84.2834997333
 20
189.0865773103
 10
84.4791837103
 20
189.6111923551
 10
84.550467824
 20
190.2426272195
 10
84.4915770596
 20
190.9297268061
  0
LWPOLYLINE
  5
21F
330
A
100
AcDbEntity
  8
1
  6
CONTINUOUS
370
    50
100
AcDbPolyline
 90
       21
 70
   128
 43
0.0
 10
84.2515690674
 20
190.9319252692
 10
84.075900408
 20
191.5649844343
 10
83.7901489819
 20
192.1360753575
 10
83.4222861298
 20
192.5892956803
 10
83.0083208306
 20
192.8802810397
 10
82.5887748921
 20
192.9805477613
 10
82.2047163939
 20
192.8802810397
 10
81.8937396577
 20
192.5892956803
 10
81.6862852531
 20
192.1360753575
 10
81.6026602627
 20
191.5649844343
 10
81.6510504832
 20
190.9319252692
 10
81.8267191426
 20
190.298866104
 10
82.1124705687
 20
189.7277751808
 10
82.4803334208
 20
189.274554858
 10
82.89429872
 20
188.9835694986
 10
83.3138446585
 20
188.8833027771
 10
83.6979031567
 20
188.9835694986
 10
84.0088798929
 20
189.274554858
 10
84.2163342975
 20
189.7277751808
 10
84.2999592879
 20
190.298866104
 10
84.2515690674
 20
190.9319252692
  0
LWPOLYLINE
  5
236
330
A
100
AcDbEntity
  8
1
  6
CONTINUOUS
370
    50
100
AcDbPolyline
 90
       25
 70
   128
 43
0.0
 10
86.0205844412
 20
192.2427546077
 10
85.9977787065
 20
191.6171747352
 10
85.9486291397
 20
191.0609849768
 10
85.8115407813
 20
190.5414108038
 10
85.6756444723
 20
190.369069852
 10
85.4904373627
 20
190.2745689389
 10
85.2504255059
 20
190.2400991015
 10
84.7583558218
 20
190.2953083911
 10
83.8579354922
 20
190.6716166277
 10
83.3801754034
 20
191.0918728665
 10
83.1388154172
 20
191.5121865495
 10
83.0734886399
 20
191.9918797586
 10
83.1783954411
 20
192.3961857198
 10
83.4788015827
 20
192.8399735239
 10
84.0876673507
 20
193.3116265641
 10
85.004892979
 20
193.7015731597
 10
85.3321036531
 20
193.7999193974
 10
85.5622011925
 20
193.8659920335
 10
85.7266850071
 20
193.9114442536
 10
85.8729818631
 20
193.9241814653
 10
85.975275421
 20
193.7635474899
 10
86.0114218413
 20
193.4340332836
 10
86.0242260085
 20
193.0173873355
 10
86.0246033444
 20
192.5012917951
 10
86.0205844412
 20
192.2427546077
  0
LWPOLYLINE
  5
251
330
A
100
AcDbEntity
  8
1
  6
CONTINUOUS
370
    50
100
AcDbPolyline
 90
       21
 70
   128
 43
0.0
 10
93.4364419404
 20
193.5678825308
 10
93.260773281
 20
194.2009416959
 10
92.9750218549
 20
194.7720326191
 10
92.6071590028
 20
195.2252529419
 10
92.1931937036
 20
195.5162383013
 10
91.7736477651
 20
195.6165050229
 10
91.3895892669
 20
195.5162383013
 10
91.0786125307
 20
195.2252529419
 10
90.8711581261
 20
194.7720326191
 10
90.7875331357
 20
194.2009416959
 10
90.8359233562
 20
193.5678825308
 10
91.0115920156
 20
192.9348233656
 10
91.2973434417
 20
192.3637324424
 10
91.6652062938
 20
191.9105121196
 10
92.079171593
 20
191.6195267602
 10
92.4987175315
 20
191.5192600387
 10
92.8827760297
 20
191.6195267602
 10
93.1937527659
 20
191.9105121196
 10
93.4012071705
 20
192.3637324424
 10
93.4848321609
 20
192.9348233656
 10
93.4364419404
 20
193.5678825308
  0
LWPOLYLINE
  5
268
330
A
100
AcDbEntity
  8
1
  6
CONTINUOUS
370
    50
100
AcDbPolyline
 90
       23
 70
   128
 43
0.0
 10
94.1290497077
 20
193.677805686
 10
93.9373832581
 20
194.392389256
 10
93.6308244296
 20
195.0490815149
 10
93.2342087955
 20
195.5946811615
 10
92.7796677956
 20
195.9849869572
 10
92.3040256385
 20
196.1883786476
 10
91.845816023
 20
196.1883786476
 10
91.4421603671
 20
195.9849869572
 10
91.1257604514
 20
195.5946811615
 10
90.9222491153
 20
195.0490815149
 10
90.848113637
 20
194.392389256
 10
90.909360032
 20
193.677805686
 10
91.1010264817
 20
192.9632221159
 10
91.4075853101
 20
192.306529857
 10
91.8042009443
 20
191.7609302104
 10
92.2587419441
 20
191.3706244147
 10
92.7343841012
 20
191.1672327243
 10
93.1925937167
 20
191.1672327243
 10
93.5962493726
 20
191.3706244147
 10
93.9126492884
 20
191.7609302104
 10
94.1161606244
 20
192.306529857
 10
94.1902961027
 20
192.9632221159
 10
94.1290497077
 20
193.677805686
  0
LINE
  5
281
330
A
100
AcDbEntity
  8
1
  6
CONTINUOUS
370
    50
100
AcDbLine
 10
78.6064970982
 20
160.0124356674
 30
0.0
 11
83.2064970982
 21
160.0124356674
 31
0.0
  0
LINE
  5
282
330
A
100
AcDbEntity
  8
1
  6
CONTINUOUS
370
    50
100
AcDbLine
 10
78.6064970982
 20
200.0124356674
 30
0.0
 11
78.6064970982
 21
160.0124356674
 31
0.0
  0
LINE
  5
283
330
A
100
AcDbEntity
  8
1
  6
CONTINUOUS
370
    50
100
AcDbLine
 10
83.2064970982
 20
160.0124356674
 30
0.0
 11
83.2064970982
 21
200.0124356674
 31
0.0
  0
LINE
  5
284
330
A
100
AcDbEntity
  8
1
  6
CONTINUOUS
370
    50
100
AcDbLine
 10
94.0064970982
 20
160.0124356674
 30
0.0
 11
94.0064970982
 21
200.0124356674
 31
0.0
  0
LINE
  5
285
330
A
100
AcDbEntity
  8
1
  6
CONTINUOUS
370
    50
100
AcDbLine
 10
92.0064970982
 20
160.0124356674
 30
0.0
 11
94.0064970982
 21
160.0124356674
 31
0.0
  0
LINE
  5
286
330
A
100
AcDbEntity
  8
1
  6
CONTINUOUS
370
    50
100
AcDbLine
 10
92.0064970982
 20
200.0124356674
 30
0.0
 11
92.0064970982
 21
160.0124356674
 31
0.0
  0
LINE
  5
287
330
A
100
AcDbEntity
  8
1
  6
CONTINUOUS
370
    50
100
AcDbLine
 10
94.0064970982
 20
200.0124356674
 30
0.0
 11
92.0064970982
 21
200.0124356674
 31
0.0
  0
LINE
  5
288
330
A
100
AcDbEntity
  8
1
  6
CONTINUOUS
370
    50
100
AcDbLine
 10
83.2064970982
 20
200.0124356674
 30
0.0
 11
78.6064970982
 21
200.0124356674
 31
0.0
  0
LINE
  5
289
330
A
100
AcDbEntity
  8
1
  6
CONTINUOUS
370
    50
100
AcDbLine
 10
91.8019852528
 20
163.8479465999
 30
0.0
 11
94.9564970982
 21
162.9426364752
 31
0.0
  0
LINE
  5
28A
330
A
100
AcDbEntity
  8
1
  6
CONTINUOUS
370
    50
100
AcDbLine
 10
94.9564970982
 20
168.3525428202
 30
0.0
 11
93.2364244869
 21
168.8461846978
 31
0.0
  0
LINE
  5
28B
330
A
100
AcDbEntity
  8
1
  6
CONTINUOUS
370
    50
100
AcDbLine
 10
77.4064970982
 20
163.6708930986
 30
0.0
 11
85.8725212045
 21
166.1005486886
 31
0.0
  0
LINE
  5
28C
330
A
100
AcDbEntity
  8
1
  6
CONTINUOUS
370
    50
100
AcDbLine
 10
84.6030353247
 20
169.6896133341
 30
0.0
 11
77.4064970982
 21
167.6242861969
 31
0.0
  0
LINE
  5
28D
330
A
100
AcDbEntity
  8
1
  6
CONTINUOUS
370
    50
100
AcDbLine
 10
91.8430248683
 20
168.3057484897
 30
0.0
 11
91.5900372625
 21
168.0390018678
 31
0.0
  0
LINE
  5
28E
330
A
100
AcDbEntity
  8
1
  6
CONTINUOUS
370
    50
100
AcDbLine
 10
90.8342123873
 20
165.4053645574
 30
0.0
 11
90.9072416895
 21
165.0450546769
 31
0.0
  0
LINE
  5
28F
330
A
100
AcDbEntity
  8
1
  6
CONTINUOUS
370
    50
100
AcDbLine
 10
85.4870042084
 20
166.1804598464
 30
0.0
 11
91.5568898807
 21
164.4384695722
 31
0.0
  0
LINE
  5
290
330
A
100
AcDbEntity
  8
1
  6
CONTINUOUS
370
    50
100
AcDbLine
 10
82.3720170077
 20
167.0744268338
 30
0.0
 11
85.4870042084
 21
166.1804598464
 31
0.0
  0
LINE
  5
291
330
A
100
AcDbEntity
  8
1
  6
CONTINUOUS
370
    50
100
AcDbLine
 10
92.7154754159
 20
168.4755080359
 30
0.0
 11
83.5306025429
 21
171.1114652975
 31
0.0
  0
LINE
  5
292
330
A
100
AcDbEntity
  8
1
  6
CONTINUOUS
370
    50
100
AcDbLine
 10
77.6596509917
 20
216.2550946987
 30
0.0
 11
77.4064970982
 21
216.7979849753
 31
0.0
  0
ARC
  5
293
330
A
100
AcDbEntity
  8
1
  6
CONTINUOUS
370
    50
100
AcDbCircle
 10
77.2064970982
 20
144.8874356674
 30
0.0
 40
0.5
100
AcDbArc
 50
0.0
 51
66.4218215218
  0
ARC
  5
294
330
A
100
AcDbEntity
  8
1
  6
CONTINUOUS
370
    50
100
AcDbCircle
 10
77.2064970982
 20
215.1374356674
 30
0.0
 40
0.5
100
AcDbArc
 50
293.5781784782001
 51
0.0
  0
LINE
  5
295
330
A
100
AcDbEntity
  8
1
  6
CONTINUOUS
370
    50
100
AcDbLine
 10
55.8180781965
 20
174.6951145451
 30
0.0
 11
82.3643565633
 21
167.0766252969
 31
0.0
  0
LINE
  5
296
330
A
100
AcDbEntity
  8
1
  6
CONTINUOUS
370
    50
100
AcDbLine
 10
83.5229420985
 20
171.1136637606
 30
0.0
 11
58.6083381327
 21
178.2638804432
 31
0.0
  0
ARC
  5
297
330
A
100
AcDbEntity
  8
1
  6
CONTINUOUS
370
    50
100
AcDbCircle
 10
-23.6935029018
 20
165.5124356674
 30
0.0
 40
2.0
100
AcDbArc
 50
128.2989210679
 51
180.0
  0
ARC
  5
298
330
A
100
AcDbEntity
  8
1
  6
CONTINUOUS
370
    50
100
AcDbCircle
 10
-23.6935029018
 20
194.5124356674
 30
0.0
 40
2.0
100
AcDbArc
 50
180.0
 51
231.7010789321
  0
LINE
  5
299
330
A
100
AcDbEntity
  8
1
  6
CONTINUOUS
370
    50
100
AcDbLine
 10
-24.9330314091
 20
167.0820117502
 30
0.0
 11
-24.4330314091
 21
167.3706868848
 31
0.0
  0
LINE
  5
29A
330
A
100
AcDbEntity
  8
1
  6
CONTINUOUS
370
    50
100
AcDbLine
 10
-24.4330314091
 20
192.65418445
 30
0.0
 11
-24.9330314091
 21
192.9428595846
 31
0.0
  0
LINE
  5
29B
330
A
100
AcDbEntity
  8
1
  6
CONTINUOUS
370
    50
100
AcDbLine
 10
-16.7037914701
 20
192.6624356674
 30
0.0
 11
-16.9635990913
 21
192.5124356674
 31
0.0
  0
LINE
  5
29C
330
A
100
AcDbEntity
  8
1
  6
CONTINUOUS
370
    50
100
AcDbLine
 10
-16.9635990913
 20
167.5124356674
 30
0.0
 11
-16.7037914701
 21
167.3624356674
 31
0.0
  0
LINE
  5
29D
330
A
100
AcDbEntity
  8
1
  6
CONTINUOUS
370
    50
100
AcDbLine
 10
-13.9935029018
 20
192.6624356674
 30
0.0
 11
-16.7037914701
 21
192.6624356674
 31
0.0
  0
LINE
  5
29E
330
A
100
AcDbEntity
  8
1
  6
CONTINUOUS
370
    50
100
AcDbLine
 10
-16.7037914701
 20
167.3624356674
 30
0.0
 11
-13.9935029018
 21
167.3624356674
 31
0.0
  0
LINE
  5
29F
330
A
100
AcDbEntity
  8
1
  6
CONTINUOUS
370
    50
100
AcDbLine
 10
-13.9935029018
 20
167.3624356674
 30
0.0
 11
-12.7882842149
 21
169.4499356674
 31
0.0
  0
LINE
  5
2A0
330
A
100
AcDbEntity
  8
1
  6
CONTINUOUS
370
    50
100
AcDbLine
 10
-12.7882842149
 20
190.5749356674
 30
0.0
 11
-13.9935029018
 21
192.6624356674
 31
0.0
  0
ARC
  5
2A1
330
A
100
AcDbEntity
  8
1
  6
CONTINUOUS
370
    50
100
AcDbCircle
 10
-23.6935029018
 20
165.5124356674
 30
0.0
 40
2.0
100
AcDbArc
 50
90.0
 51
111.7010789321
  0
ARC
  5
2A2
330
A
100
AcDbEntity
  8
1
  6
CONTINUOUS
370
    50
100
AcDbCircle
 10
-23.6935029018
 20
194.5124356674
 30
0.0
 40
2.0
100
AcDbArc
 50
248.2989210679
 51
270.0
  0
LINE
  5
2A3
330
A
100
AcDbEntity
  8
1
  6
CONTINUOUS
370
    50
100
AcDbLine
 10
-23.6935029018
 20
167.5124356674
 30
0.0
 11
-16.9635990913
 21
167.5124356674
 31
0.0
  0
LINE
  5
2A4
330
A
100
AcDbEntity
  8
1
  6
CONTINUOUS
370
    50
100
AcDbLine
 10
-16.9635990913
 20
192.5124356674
 30
0.0
 11
-23.6935029018
 21
192.5124356674
 31
0.0
  0
LINE
  5
2A5
330
A
100
AcDbEntity
  8
1
  6
CONTINUOUS
370
    50
100
AcDbLine
 10
23.3064970982
 20
190.5749356674
 30
0.0
 11
-12.7882842149
 21
190.5749356674
 31
0.0
  0
LINE
  5
2A6
330
A
100
AcDbEntity
  8
1
  6
CONTINUOUS
370
    50
100
AcDbLine
 10
-12.7882842149
 20
169.4499356674
 30
0.0
 11
23.3064970982
 21
169.4499356674
 31
0.0
  0
LINE
  5
2A7
330
A
100
AcDbEntity
  8
1
  6
CONTINUOUS
370
    50
100
AcDbLine
 10
38.3064970982
 20
190.5749356674
 30
0.0
 11
23.3164970982
 21
190.5749356674
 31
0.0
  0
LINE
  5
2A8
330
A
100
AcDbEntity
  8
1
  6
CONTINUOUS
370
    50
100
AcDbLine
 10
23.3164970982
 20
169.4499356674
 30
0.0
 11
38.3064970982
 21
169.4499356674
 31
0.0
  0
LINE
  5
2A9
330
A
100
AcDbEntity
  8
1
  6
CONTINUOUS
370
    50
100
AcDbLine
 10
84.3064970982
 20
190.5124356674
 30
0.0
 11
38.3292452378
 21
190.5124356674
 31
0.0
  0
LINE
  5
2AA
330
A
100
AcDbEntity
  8
1
  6
CONTINUOUS
370
    50
100
AcDbLine
 10
38.3292452378
 20
169.5124356674
 30
0.0
 11
84.3064970982
 21
169.5124356674
 31
0.0
  0
LINE
  5
2AB
330
A
100
AcDbEntity
  8
1
  6
CONTINUOUS
370
    50
100
AcDbLine
 10
84.3064970982
 20
169.5124356674
 30
0.0
 11
87.4819235787
 21
175.0124356674
 31
0.0
  0
LINE
  5
2AC
330
A
100
AcDbEntity
  8
1
  6
CONTINUOUS
370
    50
100
AcDbLine
 10
87.4819235787
 20
185.0124356674
 30
0.0
 11
84.3064970982
 21
190.5124356674
 31
0.0
  0
ARC
  5
2AD
330
A
100
AcDbEntity
  8
1
  6
CONTINUOUS
370
    50
100
AcDbCircle
 10
234.4064970982
 20
174.5574356674
 30
0.0
 40
1.5
100
AcDbArc
 50
0.0
 51
75.9301322524
  0
ARC
  5
2AE
330
A
100
AcDbEntity
  8
1
  6
CONTINUOUS
370
    50
100
AcDbCircle
 10
234.4064970982
 20
185.4674356674
 30
0.0
 40
1.5
100
AcDbArc
 50
284.0698677476
 51
0.0
  0
LINE
  5
2AF
330
A
100
AcDbEntity
  8
1
  6
CONTINUOUS
370
    50
100
AcDbLine
 10
81.8064970982
 20
217.5124356674
 30
0.0
 11
82.0064970982
 21
217.3124356674
 31
0.0
  0
LINE
  5
2B0
330
A
100
AcDbEntity
  8
1
  6
CONTINUOUS
370
    50
100
AcDbLine
 10
92.0064970982
 20
217.3124356674
 30
0.0
 11
92.2064970982
 21
217.5124356674
 31
0.0
  0
LINE
  5
2B1
330
A
100
AcDbEntity
  8
1
  6
CONTINUOUS
370
    50
100
AcDbLine
 10
186.3064970982
 20
175.0124356674
 30
0.0
 11
187.7498727712
 21
177.5124356674
 31
0.0
  0
LINE
  5
2B2
330
A
100
AcDbEntity
  8
1
  6
CONTINUOUS
370
    50
100
AcDbLine
 10
187.7498727712
 20
182.5124356674
 30
0.0
 11
186.3064970982
 21
185.0124356674
 31
0.0
  0
LINE
  5
2B3
330
A
100
AcDbEntity
  8
1
  6
CONTINUOUS
370
    50
100
AcDbLine
 10
87.4819235787
 20
175.0124356674
 30
0.0
 11
186.3064970982
 21
175.0124356674
 31
0.0
  0
LINE
  5
2B4
330
A
100
AcDbEntity
  8
1
  6
CONTINUOUS
370
    50
100
AcDbLine
 10
186.3064970982
 20
185.0124356674
 30
0.0
 11
87.4819235787
 21
185.0124356674
 31
0.0
  0
ARC
  5
2B5
330
A
100
AcDbEntity
  8
1
  6
CONTINUOUS
370
    50
100
AcDbCircle
 10
82.3064970982
 20
213.1124356674
 30
0.0
 40
0.3
100
AcDbArc
 50
180.0
 51
270.0
  0
ARC
  5
2B6
330
A
100
AcDbEntity
  8
1
  6
CONTINUOUS
370
    50
100
AcDbCircle
 10
91.7064970982
 20
213.1124356674
 30
0.0
 40
0.3
100
AcDbArc
 50
270.0
 51
0.0
  0
LINE
  5
2B7
330
A
100
AcDbEntity
  8
1
  6
CONTINUOUS
370
    50
100
AcDbLine
 10
82.0064970982
 20
217.3124356674
 30
0.0
 11
82.0064970982
 21
213.1124356674
 31
0.0
  0
LINE
  5
2B8
330
A
100
AcDbEntity
  8
1
  6
CONTINUOUS
370
    50
100
AcDbLine
 10
92.0064970982
 20
213.1124356674
 30
0.0
 11
92.0064970982
 21
217.3124356674
 31
0.0
  0
ARC
  5
2B9
330
A
100
AcDbEntity
  8
1
  6
CONTINUOUS
370
    50
100
AcDbCircle
 10
200.4064970982
 20
176.3124356674
 30
0.0
 40
0.5
100
AcDbArc
 50
180.0
 51
270.0
  0
ARC
  5
2BA
330
A
100
AcDbEntity
  8
1
  6
CONTINUOUS
370
    50
100
AcDbCircle
 10
200.4064970982
 20
183.7124356674
 30
0.0
 40
0.5
100
AcDbArc
 50
90.0
 51
180.0
  0
LINE
  5
2BB
330
A
100
AcDbEntity
  8
1
  6
CONTINUOUS
370
    50
100
AcDbLine
 10
209.7910270482
 20
175.8124356674
 30
0.0
 11
209.906497102
 21
176.0124356674
 31
0.0
  0
LINE
  5
2BC
330
A
100
AcDbEntity
  8
1
  6
CONTINUOUS
370
    50
100
AcDbLine
 10
209.906497102
 20
184.0124356674
 30
0.0
 11
209.7910270482
 21
184.2124356674
 31
0.0
  0
LINE
  5
2BD
330
A
100
AcDbEntity
  8
1
  6
CONTINUOUS
370
    50
100
AcDbLine
 10
200.4064970982
 20
175.8124356674
 30
0.0
 11
209.7910270482
 21
175.8124356674
 31
0.0
  0
LINE
  5
2BE
330
A
100
AcDbEntity
  8
1
  6
CONTINUOUS
370
    50
100
AcDbLine
 10
209.7910270482
 20
184.2124356674
 30
0.0
 11
200.4064970982
 21
184.2124356674
 31
0.0
  0
LINE
  5
2BF
330
A
100
AcDbEntity
  8
1
  6
CONTINUOUS
370
    50
100
AcDbLine
 10
209.906497102
 20
176.0124356674
 30
0.0
 11
234.7711544716
 21
176.0124356674
 31
0.0
  0
LINE
  5
2C0
330
A
100
AcDbEntity
  8
1
  6
CONTINUOUS
370
    50
100
AcDbLine
 10
234.7711544716
 20
184.0124356674
 30
0.0
 11
209.906497102
 21
184.0124356674
 31
0.0
  0
LINE
  5
2C1
330
A
100
AcDbEntity
  8
1
  6
CONTINUOUS
370
    50
100
AcDbLine
 10
187.7498727712
 20
177.5124356674
 30
0.0
 11
199.9064970982
 21
177.5124356674
 31
0.0
  0
LINE
  5
2C2
330
A
100
AcDbEntity
  8
1
  6
CONTINUOUS
370
    50
100
AcDbLine
 10
199.9064970982
 20
182.5124356674
 30
0.0
 11
187.7498727712
 21
182.5124356674
 31
0.0
  0
LINE
  5
2C3
330
A
100
AcDbEntity
  8
1
  6
CONTINUOUS
370
    50
100
AcDbLine
 10
85.5064970982
 20
212.8124356674
 30
0.0
 11
85.9064970982
 21
212.4124356674
 31
0.0
  0
LINE
  5
2C4
330
A
100
AcDbEntity
  8
1
  6
CONTINUOUS
370
    50
100
AcDbLine
 10
88.1064970982
 20
212.4124356674
 30
0.0
 11
88.5064970982
 21
212.8124356674
 31
0.0
  0
LINE
  5
2C5
330
A
100
AcDbEntity
  8
1
  6
CONTINUOUS
370
    50
100
AcDbLine
 10
85.9064970982
 20
206.4124356674
 30
0.0
 11
87.0064970982
 21
206.0120684097
 31
0.0
  0
LINE
  5
2C6
330
A
100
AcDbEntity
  8
1
  6
CONTINUOUS
370
    50
100
AcDbLine
 10
87.0064970982
 20
206.0120684097
 30
0.0
 11
88.1064970982
 21
206.4124356674
 31
0.0
  0
LINE
  5
2C7
330
A
100
AcDbEntity
  8
1
  6
CONTINUOUS
370
    50
100
AcDbLine
 10
85.9064970982
 20
209.0024356674
 30
0.0
 11
85.9064970982
 21
206.4124356674
 31
0.0
  0
LINE
  5
2C8
330
A
100
AcDbEntity
  8
1
  6
CONTINUOUS
370
    50
100
AcDbLine
 10
88.1064970982
 20
206.4124356674
 30
0.0
 11
88.1064970982
 21
209.0024356674
 31
0.0
  0
LINE
  5
2C9
330
A
100
AcDbEntity
  8
1
  6
CONTINUOUS
370
    50
100
AcDbLine
 10
85.9064970982
 20
212.4124356674
 30
0.0
 11
85.9064970982
 21
209.0124356674
 31
0.0
  0
LINE
  5
2CA
330
A
100
AcDbEntity
  8
1
  6
CONTINUOUS
370
    50
100
AcDbLine
 10
88.1064970982
 20
209.0124356674
 30
0.0
 11
88.1064970982
 21
212.4124356674
 31
0.0
  0
LINE
  5
2CB
330
A
100
AcDbEntity
  8
1
  6
CONTINUOUS
370
    50
100
AcDbLine
 10
58.6091967349
 20
181.761237301
 30
0.0
 11
83.5229420985
 21
188.9112075742
 31
0.0
  0
LINE
  5
2CC
330
A
100
AcDbEntity
  8
1
  6
CONTINUOUS
370
    50
100
AcDbLine
 10
82.3643565633
 20
192.9482460379
 30
0.0
 11
55.8117828805
 21
185.3279501034
 31
0.0
  0
LINE
  5
2CD
330
A
100
AcDbEntity
  8
1
  6
CONTINUOUS
370
    50
100
AcDbLine
 10
90.7064970982
 20
187.6832666205
 30
0.0
 11
90.7064970982
 21
185.4337560771
 31
0.0
  0
LINE
  5
2CE
330
A
100
AcDbEntity
  8
1
  6
CONTINUOUS
370
    50
100
AcDbLine
 10
83.5306025429
 20
188.9134060373
 30
0.0
 11
92.7154754159
 21
191.5493632989
 31
0.0
  0
LINE
  5
2CF
330
A
100
AcDbEntity
  8
1
  6
CONTINUOUS
370
    50
100
AcDbLine
 10
85.548047709
 20
193.8619303001
 30
0.0
 11
82.3720170077
 21
192.950444501
 31
0.0
  0
LINE
  5
2D0
330
A
100
AcDbEntity
  8
1
  6
CONTINUOUS
370
    50
100
AcDbLine
 10
91.5568898807
 20
195.5864017626
 30
0.0
 11
85.548047709
 21
193.8619303001
 31
0.0
  0
LINE
  5
2D1
330
A
100
AcDbEntity
  8
1
  6
CONTINUOUS
370
    50
100
AcDbLine
 10
77.4064970982
 20
192.4005851379
 30
0.0
 11
84.6055767971
 21
190.3345286261
 31
0.0
  0
LINE
  5
2D2
330
A
100
AcDbEntity
  8
1
  6
CONTINUOUS
370
    50
100
AcDbLine
 10
85.8741994703
 20
193.9238410023
 30
0.0
 11
77.4064970982
 21
196.3539782362
 31
0.0
  0
LINE
  5
2D3
330
A
100
AcDbEntity
  8
1
  6
CONTINUOUS
370
    50
100
AcDbLine
 10
90.9072416895
 20
194.9798166579
 30
0.0
 11
90.8342123873
 21
194.6195067773
 31
0.0
  0
LINE
  5
2D4
330
A
100
AcDbEntity
  8
1
  6
CONTINUOUS
370
    50
100
AcDbLine
 10
91.5900372625
 20
191.9858694669
 30
0.0
 11
91.8430248683
 21
191.719122845
 31
0.0
  0
LINE
  5
2D5
330
A
100
AcDbEntity
  8
1
  6
CONTINUOUS
370
    50
100
AcDbLine
 10
93.2364244869
 20
191.178686637
 30
0.0
 11
94.9564970982
 21
191.6723285145
 31
0.0
  0
LINE
  5
2D6
330
A
100
AcDbEntity
  8
1
  6
CONTINUOUS
370
    50
100
AcDbLine
 10
94.9564970982
 20
197.0822348596
 30
0.0
 11
91.8019852528
 21
196.1769247349
 31
0.0
  0
LINE
  5
2D7
330
A
100
AcDbEntity
  8
1
  6
CONTINUOUS
370
    50
100
AcDbLine
 10
77.2064970982
 20
214.6374356674
 30
0.0
 11
77.2064970982
 21
145.3874356674
 31
0.0
  0
LINE
  5
2D8
330
A
100
AcDbEntity
  8
1
  6
CONTINUOUS
370
    50
100
AcDbLine
 10
76.4493873748
 20
214.6842817739
 30
0.0
 11
76.4493873748
 21
145.3405895609
 31
0.0
  0
LINE
  5
2D9
330
A
100
AcDbEntity
  8
1
  6
CONTINUOUS
370
    50
100
AcDbLine
 10
76.6606965057
 20
214.6374356674
 30
0.0
 11
76.6606965057
 21
145.3874356674
 31
0.0
  0
LINE
  5
2DA
330
A
100
AcDbEntity
  8
1
  6
CONTINUOUS
370
    50
100
AcDbLine
 10
-23.9113042062
 20
200.3759261954
 30
0.0
 11
-23.9113042062
 21
159.6489451394
 31
0.0
  0
LINE
  5
2DB
330
A
100
AcDbEntity
  8
1
  6
CONTINUOUS
370
    50
100
AcDbLine
 10
23.2064970982
 20
192.0124356674
 30
0.0
 11
-13.6182252269
 21
192.0124356674
 31
0.0
  0
LINE
  5
2DC
330
A
100
AcDbEntity
  8
1
  6
CONTINUOUS
370
    50
100
AcDbLine
 10
-13.6182252269
 20
168.0124356674
 30
0.0
 11
23.2064970982
 21
168.0124356674
 31
0.0
  0
LINE
  5
2DD
330
A
100
AcDbEntity
  8
1
  6
CONTINUOUS
370
    50
100
AcDbLine
 10
23.2064970982
 20
192.0124356674
 30
0.0
 11
23.2064970982
 21
191.8646957545
 31
0.0
  0
LINE
  5
2DE
330
A
100
AcDbEntity
  8
1
  6
CONTINUOUS
370
    50
100
AcDbLine
 10
23.2064970982
 20
191.8646957545
 30
0.0
 11
23.2064970982
 21
168.0124356674
 31
0.0
  0
LINE
  5
2DF
330
A
100
AcDbEntity
  8
1
  6
CONTINUOUS
370
    50
100
AcDbLine
 10
81.4033820466
 20
190.9319252692
 30
0.0
 11
81.6443456929
 21
190.0977941282
 31
0.0
  0
LINE
  5
2E0
330
A
100
AcDbEntity
  8
1
  6
CONTINUOUS
370
    50
100
AcDbLine
 10
81.6443456929
 20
190.0977941282
 30
0.0
 11
82.0429484963
 21
189.3642715134
 31
0.0
  0
LINE
  5
2E1
330
A
100
AcDbEntity
  8
1
  6
CONTINUOUS
370
    50
100
AcDbLine
 10
82.0429484963
 20
189.3642715134
 30
0.0
 11
82.551113076
 21
188.8198310776
 31
0.0
  0
LINE
  5
2E2
330
A
100
AcDbEntity
  8
1
  6
CONTINUOUS
370
    50
100
AcDbLine
 10
82.551113076
 20
188.8198310776
 30
0.0
 11
83.1075472838
 21
188.5301403725
 31
0.0
  0
LINE
  5
2E3
330
A
100
AcDbEntity
  8
1
  6
CONTINUOUS
370
    50
100
AcDbLine
 10
83.1075472838
 20
188.5301403725
 30
0.0
 11
83.6451369423
 21
188.5301403725
 31
0.0
  0
LINE
  5
2E4
330
A
100
AcDbEntity
  8
1
  6
CONTINUOUS
370
    50
100
AcDbLine
 10
83.6451369423
 20
188.5301403725
 30
0.0
 11
84.0990408047
 21
188.8198310776
 31
0.0
  0
LINE
  5
2E5
330
A
100
AcDbEntity
  8
1
  6
CONTINUOUS
370
    50
100
AcDbLine
 10
84.0990408047
 20
188.8198310776
 30
0.0
 11
84.4145113662
 21
189.3642715134
 31
0.0
  0
LINE
  5
2E6
330
A
100
AcDbEntity
  8
1
  6
CONTINUOUS
370
    50
100
AcDbLine
 10
84.4145113662
 20
189.3642715134
 30
0.0
 11
84.5534982213
 21
190.0977941282
 31
0.0
  0
LINE
  5
2E7
330
A
100
AcDbEntity
  8
1
  6
CONTINUOUS
370
    50
100
AcDbLine
 10
84.5534982213
 20
190.0977941282
 30
0.0
 11
84.499237504
 21
190.9319252692
 31
0.0
  0
LINE
  5
2E8
330
A
100
AcDbEntity
  8
1
  6
CONTINUOUS
370
    50
100
AcDbLine
 10
84.499237504
 20
190.9319252692
 30
0.0
 11
84.2582738577
 21
191.7660564101
 31
0.0
  0
LINE
  5
2E9
330
A
100
AcDbEntity
  8
1
  6
CONTINUOUS
370
    50
100
AcDbLine
 10
84.2582738577
 20
191.7660564101
 30
0.0
 11
83.8596710543
 21
192.4995790249
 31
0.0
  0
LINE
  5
2EA
330
A
100
AcDbEntity
  8
1
  6
CONTINUOUS
370
    50
100
AcDbLine
 10
83.8596710543
 20
192.4995790249
 30
0.0
 11
83.3515064747
 21
193.0440194607
 31
0.0
  0
LINE
  5
2EB
330
A
100
AcDbEntity
  8
1
  6
CONTINUOUS
370
    50
100
AcDbLine
 10
83.3515064747
 20
193.0440194607
 30
0.0
 11
82.7950722668
 21
193.3337101658
 31
0.0
  0
LINE
  5
2EC
330
A
100
AcDbEntity
  8
1
  6
CONTINUOUS
370
    50
100
AcDbLine
 10
82.7950722668
 20
193.3337101658
 30
0.0
 11
82.2574826083
 21
193.3337101658
 31
0.0
  0
LINE
  5
2ED
330
A
100
AcDbEntity
  8
1
  6
CONTINUOUS
370
    50
100
AcDbLine
 10
82.2574826083
 20
193.3337101658
 30
0.0
 11
81.803578746
 21
193.0440194607
 31
0.0
  0
LINE
  5
2EE
330
A
100
AcDbEntity
  8
1
  6
CONTINUOUS
370
    50
100
AcDbLine
 10
81.803578746
 20
193.0440194607
 30
0.0
 11
81.4881081844
 21
192.4995790249
 31
0.0
  0
LINE
  5
2EF
330
A
100
AcDbEntity
  8
1
  6
CONTINUOUS
370
    50
100
AcDbLine
 10
81.4881081844
 20
192.4995790249
 30
0.0
 11
81.3491213293
 21
191.7660564101
 31
0.0
  0
LINE
  5
2F0
330
A
100
AcDbEntity
  8
1
  6
CONTINUOUS
370
    50
100
AcDbLine
 10
81.3491213293
 20
191.7660564101
 30
0.0
 11
81.4033820466
 21
190.9319252692
 31
0.0
  0
LINE
  5
2F1
330
A
100
AcDbEntity
  8
1
  6
CONTINUOUS
370
    50
100
AcDbLine
 10
90.8946726969
 20
193.6558210549
 30
0.0
 11
90.8404119796
 21
194.4899521958
 31
0.0
  0
LINE
  5
2F2
330
A
100
AcDbEntity
  8
1
  6
CONTINUOUS
370
    50
100
AcDbLine
 10
90.8404119796
 20
194.4899521958
 30
0.0
 11
90.9793988347
 21
195.2234748107
 31
0.0
  0
LINE
  5
2F3
330
A
100
AcDbEntity
  8
1
  6
CONTINUOUS
370
    50
100
AcDbLine
 10
90.9793988347
 20
195.2234748107
 30
0.0
 11
91.2948693962
 21
195.7679152465
 31
0.0
  0
LINE
  5
2F4
330
A
100
AcDbEntity
  8
1
  6
CONTINUOUS
370
    50
100
AcDbLine
 10
91.2948693962
 20
195.7679152465
 30
0.0
 11
91.7487732586
 21
196.0576059516
 31
0.0
  0
LINE
  5
2F5
330
A
100
AcDbEntity
  8
1
  6
CONTINUOUS
370
    50
100
AcDbLine
 10
91.7487732586
 20
196.0576059516
 30
0.0
 11
92.2863629171
 21
196.0576059516
 31
0.0
  0
LINE
  5
2F6
330
A
100
AcDbEntity
  8
1
  6
CONTINUOUS
370
    50
100
AcDbLine
 10
92.2863629171
 20
196.0576059516
 30
0.0
 11
92.8427971249
 21
195.7679152465
 31
0.0
  0
LINE
  5
2F7
330
A
100
AcDbEntity
  8
1
  6
CONTINUOUS
370
    50
100
AcDbLine
 10
92.8427971249
 20
195.7679152465
 30
0.0
 11
93.3509617045
 21
195.2234748107
 31
0.0
  0
LINE
  5
2F8
330
A
100
AcDbEntity
  8
1
  6
CONTINUOUS
370
    50
100
AcDbLine
 10
93.3509617045
 20
195.2234748107
 30
0.0
 11
93.7495645079
 21
194.4899521958
 31
0.0
  0
LINE
  5
2F9
330
A
100
AcDbEntity
  8
1
  6
CONTINUOUS
370
    50
100
AcDbLine
 10
93.7495645079
 20
194.4899521958
 30
0.0
 11
93.9905281543
 21
193.6558210549
 31
0.0
  0
LINE
  5
2FA
330
A
100
AcDbEntity
  8
1
  6
CONTINUOUS
370
    50
100
AcDbLine
 10
93.9905281543
 20
193.6558210549
 30
0.0
 11
94.0447888715
 21
192.821689914
 31
0.0
  0
LINE
  5
2FB
330
A
100
AcDbEntity
  8
1
  6
CONTINUOUS
370
    50
100
AcDbLine
 10
94.0447888715
 20
192.821689914
 30
0.0
 11
93.9058020164
 21
192.0881672992
 31
0.0
  0
LINE
  5
2FC
330
A
100
AcDbEntity
  8
1
  6
CONTINUOUS
370
    50
100
AcDbLine
 10
93.9058020164
 20
192.0881672992
 30
0.0
 11
93.5903314549
 21
191.5437268633
 31
0.0
  0
LINE
  5
2FD
330
A
100
AcDbEntity
  8
1
  6
CONTINUOUS
370
    50
100
AcDbLine
 10
93.5903314549
 20
191.5437268633
 30
0.0
 11
93.1364275926
 21
191.2540361582
 31
0.0
  0
LINE
  5
2FE
330
A
100
AcDbEntity
  8
1
  6
CONTINUOUS
370
    50
100
AcDbLine
 10
93.1364275926
 20
191.2540361582
 30
0.0
 11
92.5988379341
 21
191.2540361582
 31
0.0
  0
LINE
  5
2FF
330
A
100
AcDbEntity
  8
1
  6
CONTINUOUS
370
    50
100
AcDbLine
 10
92.5988379341
 20
191.2540361582
 30
0.0
 11
92.0424037262
 21
191.5437268633
 31
0.0
  0
LINE
  5
300
330
A
100
AcDbEntity
  8
1
  6
CONTINUOUS
370
    50
100
AcDbLine
 10
92.0424037262
 20
191.5437268633
 30
0.0
 11
91.5342391466
 21
192.0881672992
 31
0.0
  0
LINE
  5
301
330
A
100
AcDbEntity
  8
1
  6
CONTINUOUS
370
    50
100
AcDbLine
 10
91.5342391466
 20
192.0881672992
 30
0.0
 11
91.1356363432
 21
192.821689914
 31
0.0
  0
LINE
  5
302
330
A
100
AcDbEntity
  8
1
  6
CONTINUOUS
370
    50
100
AcDbLine
 10
91.1356363432
 20
192.821689914
 30
0.0
 11
90.8946726969
 21
193.6558210549
 31
0.0
  0
LINE
  5
303
330
A
100
AcDbEntity
  8
1
  6
CONTINUOUS
370
    50
100
AcDbLine
 10
84.499237504
 20
169.0929460656
 30
0.0
 11
84.2582738577
 21
168.2588149247
 31
0.0
  0
LINE
  5
304
330
A
100
AcDbEntity
  8
1
  6
CONTINUOUS
370
    50
100
AcDbLine
 10
84.2582738577
 20
168.2588149247
 30
0.0
 11
83.8596710543
 21
167.5252923099
 31
0.0
  0
LINE
  5
305
330
A
100
AcDbEntity
  8
1
  6
CONTINUOUS
370
    50
100
AcDbLine
 10
83.8596710543
 20
167.5252923099
 30
0.0
 11
83.3515064747
 21
166.980851874
 31
0.0
  0
LINE
  5
306
330
A
100
AcDbEntity
  8
1
  6
CONTINUOUS
370
    50
100
AcDbLine
 10
83.3515064747
 20
166.980851874
 30
0.0
 11
82.7950722668
 21
166.6911611689
 31
0.0
  0
LINE
  5
307
330
A
100
AcDbEntity
  8
1
  6
CONTINUOUS
370
    50
100
AcDbLine
 10
82.7950722668
 20
166.6911611689
 30
0.0
 11
82.2574826083
 21
166.6911611689
 31
0.0
  0
LINE
  5
308
330
A
100
AcDbEntity
  8
1
  6
CONTINUOUS
370
    50
100
AcDbLine
 10
82.2574826083
 20
166.6911611689
 30
0.0
 11
81.803578746
 21
166.980851874
 31
0.0
  0
LINE
  5
309
330
A
100
AcDbEntity
  8
1
  6
CONTINUOUS
370
    50
100
AcDbLine
 10
81.803578746
 20
166.980851874
 30
0.0
 11
81.4881081844
 21
167.5252923099
 31
0.0
  0
LINE
  5
30A
330
A
100
AcDbEntity
  8
1
  6
CONTINUOUS
370
    50
100
AcDbLine
 10
81.4881081844
 20
167.5252923099
 30
0.0
 11
81.3491213293
 21
168.2588149247
 31
0.0
  0
LINE
  5
30B
330
A
100
AcDbEntity
  8
1
  6
CONTINUOUS
370
    50
100
AcDbLine
 10
81.3491213293
 20
168.2588149247
 30
0.0
 11
81.4033820466
 21
169.0929460656
 31
0.0
  0
LINE
  5
30C
330
A
100
AcDbEntity
  8
1
  6
CONTINUOUS
370
    50
100
AcDbLine
 10
81.4033820466
 20
169.0929460656
 30
0.0
 11
81.6443456929
 21
169.9270772065
 31
0.0
  0
LINE
  5
30D
330
A
100
AcDbEntity
  8
1
  6
CONTINUOUS
370
    50
100
AcDbLine
 10
81.6443456929
 20
169.9270772065
 30
0.0
 11
82.0429484963
 21
170.6605998214
 31
0.0
  0
LINE
  5
30E
330
A
100
AcDbEntity
  8
1
  6
CONTINUOUS
370
    50
100
AcDbLine
 10
82.0429484963
 20
170.6605998214
 30
0.0
 11
82.551113076
 21
171.2050402572
 31
0.0
  0
LINE
  5
30F
330
A
100
AcDbEntity
  8
1
  6
CONTINUOUS
370
    50
100
AcDbLine
 10
82.551113076
 20
171.2050402572
 30
0.0
 11
83.1075472838
 21
171.4947309623
 31
0.0
  0
LINE
  5
310
330
A
100
AcDbEntity
  8
1
  6
CONTINUOUS
370
    50
100
AcDbLine
 10
83.1075472838
 20
171.4947309623
 30
0.0
 11
83.6451369423
 21
171.4947309623
 31
0.0
  0
LINE
  5
311
330
A
100
AcDbEntity
  8
1
  6
CONTINUOUS
370
    50
100
AcDbLine
 10
83.6451369423
 20
171.4947309623
 30
0.0
 11
84.0990408047
 21
171.2050402572
 31
0.0
  0
LINE
  5
312
330
A
100
AcDbEntity
  8
1
  6
CONTINUOUS
370
    50
100
AcDbLine
 10
84.0990408047
 20
171.2050402572
 30
0.0
 11
84.4145113662
 21
170.6605998214
 31
0.0
  0
LINE
  5
313
330
A
100
AcDbEntity
  8
1
  6
CONTINUOUS
370
    50
100
AcDbLine
 10
84.4145113662
 20
170.6605998214
 30
0.0
 11
84.5534982213
 21
169.9270772065
 31
0.0
  0
LINE
  5
314
330
A
100
AcDbEntity
  8
1
  6
CONTINUOUS
370
    50
100
AcDbLine
 10
84.5534982213
 20
169.9270772065
 30
0.0
 11
84.499237504
 21
169.0929460656
 31
0.0
  0
LINE
  5
315
330
A
100
AcDbEntity
  8
1
  6
CONTINUOUS
370
    50
100
AcDbLine
 10
93.9905281543
 20
166.3690502799
 30
0.0
 11
94.0447888715
 21
167.2031814208
 31
0.0
  0
LINE
  5
316
330
A
100
AcDbEntity
  8
1
  6
CONTINUOUS
370
    50
100
AcDbLine
 10
94.0447888715
 20
167.2031814208
 30
0.0
 11
93.9058020164
 21
167.9367040356
 31
0.0
  0
LINE
  5
317
330
A
100
AcDbEntity
  8
1
  6
CONTINUOUS
370
    50
100
AcDbLine
 10
93.9058020164
 20
167.9367040356
 30
0.0
 11
93.5903314549
 21
168.4811444714
 31
0.0
  0
LINE
  5
318
330
A
100
AcDbEntity
  8
1
  6
CONTINUOUS
370
    50
100
AcDbLine
 10
93.5903314549
 20
168.4811444714
 30
0.0
 11
93.1364275926
 21
168.7708351765
 31
0.0
  0
LINE
  5
319
330
A
100
AcDbEntity
  8
1
  6
CONTINUOUS
370
    50
100
AcDbLine
 10
93.1364275926
 20
168.7708351765
 30
0.0
 11
92.5988379341
 21
168.7708351765
 31
0.0
  0
LINE
  5
31A
330
A
100
AcDbEntity
  8
1
  6
CONTINUOUS
370
    50
100
AcDbLine
 10
92.5988379341
 20
168.7708351765
 30
0.0
 11
92.0424037262
 21
168.4811444714
 31
0.0
  0
LINE
  5
31B
330
A
100
AcDbEntity
  8
1
  6
CONTINUOUS
370
    50
100
AcDbLine
 10
92.0424037262
 20
168.4811444714
 30
0.0
 11
91.5342391466
 21
167.9367040356
 31
0.0
  0
LINE
  5
31C
330
A
100
AcDbEntity
  8
1
  6
CONTINUOUS
370
    50
100
AcDbLine
 10
91.5342391466
 20
167.9367040356
 30
0.0
 11
91.1356363432
 21
167.2031814208
 31
0.0
  0
LINE
  5
31D
330
A
100
AcDbEntity
  8
1
  6
CONTINUOUS
370
    50
100
AcDbLine
 10
91.1356363432
 20
167.2031814208
 30
0.0
 11
90.8946726969
 21
166.3690502799
 31
0.0
  0
LINE
  5
31E
330
A
100
AcDbEntity
  8
1
  6
CONTINUOUS
370
    50
100
AcDbLine
 10
90.8946726969
 20
166.3690502799
 30
0.0
 11
90.8404119796
 21
165.5349191389
 31
0.0
  0
LINE
  5
31F
330
A
100
AcDbEntity
  8
1
  6
CONTINUOUS
370
    50
100
AcDbLine
 10
90.8404119796
 20
165.5349191389
 30
0.0
 11
90.9793988347
 21
164.8013965241
 31
0.0
  0
LINE
  5
320
330
A
100
AcDbEntity
  8
1
  6
CONTINUOUS
370
    50
100
AcDbLine
 10
90.9793988347
 20
164.8013965241
 30
0.0
 11
91.2948693962
 21
164.2569560883
 31
0.0
  0
LINE
  5
321
330
A
100
AcDbEntity
  8
1
  6
CONTINUOUS
370
    50
100
AcDbLine
 10
91.2948693962
 20
164.2569560883
 30
0.0
 11
91.7487732586
 21
163.9672653832
 31
0.0
  0
LINE
  5
322
330
A
100
AcDbEntity
  8
1
  6
CONTINUOUS
370
    50
100
AcDbLine
 10
91.7487732586
 20
163.9672653832
 30
0.0
 11
92.2863629171
 21
163.9672653832
 31
0.0
  0
LINE
  5
323
330
A
100
AcDbEntity
  8
1
  6
CONTINUOUS
370
    50
100
AcDbLine
 10
92.2863629171
 20
163.9672653832
 30
0.0
 11
92.8427971249
 21
164.2569560883
 31
0.0
  0
LINE
  5
324
330
A
100
AcDbEntity
  8
1
  6
CONTINUOUS
370
    50
100
AcDbLine
 10
92.8427971249
 20
164.2569560883
 30
0.0
 11
93.3509617045
 21
164.8013965241
 31
0.0
  0
LINE
  5
325
330
A
100
AcDbEntity
  8
1
  6
CONTINUOUS
370
    50
100
AcDbLine
 10
93.3509617045
 20
164.8013965241
 30
0.0
 11
93.7495645079
 21
165.5349191389
 31
0.0
  0
LINE
  5
326
330
A
100
AcDbEntity
  8
1
  6
CONTINUOUS
370
    50
100
AcDbLine
 10
93.7495645079
 20
165.5349191389
 30
0.0
 11
93.9905281543
 21
166.3690502799
 31
0.0
  0
LINE
  5
327
330
A
100
AcDbEntity
  8
1
  6
CONTINUOUS
370
    50
100
AcDbLine
 10
84.4915770596
 20
169.0951445287
 30
0.0
 11
84.2506134133
 21
168.2610133878
 31
0.0
  0
LINE
  5
328
330
A
100
AcDbEntity
  8
1
  6
CONTINUOUS
370
    50
100
AcDbLine
 10
84.2506134133
 20
168.2610133878
 30
0.0
 11
83.8520106099
 21
167.527490773
 31
0.0
  0
LINE
  5
329
330
A
100
AcDbEntity
  8
1
  6
CONTINUOUS
370
    50
100
AcDbLine
 10
83.8520106099
 20
167.527490773
 30
0.0
 11
83.3438460302
 21
166.9830503372
 31
0.0
  0
LINE
  5
32A
330
A
100
AcDbEntity
  8
1
  6
CONTINUOUS
370
    50
100
AcDbLine
 10
83.3438460302
 20
166.9830503372
 30
0.0
 11
82.7874118224
 21
166.693359632
 31
0.0
  0
LINE
  5
32B
330
A
100
AcDbEntity
  8
1
  6
CONTINUOUS
370
    50
100
AcDbLine
 10
82.7874118224
 20
166.693359632
 30
0.0
 11
82.2498221639
 21
166.693359632
 31
0.0
  0
LINE
  5
32C
330
A
100
AcDbEntity
  8
1
  6
CONTINUOUS
370
    50
100
AcDbLine
 10
82.2498221639
 20
166.693359632
 30
0.0
 11
81.7959183015
 21
166.9830503372
 31
0.0
  0
LINE
  5
32D
330
A
100
AcDbEntity
  8
1
  6
CONTINUOUS
370
    50
100
AcDbLine
 10
81.7959183015
 20
166.9830503372
 30
0.0
 11
81.48044774
 21
167.527490773
 31
0.0
  0
LINE
  5
32E
330
A
100
AcDbEntity
  8
1
  6
CONTINUOUS
370
    50
100
AcDbLine
 10
81.48044774
 20
167.527490773
 30
0.0
 11
81.3414608849
 21
168.2610133878
 31
0.0
  0
LINE
  5
32F
330
A
100
AcDbEntity
  8
1
  6
CONTINUOUS
370
    50
100
AcDbLine
 10
81.3414608849
 20
168.2610133878
 30
0.0
 11
81.3957216022
 21
169.0951445287
 31
0.0
  0
LINE
  5
330
330
A
100
AcDbEntity
  8
1
  6
CONTINUOUS
370
    50
100
AcDbLine
 10
81.3957216022
 20
169.0951445287
 30
0.0
 11
81.6366852485
 21
169.9292756696
 31
0.0
  0
LINE
  5
331
330
A
100
AcDbEntity
  8
1
  6
CONTINUOUS
370
    50
100
AcDbLine
 10
81.6366852485
 20
169.9292756696
 30
0.0
 11
82.0352880519
 21
170.6627982845
 31
0.0
  0
LINE
  5
332
330
A
100
AcDbEntity
  8
1
  6
CONTINUOUS
370
    50
100
AcDbLine
 10
82.0352880519
 20
170.6627982845
 30
0.0
 11
82.5434526315
 21
171.2072387203
 31
0.0
  0
LINE
  5
333
330
A
100
AcDbEntity
  8
1
  6
CONTINUOUS
370
    50
100
AcDbLine
 10
82.5434526315
 20
171.2072387203
 30
0.0
 11
83.0998868394
 21
171.4969294254
 31
0.0
  0
LINE
  5
334
330
A
100
AcDbEntity
  8
1
  6
CONTINUOUS
370
    50
100
AcDbLine
 10
83.0998868394
 20
171.4969294254
 30
0.0
 11
83.6374764979
 21
171.4969294254
 31
0.0
  0
LINE
  5
335
330
A
100
AcDbEntity
  8
1
  6
CONTINUOUS
370
    50
100
AcDbLine
 10
83.6374764979
 20
171.4969294254
 30
0.0
 11
84.0913803602
 21
171.2072387203
 31
0.0
  0
LINE
  5
336
330
A
100
AcDbEntity
  8
1
  6
CONTINUOUS
370
    50
100
AcDbLine
 10
84.0913803602
 20
171.2072387203
 30
0.0
 11
84.4068509218
 21
170.6627982845
 31
0.0
  0
LINE
  5
337
330
A
100
AcDbEntity
  8
1
  6
CONTINUOUS
370
    50
100
AcDbLine
 10
84.4068509218
 20
170.6627982845
 30
0.0
 11
84.5458377769
 21
169.9292756696
 31
0.0
  0
LINE
  5
338
330
A
100
AcDbEntity
  8
1
  6
CONTINUOUS
370
    50
100
AcDbLine
 10
84.5458377769
 20
169.9292756696
 30
0.0
 11
84.4915770596
 21
169.0951445287
 31
0.0
  0
LINE
  5
339
330
A
100
AcDbEntity
  8
1
  6
CONTINUOUS
370
    50
100
AcDbLine
 10
93.9905281543
 20
166.3690502799
 30
0.0
 11
94.0447888715
 21
167.2031814208
 31
0.0
  0
LINE
  5
33A
330
A
100
AcDbEntity
  8
1
  6
CONTINUOUS
370
    50
100
AcDbLine
 10
94.0447888715
 20
167.2031814208
 30
0.0
 11
93.9058020164
 21
167.9367040356
 31
0.0
  0
LINE
  5
33B
330
A
100
AcDbEntity
  8
1
  6
CONTINUOUS
370
    50
100
AcDbLine
 10
93.9058020164
 20
167.9367040356
 30
0.0
 11
93.5903314549
 21
168.4811444714
 31
0.0
  0
LINE
  5
33C
330
A
100
AcDbEntity
  8
1
  6
CONTINUOUS
370
    50
100
AcDbLine
 10
93.5903314549
 20
168.4811444714
 30
0.0
 11
93.1364275926
 21
168.7708351765
 31
0.0
  0
LINE
  5
33D
330
A
100
AcDbEntity
  8
1
  6
CONTINUOUS
370
    50
100
AcDbLine
 10
93.1364275926
 20
168.7708351765
 30
0.0
 11
92.5988379341
 21
168.7708351765
 31
0.0
  0
LINE
  5
33E
330
A
100
AcDbEntity
  8
1
  6
CONTINUOUS
370
    50
100
AcDbLine
 10
92.5988379341
 20
168.7708351765
 30
0.0
 11
92.0424037262
 21
168.4811444714
 31
0.0
  0
LINE
  5
33F
330
A
100
AcDbEntity
  8
1
  6
CONTINUOUS
370
    50
100
AcDbLine
 10
92.0424037262
 20
168.4811444714
 30
0.0
 11
91.5342391466
 21
167.9367040356
 31
0.0
  0
LINE
  5
340
330
A
100
AcDbEntity
  8
1
  6
CONTINUOUS
370
    50
100
AcDbLine
 10
91.5342391466
 20
167.9367040356
 30
0.0
 11
91.1356363432
 21
167.2031814208
 31
0.0
  0
LINE
  5
341
330
A
100
AcDbEntity
  8
1
  6
CONTINUOUS
370
    50
100
AcDbLine
 10
91.1356363432
 20
167.2031814208
 30
0.0
 11
90.8946726969
 21
166.3690502799
 31
0.0
  0
LINE
  5
342
330
A
100
AcDbEntity
  8
1
  6
CONTINUOUS
370
    50
100
AcDbLine
 10
90.8946726969
 20
166.3690502799
 30
0.0
 11
90.8404119796
 21
165.5349191389
 31
0.0
  0
LINE
  5
343
330
A
100
AcDbEntity
  8
1
  6
CONTINUOUS
370
    50
100
AcDbLine
 10
90.8404119796
 20
165.5349191389
 30
0.0
 11
90.9793988347
 21
164.8013965241
 31
0.0
  0
LINE
  5
344
330
A
100
AcDbEntity
  8
1
  6
CONTINUOUS
370
    50
100
AcDbLine
 10
90.9793988347
 20
164.8013965241
 30
0.0
 11
91.2948693962
 21
164.2569560883
 31
0.0
  0
LINE
  5
345
330
A
100
AcDbEntity
  8
1
  6
CONTINUOUS
370
    50
100
AcDbLine
 10
91.2948693962
 20
164.2569560883
 30
0.0
 11
91.7487732586
 21
163.9672653832
 31
0.0
  0
LINE
  5
346
330
A
100
AcDbEntity
  8
1
  6
CONTINUOUS
370
    50
100
AcDbLine
 10
91.7487732586
 20
163.9672653832
 30
0.0
 11
92.2863629171
 21
163.9672653832
 31
0.0
  0
LINE
  5
347
330
A
100
AcDbEntity
  8
1
  6
CONTINUOUS
370
    50
100
AcDbLine
 10
92.2863629171
 20
163.9672653832
 30
0.0
 11
92.8427971249
 21
164.2569560883
 31
0.0
  0
LINE
  5
348
330
A
100
AcDbEntity
  8
1
  6
CONTINUOUS
370
    50
100
AcDbLine
 10
92.8427971249
 20
164.2569560883
 30
0.0
 11
93.3509617045
 21
164.8013965241
 31
0.0
  0
LINE
  5
349
330
A
100
AcDbEntity
  8
1
  6
CONTINUOUS
370
    50
100
AcDbLine
 10
93.3509617045
 20
164.8013965241
 30
0.0
 11
93.7495645079
 21
165.5349191389
 31
0.0
  0
LINE
  5
34A
330
A
100
AcDbEntity
  8
1
  6
CONTINUOUS
370
    50
100
AcDbLine
 10
93.7495645079
 20
165.5349191389
 30
0.0
 11
93.9905281543
 21
166.3690502799
 31
0.0
  0
LINE
  5
34B
330
A
100
AcDbEntity
  8
1
  6
CONTINUOUS
370
    50
100
AcDbLine
 10
84.499237504
 20
169.0929460656
 30
0.0
 11
84.2582738577
 21
168.2588149247
 31
0.0
  0
LINE
  5
34C
330
A
100
AcDbEntity
  8
1
  6
CONTINUOUS
370
    50
100
AcDbLine
 10
84.2582738577
 20
168.2588149247
 30
0.0
 11
83.8596710543
 21
167.5252923099
 31
0.0
  0
LINE
  5
34D
330
A
100
AcDbEntity
  8
1
  6
CONTINUOUS
370
    50
100
AcDbLine
 10
83.8596710543
 20
167.5252923099
 30
0.0
 11
83.3515064747
 21
166.980851874
 31
0.0
  0
LINE
  5
34E
330
A
100
AcDbEntity
  8
1
  6
CONTINUOUS
370
    50
100
AcDbLine
 10
83.3515064747
 20
166.980851874
 30
0.0
 11
82.7950722668
 21
166.6911611689
 31
0.0
  0
LINE
  5
34F
330
A
100
AcDbEntity
  8
1
  6
CONTINUOUS
370
    50
100
AcDbLine
 10
82.7950722668
 20
166.6911611689
 30
0.0
 11
82.2574826083
 21
166.6911611689
 31
0.0
  0
LINE
  5
350
330
A
100
AcDbEntity
  8
1
  6
CONTINUOUS
370
    50
100
AcDbLine
 10
82.2574826083
 20
166.6911611689
 30
0.0
 11
81.803578746
 21
166.980851874
 31
0.0
  0
LINE
  5
351
330
A
100
AcDbEntity
  8
1
  6
CONTINUOUS
370
    50
100
AcDbLine
 10
81.803578746
 20
166.980851874
 30
0.0
 11
81.4881081844
 21
167.5252923099
 31
0.0
  0
LINE
  5
352
330
A
100
AcDbEntity
  8
1
  6
CONTINUOUS
370
    50
100
AcDbLine
 10
81.4881081844
 20
167.5252923099
 30
0.0
 11
81.3491213293
 21
168.2588149247
 31
0.0
  0
LINE
  5
353
330
A
100
AcDbEntity
  8
1
  6
CONTINUOUS
370
    50
100
AcDbLine
 10
81.3491213293
 20
168.2588149247
 30
0.0
 11
81.4033820466
 21
169.0929460656
 31
0.0
  0
LINE
  5
354
330
A
100
AcDbEntity
  8
1
  6
CONTINUOUS
370
    50
100
AcDbLine
 10
81.4033820466
 20
169.0929460656
 30
0.0
 11
81.6443456929
 21
169.9270772065
 31
0.0
  0
LINE
  5
355
330
A
100
AcDbEntity
  8
1
  6
CONTINUOUS
370
    50
100
AcDbLine
 10
81.6443456929
 20
169.9270772065
 30
0.0
 11
82.0429484963
 21
170.6605998214
 31
0.0
  0
LINE
  5
356
330
A
100
AcDbEntity
  8
1
  6
CONTINUOUS
370
    50
100
AcDbLine
 10
82.0429484963
 20
170.6605998214
 30
0.0
 11
82.551113076
 21
171.2050402572
 31
0.0
  0
LINE
  5
357
330
A
100
AcDbEntity
  8
1
  6
CONTINUOUS
370
    50
100
AcDbLine
 10
82.551113076
 20
171.2050402572
 30
0.0
 11
83.1075472838
 21
171.4947309623
 31
0.0
  0
LINE
  5
358
330
A
100
AcDbEntity
  8
1
  6
CONTINUOUS
370
    50
100
AcDbLine
 10
83.1075472838
 20
171.4947309623
 30
0.0
 11
83.6451369423
 21
171.4947309623
 31
0.0
  0
LINE
  5
359
330
A
100
AcDbEntity
  8
1
  6
CONTINUOUS
370
    50
100
AcDbLine
 10
83.6451369423
 20
171.4947309623
 30
0.0
 11
84.0990408047
 21
171.2050402572
 31
0.0
  0
LINE
  5
35A
330
A
100
AcDbEntity
  8
1
  6
CONTINUOUS
370
    50
100
AcDbLine
 10
84.0990408047
 20
171.2050402572
 30
0.0
 11
84.4145113662
 21
170.6605998214
 31
0.0
  0
LINE
  5
35B
330
A
100
AcDbEntity
  8
1
  6
CONTINUOUS
370
    50
100
AcDbLine
 10
84.4145113662
 20
170.6605998214
 30
0.0
 11
84.5534982213
 21
169.9270772065
 31
0.0
  0
LINE
  5
35C
330
A
100
AcDbEntity
  8
1
  6
CONTINUOUS
370
    50
100
AcDbLine
 10
84.5534982213
 20
169.9270772065
 30
0.0
 11
84.499237504
 21
169.0929460656
 31
0.0
  0
LINE
  5
35D
330
A
100
AcDbEntity
  8
1
  6
CONTINUOUS
370
    50
100
AcDbLine
 10
199.8998727712
 20
183.0124356674
 30
0.0
 11
187.7498727712
 21
183.0124356674
 31
0.0
  0
LINE
  5
35E
330
A
100
AcDbEntity
  8
1
  6
CONTINUOUS
370
    50
100
AcDbLine
 10
187.7498727712
 20
177.0124356674
 30
0.0
 11
199.8998727712
 21
177.0124356674
 31
0.0
  0
LINE
  5
35F
330
A
100
AcDbEntity
  8
1
  6
CONTINUOUS
370
    50
100
AcDbLine
 10
199.8998727712
 20
183.0124356674
 30
0.0
 11
199.8998727712
 21
183.0021891464
 31
0.0
  0
LINE
  5
360
330
A
100
AcDbEntity
  8
1
  6
CONTINUOUS
370
    50
100
AcDbLine
 10
199.8998727712
 20
183.0021891464
 30
0.0
 11
199.8998727712
 21
177.0124356674
 31
0.0
  0
LINE
  5
361
330
A
100
AcDbEntity
  8
1
  6
CONTINUOUS
370
    50
100
AcDbLine
 10
199.8998727712
 20
182.5124356674
 30
0.0
 11
199.8998727712
 21
182.4744550499
 31
0.0
  0
LINE
  5
362
330
A
100
AcDbEntity
  8
1
  6
CONTINUOUS
370
    50
100
AcDbLine
 10
199.8998727712
 20
182.4744550499
 30
0.0
 11
199.8998727712
 21
180.0124356674
 31
0.0
  0
ENDSEC
  0
SECTION
  2
OBJECTS
  0
DICTIONARY
  5
19
330
0
100
AcDbDictionary
281
     1
  3
ACAD_GROUP
350
1A
  3
ACAD_LAYOUT
350
387
  3
ACAD_MATERIAL
350
39B
  3
ACAD_MLEADERSTYLE
350
3A3
  3
ACAD_MLINESTYLE
350
1B
  3
ACAD_SCALELIST
350
365
  3
ACAD_VISUALSTYLE
350
38A
  3
ACDB_RECOMPOSE_DATA
350
3D0
  3
AcDbVariableDictionary
350
3A1
  0
DICTIONARY
  5
3A7
330
7
100
AcDbDictionary
280
     1
281
     1
  3
ACAD_XREC_ROUNDTRIP
360
3A8
  0
DICTIONARY
  5
1A
102
{ACAD_REACTORS
330
19
102
}
330
19
100
AcDbDictionary
281
     1
  0
DICTIONARY
  5
387
102
{ACAD_REACTORS
330
19
102
}
330
19
100
AcDbDictionary
281
     1
  3
Layout1
350
389
  3
Model
350
388
  0
DICTIONARY
  5
39B
102
{ACAD_REACTORS
330
19
102
}
330
19
100
AcDbDictionary
281
     1
  3
ByBlock
350
39D
  3
ByLayer
350
39C
  3
Global
350
39E
  0
DICTIONARY
  5
3A3
102
{ACAD_REACTORS
330
19
102
}
330
19
100
AcDbDictionary
281
     1
  0
DICTIONARY
  5
1B
102
{ACAD_REACTORS
330
19
102
}
330
19
100
AcDbDictionary
281
     1
  3
STANDARD
350
1C
  0
DICTIONARY
  5
365
102
{ACAD_REACTORS
330
19
102
}
330
19
100
AcDbDictionary
281
     1
  3
A0
350
366
  3
A1
350
367
  3
A2
350
368
  3
A3
350
369
  3
A4
350
36A
  3
A5
350
36B
  3
A6
350
36C
  3
A7
350
36D
  3
A8
350
36E
  3
A9
350
36F
  3
B0
350
370
  3
B1
350
371
  3
B2
350
372
  3
B3
350
373
  3
B4
350
374
  3
B5
350
375
  3
B6
350
376
  3
B7
350
377
  3
B8
350
378
  3
B9
350
379
  3
C0
350
37A
  3
C1
350
37B
  3
C2
350
37C
  3
C3
350
37D
  3
C4
350
37E
  3
C5
350
37F
  3
C6
350
380
  3
C7
350
381
  3
C8
350
382
  3
C9
350
383
  3
D0
350
384
  3
D1
350
385
  3
D2
350
386
  0
DICTIONARY
  5
38A
102
{ACAD_REACTORS
330
19
102
}
330
19
100
AcDbDictionary
281
     1
  3
2dWireframe
350
38F
  3
3D Hidden
350
391
  3
3dWireframe
350
390
  3
Basic
350
392
  3
Brighten
350
396
  3
ColorChange
350
39A
  3
Conceptual
350
394
  3
Dim
350
395
  3
Facepattern
350
399
  3
Flat
350
38B
  3
FlatWithEdges
350
38C
  3
Gouraud
350
38D
  3
GouraudWithEdges
350
38E
  3
Linepattern
350
398
  3
Realistic
350
393
  3
Thicken
350
397
  0
XRECORD
  5
3D0
102
{ACAD_REACTORS
330
19
102
}
330
19
100
AcDbXrecord
280
     1
  0
DICTIONARY
  5
3A1
102
{ACAD_REACTORS
330
19
102
}
330
19
100
AcDbDictionary
281
     1
  3
CANNOSCALE
350
3A9
  3
DIMASSOC
350
3A5
  3
HIDETEXT
350
3A6
  3
MSLTSCALE
350
3A4
  0
XRECORD
  5
3A8
102
{ACAD_REACTORS
330
3A7
102
}
330
3A7
100
AcDbXrecord
280
     1
102
VTR_0.000_0.000_1.000_1.000_VISUALSTYLE
340
38F
102
VTR_0.000_0.000_1.000_1.000_GRIDDISPLAY
 70
     3
102
VTR_0.000_0.000_1.000_1.000_GRIDMAJOR
 70
     5
102
VTR_0.000_0.000_1.000_1.000_DEFAULTLIGHTING
280
     1
102
VTR_0.000_0.000_1.000_1.000_DEFAULTLIGHTINGTYPE
 70
     1
102
VTR_0.000_0.000_1.000_1.000_BRIGHTNESS
141
0.0
102
VTR_0.000_0.000_1.000_1.000_CONTRAST
142
0.0
  0
LAYOUT
  5
389
102
{ACAD_REACTORS
330
387
102
}
330
387
100
AcDbPlotSettings
  1

  2
none_device
  4

  6

 40
0.0
 41
0.0
 42
0.0
 43
0.0
 44
0.0
 45
0.0
 46
0.0
 47
0.0
 48
0.0
 49
0.0
140
0.0
141
0.0
142
1.0
143
1.0
 70
   688
 72
     0
 73
     0
 74
     5
  7

 75
    16
147
1.0
148
0.0
149
0.0
100
AcDbLayout
  1
Layout1
 70
     1
 71
     1
 10
0.0
 20
0.0
 11
12.0
 21
9.0
 12
0.0
 22
0.0
 32
0.0
 14
1.000000000000000E+20
 24
1.000000000000000E+20
 34
1.000000000000000E+20
 15
-1.000000000000000E+20
 25
-1.000000000000000E+20
 35
-1.000000000000000E+20
146
0.0
 13
0.0
 23
0.0
 33
0.0
 16
1.0
 26
0.0
 36
0.0
 17
0.0
 27
1.0
 37
0.0
 76
     0
330
B
  0
LAYOUT
  5
388
102
{ACAD_REACTORS
330
387
102
}
330
387
100
AcDbPlotSettings
  1

  2
none_device
  4

  6

 40
0.0
 41
0.0
 42
0.0
 43
0.0
 44
0.0
 45
0.0
 46
0.0
 47
0.0
 48
0.0
 49
0.0
140
0.0
141
0.0
142
1.0
143
1.0
 70
  1712
 72
     0
 73
     0
 74
     0
  7

 75
     0
147
1.0
148
2667.54428576817
149
0.0
100
AcDbLayout
  1
Model
 70
     1
 71
     0
 10
0.0
 20
0.0
 11
0.0
 21
0.0
 12
0.0
 22
0.0
 32
0.0
 14
0.0
 24
0.0
 34
0.0
 15
210.0
 25
297.0
 35
0.0
146
0.0
 13
0.0
 23
0.0
 33
0.0
 16
1.0
 26
0.0
 36
0.0
 17
0.0
 27
1.0
 37
0.0
 76
     0
330
A
331
15
  0
MATERIAL
  5
39D
102
{ACAD_REACTORS
330
39B
102
}
102
{ACAD_XDICTIONARY
360
3CC
102
}
330
39B
100
AcDbMaterial
  1
ByBlock
  0
MATERIAL
  5
39C
102
{ACAD_REACTORS
330
39B
102
}
102
{ACAD_XDICTIONARY
360
3CA
102
}
330
39B
100
AcDbMaterial
  1
ByLayer
  0
MATERIAL
  5
39E
102
{ACAD_REACTORS
330
39B
102
}
102
{ACAD_XDICTIONARY
360
3CE
102
}
330
39B
100
AcDbMaterial
  1
Global
  0
MLINESTYLE
  5
1C
102
{ACAD_REACTORS
330
1B
102
}
330
1B
100
AcDbMlineStyle
  2
STANDARD
 70
     0
  3

 62
     0
 51
90.0
 52
90.0
 71
     2
 49
0.5
 62
   256
  6
BYLAYER
 49
-0.5
 62
   256
  6
BYLAYER
  0
SCALE
  5
366
102
{ACAD_REACTORS
330
365
102
}
330
365
100
AcDbScale
 70
     0
300
1:1
140
1.0
141
1.0
290
     1
  0
SCALE
  5
367
102
{ACAD_REACTORS
330
365
102
}
330
365
100
AcDbScale
 70
     0
300
1:2
140
1.0
141
2.0
290
     0
  0
SCALE
  5
368
102
{ACAD_REACTORS
330
365
102
}
330
365
100
AcDbScale
 70
     0
300
1:4
140
1.0
141
4.0
290
     0
  0
SCALE
  5
369
102
{ACAD_REACTORS
330
365
102
}
330
365
100
AcDbScale
 70
     0
300
1:5
140
1.0
141
5.0
290
     0
  0
SCALE
  5
36A
102
{ACAD_REACTORS
330
365
102
}
330
365
100
AcDbScale
 70
     0
300
1:8
140
1.0
141
8.0
290
     0
  0
SCALE
  5
36B
102
{ACAD_REACTORS
330
365
102
}
330
365
100
AcDbScale
 70
     0
300
1:10
140
1.0
141
10.0
290
     0
  0
SCALE
  5
36C
102
{ACAD_REACTORS
330
365
102
}
330
365
100
AcDbScale
 70
     0
300
1:16
140
1.0
141
16.0
290
     0
  0
SCALE
  5
36D
102
{ACAD_REACTORS
330
365
102
}
330
365
100
AcDbScale
 70
     0
300
1:20
140
1.0
141
20.0
290
     0
  0
SCALE
  5
36E
102
{ACAD_REACTORS
330
365
102
}
330
365
100
AcDbScale
 70
     0
300
1:30
140
1.0
141
30.0
290
     0
  0
SCALE
  5
36F
102
{ACAD_REACTORS
330
365
102
}
330
365
100
AcDbScale
 70
     0
300
1:40
140
1.0
141
40.0
290
     0
  0
SCALE
  5
370
102
{ACAD_REACTORS
330
365
102
}
330
365
100
AcDbScale
 70
     0
300
1:50
140
1.0
141
50.0
290
     0
  0
SCALE
  5
371
102
{ACAD_REACTORS
330
365
102
}
330
365
100
AcDbScale
 70
     0
300
1:100
140
1.0
141
100.0
290
     0
  0
SCALE
  5
372
102
{ACAD_REACTORS
330
365
102
}
330
365
100
AcDbScale
 70
     0
300
2:1
140
2.0
141
1.0
290
     0
  0
SCALE
  5
373
102
{ACAD_REACTORS
330
365
102
}
330
365
100
AcDbScale
 70
     0
300
4:1
140
4.0
141
1.0
290
     0
  0
SCALE
  5
374
102
{ACAD_REACTORS
330
365
102
}
330
365
100
AcDbScale
 70
     0
300
8:1
140
8.0
141
1.0
290
     0
  0
SCALE
  5
375
102
{ACAD_REACTORS
330
365
102
}
330
365
100
AcDbScale
 70
     0
300
10:1
140
10.0
141
1.0
290
     0
  0
SCALE
  5
376
102
{ACAD_REACTORS
330
365
102
}
330
365
100
AcDbScale
 70
     0
300
100:1
140
100.0
141
1.0
290
     0
  0
SCALE
  5
377
102
{ACAD_REACTORS
330
365
102
}
330
365
100
AcDbScale
 70
     0
300
1/128" = 1'-0"
140
0.0078125
141
12.0
290
     0
  0
SCALE
  5
378
102
{ACAD_REACTORS
330
365
102
}
330
365
100
AcDbScale
 70
     0
300
1/64" = 1'-0"
140
0.015625
141
12.0
290
     0
  0
SCALE
  5
379
102
{ACAD_REACTORS
330
365
102
}
330
365
100
AcDbScale
 70
     0
300
1/32" = 1'-0"
140
0.03125
141
12.0
290
     0
  0
SCALE
  5
37A
102
{ACAD_REACTORS
330
365
102
}
330
365
100
AcDbScale
 70
     0
300
1/16" = 1'-0"
140
0.0625
141
12.0
290
     0
  0
SCALE
  5
37B
102
{ACAD_REACTORS
330
365
102
}
330
365
100
AcDbScale
 70
     0
300
3/32" = 1'-0"
140
0.09375
141
12.0
290
     0
  0
SCALE
  5
37C
102
{ACAD_REACTORS
330
365
102
}
330
365
100
AcDbScale
 70
     0
300
1/8" = 1'-0"
140
0.125
141
12.0
290
     0
  0
SCALE
  5
37D
102
{ACAD_REACTORS
330
365
102
}
330
365
100
AcDbScale
 70
     0
300
3/16" = 1'-0"
140
0.1875
141
12.0
290
     0
  0
SCALE
  5
37E
102
{ACAD_REACTORS
330
365
102
}
330
365
100
AcDbScale
 70
     0
300
1/4" = 1'-0"
140
0.25
141
12.0
290
     0
  0
SCALE
  5
37F
102
{ACAD_REACTORS
330
365
102
}
330
365
100
AcDbScale
 70
     0
300
3/8" = 1'-0"
140
0.375
141
12.0
290
     0
  0
SCALE
  5
380
102
{ACAD_REACTORS
330
365
102
}
330
365
100
AcDbScale
 70
     0
300
1/2" = 1'-0"
140
0.5
141
12.0
290
     0
  0
SCALE
  5
381
102
{ACAD_REACTORS
330
365
102
}
330
365
100
AcDbScale
 70
     0
300
3/4" = 1'-0"
140
0.75
141
12.0
290
     0
  0
SCALE
  5
382
102
{ACAD_REACTORS
330
365
102
}
330
365
100
AcDbScale
 70
     0
300
1" = 1'-0"
140
1.0
141
12.0
290
     0
  0
SCALE
  5
383
102
{ACAD_REACTORS
330
365
102
}
330
365
100
AcDbScale
 70
     0
300
1-1/2" = 1'-0"
140
1.5
141
12.0
290
     0
  0
SCALE
  5
384
102
{ACAD_REACTORS
330
365
102
}
330
365
100
AcDbScale
 70
     0
300
3" = 1'-0"
140
3.0
141
12.0
290
     0
  0
SCALE
  5
385
102
{ACAD_REACTORS
330
365
102
}
330
365
100
AcDbScale
 70
     0
300
6" = 1'-0"
140
6.0
141
12.0
290
     0
  0
SCALE
  5
386
102
{ACAD_REACTORS
330
365
102
}
330
365
100
AcDbScale
 70
     0
300
1'-0" = 1'-0"
140
12.0
141
12.0
290
     0
  0
VISUALSTYLE
  5
38F
102
{ACAD_REACTORS
330
38A
102
}
102
{ACAD_XDICTIONARY
360
3B2
102
}
330
38A
100
AcDbVisualStyle
  2
2dWireframe
 70
     4
 71
     0
 72
     2
 73
     0
 90
        0
 40
-0.6
 41
-30.0
 62
     5
 63
     7
 74
     1
 91
        4
 64
     7
 65
   257
 75
     1
175
     1
 42
1.0
 92
        0
 66
   257
 43
1.0
 76
     1
 77
     6
 78
     2
 67
     7
 79
     5
170
     0
171
     0
290
     0
174
     0
 93
        1
 44
0.0
173
     0
291
     0
 45
0.0
1001
ACAD
1000
AcDbSavedByObjectVersion
1070
     0
  0
VISUALSTYLE
  5
391
102
{ACAD_REACTORS
330
38A
102
}
102
{ACAD_XDICTIONARY
360
3B6
102
}
330
38A
100
AcDbVisualStyle
  2
3D Hidden
 70
     6
 71
     1
 72
     2
 73
     2
 90
        0
 40
-0.6
 41
-30.0
 62
     5
 63
     7
 74
     2
 91
        2
 64
     7
 65
   257
 75
     2
175
     1
 42
40.0
 92
        0
 66
   257
 43
1.0
 76
     1
 77
     6
 78
     2
 67
     7
 79
     3
170
     0
171
     0
290
     0
174
     0
 93
        1
 44
0.0
173
     0
291
     0
 45
0.0
1001
ACAD
1000
AcDbSavedByObjectVersion
1070
     0
  0
VISUALSTYLE
  5
390
102
{ACAD_REACTORS
330
38A
102
}
102
{ACAD_XDICTIONARY
360
3B4
102
}
330
38A
100
AcDbVisualStyle
  2
3dWireframe
 70
     5
 71
     0
 72
     2
 73
     0
 90
        0
 40
-0.6
 41
-30.0
 62
     5
 63
     7
 74
     1
 91
        4
 64
     7
 65
   257
 75
     1
175
     1
 42
1.0
 92
        0
 66
   257
 43
1.0
 76
     1
 77
     6
 78
     2
 67
     7
 79
     5
170
     0
171
     0
290
     0
174
     0
 93
        1
 44
0.0
173
     0
291
     0
 45
0.0
1001
ACAD
1000
AcDbSavedByObjectVersion
1070
     0
  0
VISUALSTYLE
  5
392
102
{ACAD_REACTORS
330
38A
102
}
102
{ACAD_XDICTIONARY
360
3B8
102
}
330
38A
100
AcDbVisualStyle
  2
Basic
 70
     7
 71
     1
 72
     0
 73
     1
 90
        0
 40
-0.6
 41
-30.0
 62
     5
 63
     7
 74
     0
 91
        4
 64
     7
 65
   257
 75
     1
175
     1
 42
1.0
 92
        8
 66
     7
 43
1.0
 76
     1
 77
     6
 78
     2
 67
     7
 79
     5
170
     0
171
     0
290
     0
174
     0
 93
        1
 44
0.0
173
     0
291
     1
 45
0.0
1001
ACAD
1000
AcDbSavedByObjectVersion
1070
     0
  0
VISUALSTYLE
  5
396
102
{ACAD_REACTORS
330
38A
102
}
102
{ACAD_XDICTIONARY
360
3C0
102
}
330
38A
100
AcDbVisualStyle
  2
Brighten
 70
    12
 71
     2
 72
     2
 73
     0
 90
        0
 40
-0.6
 41
-30.0
 62
     5
 63
     7
 74
     1
 91
        4
 64
     7
 65
   257
 75
     1
175
     1
 42
1.0
 92
        8
 66
     7
 43
1.0
 76
     1
 77
     6
 78
     2
 67
     7
 79
     5
170
     0
171
     0
290
     0
174
     0
 93
        1
 44
50.0
173
     0
291
     1
 45
0.0
1001
ACAD
1000
AcDbSavedByObjectVersion
1070
     0
  0
VISUALSTYLE
  5
39A
102
{ACAD_REACTORS
330
38A
102
}
102
{ACAD_XDICTIONARY
360
3C8
102
}
330
38A
100
AcDbVisualStyle
  2
ColorChange
 70
    16
 71
     2
 72
     2
 73
     3
 90
        0
 40
-0.6
 41
-30.0
 62
     5
 63
     8
 74
     1
 91
        4
 64
     7
 65
   257
 75
     1
175
     1
 42
1.0
 92
        8
 66
     8
 43
1.0
 76
     1
 77
     6
 78
     2
 67
     7
 79
     5
170
     0
171
     0
290
     0
174
     0
 93
        1
 44
0.0
173
     0
291
     1
 45
0.0
1001
ACAD
1000
AcDbSavedByObjectVersion
1070
     0
  0
VISUALSTYLE
  5
394
102
{ACAD_REACTORS
330
38A
102
}
102
{ACAD_XDICTIONARY
360
3BC
102
}
330
38A
100
AcDbVisualStyle
  2
Conceptual
 70
     9
 71
     3
 72
     2
 73
     0
 90
        0
 40
-0.6
 41
-30.0
 62
     5
 63
     7
 74
     2
 91
        2
 64
     7
 65
   257
 75
     1
175
     1
 42
40.0
 92
        8
 66
     7
 43
1.0
 76
     1
 77
     6
 78
     2
 67
     7
 79
     3
170
     0
171
     0
290
     0
174
     0
 93
        1
 44
0.0
173
     0
291
     0
 45
0.0
1001
ACAD
1000
AcDbSavedByObjectVersion
1070
     0
  0
VISUALSTYLE
  5
395
102
{ACAD_REACTORS
330
38A
102
}
102
{ACAD_XDICTIONARY
360
3BE
102
}
330
38A
100
AcDbVisualStyle
  2
Dim
 70
    11
 71
     2
 72
     2
 73
     0
 90
        0
 40
-0.6
 41
-30.0
 62
     5
 63
     7
 74
     1
 91
        4
 64
     7
 65
   257
 75
     1
175
     1
 42
1.0
 92
        8
 66
     7
 43
1.0
 76
     1
 77
     6
 78
     2
 67
     7
 79
     5
170
     0
171
     0
290
     0
174
     0
 93
        1
 44
-50.0
173
     0
291
     1
 45
0.0
1001
ACAD
1000
AcDbSavedByObjectVersion
1070
     0
  0
VISUALSTYLE
  5
399
102
{ACAD_REACTORS
330
38A
102
}
102
{ACAD_XDICTIONARY
360
3C6
102
}
330
38A
100
AcDbVisualStyle
  2
Facepattern
 70
    15
 71
     2
 72
     2
 73
     0
 90
        0
 40
-0.6
 41
-30.0
 62
     5
 63
     7
 74
     1
 91
        4
 64
     7
 65
   257
 75
     1
175
     1
 42
1.0
 92
        8
 66
     7
 43
1.0
 76
     1
 77
     6
 78
     2
 67
     7
 79
     5
170
     0
171
     0
290
     0
174
     0
 93
        1
 44
0.0
173
     0
291
     1
 45
0.0
1001
ACAD
1000
AcDbSavedByObjectVersion
1070
     0
  0
VISUALSTYLE
  5
38B
102
{ACAD_REACTORS
330
38A
102
}
102
{ACAD_XDICTIONARY
360
3AA
102
}
330
38A
100
AcDbVisualStyle
  2
Flat
 70
     0
 71
     2
 72
     1
 73
     1
 90
        2
 40
-0.6
 41
30.0
 62
     5
 63
     7
 74
     0
 91
        4
 64
     7
 65
   257
 75
     1
175
     1
 42
1.0
 92
        8
 66
     7
 43
1.0
 76
     1
 77
     6
 78
     2
 67
     7
 79
     5
170
     0
171
     0
290
     0
174
     0
 93
       13
 44
0.0
173
     0
291
     1
 45
0.0
1001
ACAD
1000
AcDbSavedByObjectVersion
1070
     0
  0
VISUALSTYLE
  5
38C
102
{ACAD_REACTORS
330
38A
102
}
102
{ACAD_XDICTIONARY
360
3AC
102
}
330
38A
100
AcDbVisualStyle
  2
FlatWithEdges
 70
     1
 71
     2
 72
     1
 73
     1
 90
        2
 40
-0.6
 41
30.0
 62
     5
 63
     7
 74
     1
 91
        4
 64
     7
 65
   257
 75
     1
175
     1
 42
1.0
 92
        0
 66
   257
 43
1.0
 76
     1
 77
     6
 78
     2
 67
     7
 79
     5
170
     0
171
     0
290
     0
174
     0
 93
       13
 44
0.0
173
     0
291
     1
 45
0.0
1001
ACAD
1000
AcDbSavedByObjectVersion
1070
     0
  0
VISUALSTYLE
  5
38D
102
{ACAD_REACTORS
330
38A
102
}
102
{ACAD_XDICTIONARY
360
3AE
102
}
330
38A
100
AcDbVisualStyle
  2
Gouraud
 70
     2
 71
     2
 72
     2
 73
     1
 90
        2
 40
-0.6
 41
30.0
 62
     5
 63
     7
 74
     0
 91
        4
 64
     7
 65
   257
 75
     1
175
     1
 42
1.0
 92
        0
 66
     7
 43
1.0
 76
     1
 77
     6
 78
     2
 67
     7
 79
     5
170
     0
171
     0
290
     0
174
     0
 93
       13
 44
0.0
173
     0
291
     1
 45
0.0
1001
ACAD
1000
AcDbSavedByObjectVersion
1070
     0
  0
VISUALSTYLE
  5
38E
102
{ACAD_REACTORS
330
38A
102
}
102
{ACAD_XDICTIONARY
360
3B0
102
}
330
38A
100
AcDbVisualStyle
  2
GouraudWithEdges
 70
     3
 71
     2
 72
     2
 73
     1
 90
        2
 40
-0.6
 41
30.0
 62
     5
 63
     7
 74
     1
 91
        4
 64
     7
 65
   257
 75
     1
175
     1
 42
1.0
 92
        0
 66
   257
 43
1.0
 76
     1
 77
     6
 78
     2
 67
     7
 79
     5
170
     0
171
     0
290
     0
174
     0
 93
       13
 44
0.0
173
     0
291
     1
 45
0.0
1001
ACAD
1000
AcDbSavedByObjectVersion
1070
     0
  0
VISUALSTYLE
  5
398
102
{ACAD_REACTORS
330
38A
102
}
102
{ACAD_XDICTIONARY
360
3C4
102
}
330
38A
100
AcDbVisualStyle
  2
Linepattern
 70
    14
 71
     2
 72
     2
 73
     0
 90
        0
 40
-0.6
 41
-30.0
 62
     5
 63
     7
 74
     1
 91
        4
 64
     7
 65
   257
 75
     7
175
     7
 42
1.0
 92
        8
 66
     7
 43
1.0
 76
     1
 77
     6
 78
     2
 67
     7
 79
     5
170
     0
171
     0
290
     0
174
     0
 93
        1
 44
0.0
173
     0
291
     1
 45
0.0
1001
ACAD
1000
AcDbSavedByObjectVersion
1070
     0
  0
VISUALSTYLE
  5
393
102
{ACAD_REACTORS
330
38A
102
}
102
{ACAD_XDICTIONARY
360
3BA
102
}
330
38A
100
AcDbVisualStyle
  2
Realistic
 70
     8
 71
     2
 72
     2
 73
     0
 90
        0
 40
-0.6
 41
-30.0
 62
     5
 63
     7
 74
     1
 91
        0
 64
     7
 65
   257
 75
     1
175
     1
 42
1.0
 92
        8
 66
     8
 43
1.0
 76
     1
 77
     6
 78
     2
 67
     7
 79
     5
170
     0
171
     0
290
     0
174
     0
 93
       13
 44
0.0
173
     0
291
     0
 45
0.0
1001
ACAD
1000
AcDbSavedByObjectVersion
1070
     0
  0
VISUALSTYLE
  5
397
102
{ACAD_REACTORS
330
38A
102
}
102
{ACAD_XDICTIONARY
360
3C2
102
}
330
38A
100
AcDbVisualStyle
  2
Thicken
 70
    13
 71
     2
 72
     2
 73
     0
 90
        0
 40
-0.6
 41
-30.0
 62
     5
 63
     7
 74
     1
 91
        4
 64
     7
 65
   257
 75
     1
175
     1
 42
1.0
 92
       12
 66
     7
 43
1.0
 76
     1
 77
     6
 78
     2
 67
     7
 79
     5
170
     0
171
     0
290
     0
174
     0
 93
        1
 44
0.0
173
     0
291
     1
 45
0.0
1001
ACAD
1000
AcDbSavedByObjectVersion
1070
     0
  0
DICTIONARYVAR
  5
3A9
102
{ACAD_REACTORS
330
3A1
102
}
330
3A1
100
DictionaryVariables
280
     0
  1
1:1
  0
DICTIONARYVAR
  5
3A5
102
{ACAD_REACTORS
330
3A1
102
}
330
3A1
100
DictionaryVariables
280
     0
  1
2
  0
DICTIONARYVAR
  5
3A6
102
{ACAD_REACTORS
330
3A1
102
}
330
3A1
100
DictionaryVariables
280
     0
  1
1
  0
DICTIONARYVAR
  5
3A4
102
{ACAD_REACTORS
330
3A1
102
}
330
3A1
100
DictionaryVariables
280
     0
  1
0
  0
DICTIONARY
  5
3CC
330
39D
100
AcDbDictionary
280
     1
281
     1
  3
ACAD_XREC_ROUNDTRIP
360
3CD
  0
DICTIONARY
  5
3CA
330
39C
100
AcDbDictionary
280
     1
281
     1
  3
ACAD_XREC_ROUNDTRIP
360
3CB
  0
DICTIONARY
  5
3CE
330
39E
100
AcDbDictionary
280
     1
281
     1
  3
ACAD_XREC_ROUNDTRIP
360
3CF
  0
DICTIONARY
  5
3B2
330
38F
100
AcDbDictionary
280
     1
281
     1
  3
ACAD_XREC_ROUNDTRIP
360
3B3
  0
DICTIONARY
  5
3B6
330
391
100
AcDbDictionary
280
     1
281
     1
  3
ACAD_XREC_ROUNDTRIP
360
3B7
  0
DICTIONARY
  5
3B4
330
390
100
AcDbDictionary
280
     1
281
     1
  3
ACAD_XREC_ROUNDTRIP
360
3B5
  0
DICTIONARY
  5
3B8
330
392
100
AcDbDictionary
280
     1
281
     1
  3
ACAD_XREC_ROUNDTRIP
360
3B9
  0
DICTIONARY
  5
3C0
330
396
100
AcDbDictionary
280
     1
281
     1
  3
ACAD_XREC_ROUNDTRIP
360
3C1
  0
DICTIONARY
  5
3C8
330
39A
100
AcDbDictionary
280
     1
281
     1
  3
ACAD_XREC_ROUNDTRIP
360
3C9
  0
DICTIONARY
  5
3BC
330
394
100
AcDbDictionary
280
     1
281
     1
  3
ACAD_XREC_ROUNDTRIP
360
3BD
  0
DICTIONARY
  5
3BE
330
395
100
AcDbDictionary
280
     1
281
     1
  3
ACAD_XREC_ROUNDTRIP
360
3BF
  0
DICTIONARY
  5
3C6
330
399
100
AcDbDictionary
280
     1
281
     1
  3
ACAD_XREC_ROUNDTRIP
360
3C7
  0
DICTIONARY
  5
3AA
330
38B
100
AcDbDictionary
280
     1
281
     1
  3
ACAD_XREC_ROUNDTRIP
360
3AB
  0
DICTIONARY
  5
3AC
330
38C
100
AcDbDictionary
280
     1
281
     1
  3
ACAD_XREC_ROUNDTRIP
360
3AD
  0
DICTIONARY
  5
3AE
330
38D
100
AcDbDictionary
280
     1
281
     1
  3
ACAD_XREC_ROUNDTRIP
360
3AF
  0
DICTIONARY
  5
3B0
330
38E
100
AcDbDictionary
280
     1
281
     1
  3
ACAD_XREC_ROUNDTRIP
360
3B1
  0
DICTIONARY
  5
3C4
330
398
100
AcDbDictionary
280
     1
281
     1
  3
ACAD_XREC_ROUNDTRIP
360
3C5
  0
DICTIONARY
  5
3BA
330
393
100
AcDbDictionary
280
     1
281
     1
  3
ACAD_XREC_ROUNDTRIP
360
3BB
  0
DICTIONARY
  5
3C2
330
397
100
AcDbDictionary
280
     1
281
     1
  3
ACAD_XREC_ROUNDTRIP
360
3C3
  0
XRECORD
  5
3CD
102
{ACAD_REACTORS
330
3CC
102
}
330
3CC
100
AcDbXrecord
280
     1
102
MATERIAL
148
0.0
149
0.0
149
0.0
 93
        0
 94
      127
282
     0
 72
     1
 77
     1
171
     1
175
     1
179
     1
273
     0
  0
XRECORD
  5
3CB
102
{ACAD_REACTORS
330
3CA
102
}
330
3CA
100
AcDbXrecord
280
     1
102
MATERIAL
148
0.0
149
0.0
149
0.0
 93
        0
 94
      127
282
     0
 72
     1
 77
     1
171
     1
175
     1
179
     1
273
     0
  0
XRECORD
  5
3CF
102
{ACAD_REACTORS
330
3CE
102
}
330
3CE
100
AcDbXrecord
280
     1
102
MATERIAL
148
0.0
149
0.0
149
0.0
 93
        0
 94
      127
282
     0
 72
     1
 77
     1
171
     1
175
     1
179
     1
273
     0
  0
XRECORD
  5
3B3
102
{ACAD_REACTORS
330
3B2
102
}
330
3B2
100
AcDbXrecord
280
     1
102
RTVSPropertyOp0
 70
     1
102
RTVSPropertyOp1
 70
     1
102
RTVSPropertyOp2
 70
     1
102
RTVSPropertyOp3
 70
     1
102
RTVSPropertyOp4
 70
     1
102
RTVSPropertyOp5
 70
     1
102
RTVSPropertyOp6
 70
     1
102
RTVSPropertyOp7
 70
     1
102
RTVSPropertyOp8
 70
     1
102
RTVSPropertyOp9
 70
     1
102
RTVSPropertyOp10
 70
     1
102
RTVSPropertyOp11
 70
     1
102
RTVSPropertyOp12
 70
     1
102
RTVSPropertyOp13
 70
     1
102
RTVSPropertyOp14
 70
     1
102
RTVSPropertyOp15
 70
     1
102
RTVSPropertyOp16
 70
     1
102
RTVSPropertyOp17
 70
     1
102
RTVSPropertyOp18
 70
     1
102
RTVSPropertyOp19
 70
     1
102
RTVSPropertyOp20
 70
     1
102
RTVSPropertyOp21
 70
     1
102
RTVSPropertyOp22
 70
     1
102
RTVSPropertyOp23
 70
     1
102
RTVSPropertyOp24
 70
     1
102
RTVSPropertyOp25
 70
     1
102
RTVSPropertyOp26
 70
     1
102
RTVSPropertyOp27
 70
     1
102
RTVSPropertyOp28
 70
     1
102
RTVSPropertyOp29
 70
     1
102
RTVSPropertyOp30
 70
     1
102
RTVSPropertyOp31
 70
     1
102
RTVSPropertyOp32
 70
     1
  0
XRECORD
  5
3B7
102
{ACAD_REACTORS
330
3B6
102
}
330
3B6
100
AcDbXrecord
280
     1
102
RTVSPropertyOp0
 70
     1
102
RTVSPropertyOp1
 70
     1
102
RTVSPropertyOp2
 70
     1
102
RTVSPropertyOp3
 70
     1
102
RTVSPropertyOp4
 70
     1
102
RTVSPropertyOp5
 70
     1
102
RTVSPropertyOp6
 70
     1
102
RTVSPropertyOp7
 70
     1
102
RTVSPropertyOp8
 70
     1
102
RTVSPropertyOp9
 70
     1
102
RTVSPropertyOp10
 70
     1
102
RTVSPropertyOp11
 70
     1
102
RTVSPropertyOp12
 70
     1
102
RTVSPropertyOp13
 70
     1
102
RTVSPropertyOp14
 70
     1
102
RTVSPropertyOp15
 70
     1
102
RTVSPropertyOp16
 70
     1
102
RTVSPropertyOp17
 70
     1
102
RTVSPropertyOp18
 70
     1
102
RTVSPropertyOp19
 70
     1
102
RTVSPropertyOp20
 70
     1
102
RTVSPropertyOp21
 70
     1
102
RTVSPropertyOp22
 70
     1
102
RTVSPropertyOp23
 70
     1
102
RTVSPropertyOp24
 70
     1
102
RTVSPropertyOp25
 70
     1
102
RTVSPropertyOp26
 70
     1
102
RTVSPropertyOp27
 70
     1
102
RTVSPropertyOp28
 70
     1
102
RTVSPropertyOp29
 70
     1
102
RTVSPropertyOp30
 70
     1
102
RTVSPropertyOp31
 70
     1
102
RTVSPropertyOp32
 70
     1
  0
XRECORD
  5
3B5
102
{ACAD_REACTORS
330
3B4
102
}
330
3B4
100
AcDbXrecord
280
     1
102
RTVSPropertyOp0
 70
     1
102
RTVSPropertyOp1
 70
     1
102
RTVSPropertyOp2
 70
     1
102
RTVSPropertyOp3
 70
     1
102
RTVSPropertyOp4
 70
     1
102
RTVSPropertyOp5
 70
     1
102
RTVSPropertyOp6
 70
     1
102
RTVSPropertyOp7
 70
     1
102
RTVSPropertyOp8
 70
     1
102
RTVSPropertyOp9
 70
     1
102
RTVSPropertyOp10
 70
     1
102
RTVSPropertyOp11
 70
     1
102
RTVSPropertyOp12
 70
     1
102
RTVSPropertyOp13
 70
     1
102
RTVSPropertyOp14
 70
     1
102
RTVSPropertyOp15
 70
     1
102
RTVSPropertyOp16
 70
     1
102
RTVSPropertyOp17
 70
     1
102
RTVSPropertyOp18
 70
     1
102
RTVSPropertyOp19
 70
     1
102
RTVSPropertyOp20
 70
     1
102
RTVSPropertyOp21
 70
     1
102
RTVSPropertyOp22
 70
     1
102
RTVSPropertyOp23
 70
     1
102
RTVSPropertyOp24
 70
     1
102
RTVSPropertyOp25
 70
     1
102
RTVSPropertyOp26
 70
     1
102
RTVSPropertyOp27
 70
     1
102
RTVSPropertyOp28
 70
     1
102
RTVSPropertyOp29
 70
     1
102
RTVSPropertyOp30
 70
     1
102
RTVSPropertyOp31
 70
     1
102
RTVSPropertyOp32
 70
     1
  0
XRECORD
  5
3B9
102
{ACAD_REACTORS
330
3B8
102
}
330
3B8
100
AcDbXrecord
280
     1
102
RTVSPropertyOp0
 70
     1
102
RTVSPropertyOp1
 70
     1
102
RTVSPropertyOp2
 70
     1
102
RTVSPropertyOp3
 70
     1
102
RTVSPropertyOp4
 70
     1
102
RTVSPropertyOp5
 70
     1
102
RTVSPropertyOp6
 70
     1
102
RTVSPropertyOp7
 70
     1
102
RTVSPropertyOp8
 70
     1
102
RTVSPropertyOp9
 70
     1
102
RTVSPropertyOp10
 70
     1
102
RTVSPropertyOp11
 70
     1
102
RTVSPropertyOp12
 70
     1
102
RTVSPropertyOp13
 70
     1
102
RTVSPropertyOp14
 70
     1
102
RTVSPropertyOp15
 70
     1
102
RTVSPropertyOp16
 70
     1
102
RTVSPropertyOp17
 70
     1
102
RTVSPropertyOp18
 70
     1
102
RTVSPropertyOp19
 70
     1
102
RTVSPropertyOp20
 70
     1
102
RTVSPropertyOp21
 70
     1
102
RTVSPropertyOp22
 70
     1
102
RTVSPropertyOp23
 70
     1
102
RTVSPropertyOp24
 70
     1
102
RTVSPropertyOp25
 70
     1
102
RTVSPropertyOp26
 70
     1
102
RTVSPropertyOp27
 70
     1
102
RTVSPropertyOp28
 70
     1
102
RTVSPropertyOp29
 70
     1
102
RTVSPropertyOp30
 70
     1
102
RTVSPropertyOp31
 70
     1
102
RTVSPropertyOp32
 70
     1
  0
XRECORD
  5
3C1
102
{ACAD_REACTORS
330
3C0
102
}
330
3C0
100
AcDbXrecord
280
     1
102
RTVSPropertyOp0
 70
     1
102
RTVSPropertyOp1
 70
     1
102
RTVSPropertyOp2
 70
     1
102
RTVSPropertyOp3
 70
     1
102
RTVSPropertyOp4
 70
     1
102
RTVSPropertyOp5
 70
     1
102
RTVSPropertyOp6
 70
     1
102
RTVSPropertyOp7
 70
     1
102
RTVSPropertyOp8
 70
     1
102
RTVSPropertyOp9
 70
     1
102
RTVSPropertyOp10
 70
     1
102
RTVSPropertyOp11
 70
     1
102
RTVSPropertyOp12
 70
     1
102
RTVSPropertyOp13
 70
     1
102
RTVSPropertyOp14
 70
     1
102
RTVSPropertyOp15
 70
     1
102
RTVSPropertyOp16
 70
     1
102
RTVSPropertyOp17
 70
     1
102
RTVSPropertyOp18
 70
     1
102
RTVSPropertyOp19
 70
     1
102
RTVSPropertyOp20
 70
     1
102
RTVSPropertyOp21
 70
     1
102
RTVSPropertyOp22
 70
     1
102
RTVSPropertyOp23
 70
     1
102
RTVSPropertyOp24
 70
     1
102
RTVSPropertyOp25
 70
     1
102
RTVSPropertyOp26
 70
     1
102
RTVSPropertyOp27
 70
     1
102
RTVSPropertyOp28
 70
     1
102
RTVSPropertyOp29
 70
     1
102
RTVSPropertyOp30
 70
     1
102
RTVSPropertyOp31
 70
     1
102
RTVSPropertyOp32
 70
     1
  0
XRECORD
  5
3C9
102
{ACAD_REACTORS
330
3C8
102
}
330
3C8
100
AcDbXrecord
280
     1
102
RTVSPropertyOp0
 70
     1
102
RTVSPropertyOp1
 70
     1
102
RTVSPropertyOp2
 70
     1
102
RTVSPropertyOp3
 70
     1
102
RTVSPropertyOp4
 70
     1
102
RTVSPropertyOp5
 70
     1
102
RTVSPropertyOp6
 70
     1
102
RTVSPropertyOp7
 70
     1
102
RTVSPropertyOp8
 70
     1
102
RTVSPropertyOp9
 70
     1
102
RTVSPropertyOp10
 70
     1
102
RTVSPropertyOp11
 70
     1
102
RTVSPropertyOp12
 70
     1
102
RTVSPropertyOp13
 70
     1
102
RTVSPropertyOp14
 70
     1
102
RTVSPropertyOp15
 70
     1
102
RTVSPropertyOp16
 70
     1
102
RTVSPropertyOp17
 70
     1
102
RTVSPropertyOp18
 70
     1
102
RTVSPropertyOp19
 70
     1
102
RTVSPropertyOp20
 70
     1
102
RTVSPropertyOp21
 70
     1
102
RTVSPropertyOp22
 70
     1
102
RTVSPropertyOp23
 70
     1
102
RTVSPropertyOp24
 70
     1
102
RTVSPropertyOp25
 70
     1
102
RTVSPropertyOp26
 70
     1
102
RTVSPropertyOp27
 70
     1
102
RTVSPropertyOp28
 70
     1
102
RTVSPropertyOp29
 70
     1
102
RTVSPropertyOp30
 70
     1
102
RTVSPropertyOp31
 70
     1
102
RTVSPropertyOp32
 70
     1
  0
XRECORD
  5
3BD
102
{ACAD_REACTORS
330
3BC
102
}
330
3BC
100
AcDbXrecord
280
     1
102
RTVSPropertyOp0
 70
     1
102
RTVSPropertyOp1
 70
     1
102
RTVSPropertyOp2
 70
     1
102
RTVSPropertyOp3
 70
     1
102
RTVSPropertyOp4
 70
     1
102
RTVSPropertyOp5
 70
     1
102
RTVSPropertyOp6
 70
     1
102
RTVSPropertyOp7
 70
     1
102
RTVSPropertyOp8
 70
     1
102
RTVSPropertyOp9
 70
     1
102
RTVSPropertyOp10
 70
     1
102
RTVSPropertyOp11
 70
     1
102
RTVSPropertyOp12
 70
     1
102
RTVSPropertyOp13
 70
     1
102
RTVSPropertyOp14
 70
     1
102
RTVSPropertyOp15
 70
     1
102
RTVSPropertyOp16
 70
     1
102
RTVSPropertyOp17
 70
     1
102
RTVSPropertyOp18
 70
     1
102
RTVSPropertyOp19
 70
     1
102
RTVSPropertyOp20
 70
     1
102
RTVSPropertyOp21
 70
     1
102
RTVSPropertyOp22
 70
     1
102
RTVSPropertyOp23
 70
     1
102
RTVSPropertyOp24
 70
     1
102
RTVSPropertyOp25
 70
     1
102
RTVSPropertyOp26
 70
     1
102
RTVSPropertyOp27
 70
     1
102
RTVSPropertyOp28
 70
     1
102
RTVSPropertyOp29
 70
     1
102
RTVSPropertyOp30
 70
     1
102
RTVSPropertyOp31
 70
     1
102
RTVSPropertyOp32
 70
     1
  0
XRECORD
  5
3BF
102
{ACAD_REACTORS
330
3BE
102
}
330
3BE
100
AcDbXrecord
280
     1
102
RTVSPropertyOp0
 70
     1
102
RTVSPropertyOp1
 70
     1
102
RTVSPropertyOp2
 70
     1
102
RTVSPropertyOp3
 70
     1
102
RTVSPropertyOp4
 70
     1
102
RTVSPropertyOp5
 70
     1
102
RTVSPropertyOp6
 70
     1
102
RTVSPropertyOp7
 70
     1
102
RTVSPropertyOp8
 70
     1
102
RTVSPropertyOp9
 70
     1
102
RTVSPropertyOp10
 70
     1
102
RTVSPropertyOp11
 70
     1
102
RTVSPropertyOp12
 70
     1
102
RTVSPropertyOp13
 70
     1
102
RTVSPropertyOp14
 70
     1
102
RTVSPropertyOp15
 70
     1
102
RTVSPropertyOp16
 70
     1
102
RTVSPropertyOp17
 70
     1
102
RTVSPropertyOp18
 70
     1
102
RTVSPropertyOp19
 70
     1
102
RTVSPropertyOp20
 70
     1
102
RTVSPropertyOp21
 70
     1
102
RTVSPropertyOp22
 70
     1
102
RTVSPropertyOp23
 70
     1
102
RTVSPropertyOp24
 70
     1
102
RTVSPropertyOp25
 70
     1
102
RTVSPropertyOp26
 70
     1
102
RTVSPropertyOp27
 70
     1
102
RTVSPropertyOp28
 70
     1
102
RTVSPropertyOp29
 70
     1
102
RTVSPropertyOp30
 70
     1
102
RTVSPropertyOp31
 70
     1
102
RTVSPropertyOp32
 70
     1
  0
XRECORD
  5
3C7
102
{ACAD_REACTORS
330
3C6
102
}
330
3C6
100
AcDbXrecord
280
     1
102
RTVSPropertyOp0
 70
     1
102
RTVSPropertyOp1
 70
     1
102
RTVSPropertyOp2
 70
     1
102
RTVSPropertyOp3
 70
     1
102
RTVSPropertyOp4
 70
     1
102
RTVSPropertyOp5
 70
     1
102
RTVSPropertyOp6
 70
     1
102
RTVSPropertyOp7
 70
     1
102
RTVSPropertyOp8
 70
     1
102
RTVSPropertyOp9
 70
     1
102
RTVSPropertyOp10
 70
     1
102
RTVSPropertyOp11
 70
     1
102
RTVSPropertyOp12
 70
     1
102
RTVSPropertyOp13
 70
     1
102
RTVSPropertyOp14
 70
     1
102
RTVSPropertyOp15
 70
     1
102
RTVSPropertyOp16
 70
     1
102
RTVSPropertyOp17
 70
     1
102
RTVSPropertyOp18
 70
     1
102
RTVSPropertyOp19
 70
     1
102
RTVSPropertyOp20
 70
     1
102
RTVSPropertyOp21
 70
     1
102
RTVSPropertyOp22
 70
     1
102
RTVSPropertyOp23
 70
     1
102
RTVSPropertyOp24
 70
     1
102
RTVSPropertyOp25
 70
     1
102
RTVSPropertyOp26
 70
     1
102
RTVSPropertyOp27
 70
     1
102
RTVSPropertyOp28
 70
     1
102
RTVSPropertyOp29
 70
     1
102
RTVSPropertyOp30
 70
     1
102
RTVSPropertyOp31
 70
     1
102
RTVSPropertyOp32
 70
     1
  0
XRECORD
  5
3AB
102
{ACAD_REACTORS
330
3AA
102
}
330
3AA
100
AcDbXrecord
280
     1
102
RTVSPropertyOp0
 70
     1
102
RTVSPropertyOp1
 70
     1
102
RTVSPropertyOp2
 70
     1
102
RTVSPropertyOp3
 70
     1
102
RTVSPropertyOp4
 70
     1
102
RTVSPropertyOp5
 70
     1
102
RTVSPropertyOp6
 70
     1
102
RTVSPropertyOp7
 70
     1
102
RTVSPropertyOp8
 70
     1
102
RTVSPropertyOp9
 70
     1
102
RTVSPropertyOp10
 70
     1
102
RTVSPropertyOp11
 70
     1
102
RTVSPropertyOp12
 70
     1
102
RTVSPropertyOp13
 70
     1
102
RTVSPropertyOp14
 70
     1
102
RTVSPropertyOp15
 70
     1
102
RTVSPropertyOp16
 70
     1
102
RTVSPropertyOp17
 70
     1
102
RTVSPropertyOp18
 70
     1
102
RTVSPropertyOp19
 70
     1
102
RTVSPropertyOp20
 70
     1
102
RTVSPropertyOp21
 70
     1
102
RTVSPropertyOp22
 70
     1
102
RTVSPropertyOp23
 70
     1
102
RTVSPropertyOp24
 70
     1
102
RTVSPropertyOp25
 70
     1
102
RTVSPropertyOp26
 70
     1
102
RTVSPropertyOp27
 70
     1
102
RTVSPropertyOp28
 70
     1
102
RTVSPropertyOp29
 70
     1
102
RTVSPropertyOp30
 70
     1
102
RTVSPropertyOp31
 70
     1
102
RTVSPropertyOp32
 70
     1
  0
XRECORD
  5
3AD
102
{ACAD_REACTORS
330
3AC
102
}
330
3AC
100
AcDbXrecord
280
     1
102
RTVSPropertyOp0
 70
     1
102
RTVSPropertyOp1
 70
     1
102
RTVSPropertyOp2
 70
     1
102
RTVSPropertyOp3
 70
     1
102
RTVSPropertyOp4
 70
     1
102
RTVSPropertyOp5
 70
     1
102
RTVSPropertyOp6
 70
     1
102
RTVSPropertyOp7
 70
     1
102
RTVSPropertyOp8
 70
     1
102
RTVSPropertyOp9
 70
     1
102
RTVSPropertyOp10
 70
     1
102
RTVSPropertyOp11
 70
     1
102
RTVSPropertyOp12
 70
     1
102
RTVSPropertyOp13
 70
     1
102
RTVSPropertyOp14
 70
     1
102
RTVSPropertyOp15
 70
     1
102
RTVSPropertyOp16
 70
     1
102
RTVSPropertyOp17
 70
     1
102
RTVSPropertyOp18
 70
     1
102
RTVSPropertyOp19
 70
     1
102
RTVSPropertyOp20
 70
     1
102
RTVSPropertyOp21
 70
     1
102
RTVSPropertyOp22
 70
     1
102
RTVSPropertyOp23
 70
     1
102
RTVSPropertyOp24
 70
     1
102
RTVSPropertyOp25
 70
     1
102
RTVSPropertyOp26
 70
     1
102
RTVSPropertyOp27
 70
     1
102
RTVSPropertyOp28
 70
     1
102
RTVSPropertyOp29
 70
     1
102
RTVSPropertyOp30
 70
     1
102
RTVSPropertyOp31
 70
     1
102
RTVSPropertyOp32
 70
     1
  0
XRECORD
  5
3AF
102
{ACAD_REACTORS
330
3AE
102
}
330
3AE
100
AcDbXrecord
280
     1
102
RTVSPropertyOp0
 70
     1
102
RTVSPropertyOp1
 70
     1
102
RTVSPropertyOp2
 70
     1
102
RTVSPropertyOp3
 70
     1
102
RTVSPropertyOp4
 70
     1
102
RTVSPropertyOp5
 70
     1
102
RTVSPropertyOp6
 70
     1
102
RTVSPropertyOp7
 70
     1
102
RTVSPropertyOp8
 70
     1
102
RTVSPropertyOp9
 70
     1
102
RTVSPropertyOp10
 70
     1
102
RTVSPropertyOp11
 70
     1
102
RTVSPropertyOp12
 70
     1
102
RTVSPropertyOp13
 70
     1
102
RTVSPropertyOp14
 70
     1
102
RTVSPropertyOp15
 70
     1
102
RTVSPropertyOp16
 70
     1
102
RTVSPropertyOp17
 70
     1
102
RTVSPropertyOp18
 70
     1
102
RTVSPropertyOp19
 70
     1
102
RTVSPropertyOp20
 70
     1
102
RTVSPropertyOp21
 70
     1
102
RTVSPropertyOp22
 70
     1
102
RTVSPropertyOp23
 70
     1
102
RTVSPropertyOp24
 70
     1
102
RTVSPropertyOp25
 70
     1
102
RTVSPropertyOp26
 70
     1
102
RTVSPropertyOp27
 70
     1
102
RTVSPropertyOp28
 70
     1
102
RTVSPropertyOp29
 70
     1
102
RTVSPropertyOp30
 70
     1
102
RTVSPropertyOp31
 70
     1
102
RTVSPropertyOp32
 70
     1
  0
XRECORD
  5
3B1
102
{ACAD_REACTORS
330
3B0
102
}
330
3B0
100
AcDbXrecord
280
     1
102
RTVSPropertyOp0
 70
     1
102
RTVSPropertyOp1
 70
     1
102
RTVSPropertyOp2
 70
     1
102
RTVSPropertyOp3
 70
     1
102
RTVSPropertyOp4
 70
     1
102
RTVSPropertyOp5
 70
     1
102
RTVSPropertyOp6
 70
     1
102
RTVSPropertyOp7
 70
     1
102
RTVSPropertyOp8
 70
     1
102
RTVSPropertyOp9
 70
     1
102
RTVSPropertyOp10
 70
     1
102
RTVSPropertyOp11
 70
     1
102
RTVSPropertyOp12
 70
     1
102
RTVSPropertyOp13
 70
     1
102
RTVSPropertyOp14
 70
     1
102
RTVSPropertyOp15
 70
     1
102
RTVSPropertyOp16
 70
     1
102
RTVSPropertyOp17
 70
     1
102
RTVSPropertyOp18
 70
     1
102
RTVSPropertyOp19
 70
     1
102
RTVSPropertyOp20
 70
     1
102
RTVSPropertyOp21
 70
     1
102
RTVSPropertyOp22
 70
     1
102
RTVSPropertyOp23
 70
     1
102
RTVSPropertyOp24
 70
     1
102
RTVSPropertyOp25
 70
     1
102
RTVSPropertyOp26
 70
     1
102
RTVSPropertyOp27
 70
     1
102
RTVSPropertyOp28
 70
     1
102
RTVSPropertyOp29
 70
     1
102
RTVSPropertyOp30
 70
     1
102
RTVSPropertyOp31
 70
     1
102
RTVSPropertyOp32
 70
     1
  0
XRECORD
  5
3C5
102
{ACAD_REACTORS
330
3C4
102
}
330
3C4
100
AcDbXrecord
280
     1
102
RTVSPropertyOp0
 70
     1
102
RTVSPropertyOp1
 70
     1
102
RTVSPropertyOp2
 70
     1
102
RTVSPropertyOp3
 70
     1
102
RTVSPropertyOp4
 70
     1
102
RTVSPropertyOp5
 70
     1
102
RTVSPropertyOp6
 70
     1
102
RTVSPropertyOp7
 70
     1
102
RTVSPropertyOp8
 70
     1
102
RTVSPropertyOp9
 70
     1
102
RTVSPropertyOp10
 70
     1
102
RTVSPropertyOp11
 70
     1
102
RTVSPropertyOp12
 70
     1
102
RTVSPropertyOp13
 70
     1
102
RTVSPropertyOp14
 70
     1
102
RTVSPropertyOp15
 70
     1
102
RTVSPropertyOp16
 70
     1
102
RTVSPropertyOp17
 70
     1
102
RTVSPropertyOp18
 70
     1
102
RTVSPropertyOp19
 70
     1
102
RTVSPropertyOp20
 70
     1
102
RTVSPropertyOp21
 70
     1
102
RTVSPropertyOp22
 70
     1
102
RTVSPropertyOp23
 70
     1
102
RTVSPropertyOp24
 70
     1
102
RTVSPropertyOp25
 70
     1
102
RTVSPropertyOp26
 70
     1
102
RTVSPropertyOp27
 70
     1
102
RTVSPropertyOp28
 70
     1
102
RTVSPropertyOp29
 70
     1
102
RTVSPropertyOp30
 70
     1
102
RTVSPropertyOp31
 70
     1
102
RTVSPropertyOp32
 70
     1
  0
XRECORD
  5
3BB
102
{ACAD_REACTORS
330
3BA
102
}
330
3BA
100
AcDbXrecord
280
     1
102
RTVSPropertyOp0
 70
     1
102
RTVSPropertyOp1
 70
     1
102
RTVSPropertyOp2
 70
     1
102
RTVSPropertyOp3
 70
     1
102
RTVSPropertyOp4
 70
     1
102
RTVSPropertyOp5
 70
     1
102
RTVSPropertyOp6
 70
     1
102
RTVSPropertyOp7
 70
     1
102
RTVSPropertyOp8
 70
     1
102
RTVSPropertyOp9
 70
     1
102
RTVSPropertyOp10
 70
     1
102
RTVSPropertyOp11
 70
     1
102
RTVSPropertyOp12
 70
     1
102
RTVSPropertyOp13
 70
     1
102
RTVSPropertyOp14
 70
     1
102
RTVSPropertyOp15
 70
     1
102
RTVSPropertyOp16
 70
     1
102
RTVSPropertyOp17
 70
     1
102
RTVSPropertyOp18
 70
     1
102
RTVSPropertyOp19
 70
     1
102
RTVSPropertyOp20
 70
     1
102
RTVSPropertyOp21
 70
     1
102
RTVSPropertyOp22
 70
     1
102
RTVSPropertyOp23
 70
     1
102
RTVSPropertyOp24
 70
     1
102
RTVSPropertyOp25
 70
     1
102
RTVSPropertyOp26
 70
     1
102
RTVSPropertyOp27
 70
     1
102
RTVSPropertyOp28
 70
     1
102
RTVSPropertyOp29
 70
     1
102
RTVSPropertyOp30
 70
     1
102
RTVSPropertyOp31
 70
     1
102
RTVSPropertyOp32
 70
     1
  0
XRECORD
  5
3C3
102
{ACAD_REACTORS
330
3C2
102
}
330
3C2
100
AcDbXrecord
280
     1
102
RTVSPropertyOp0
 70
     1
102
RTVSPropertyOp1
 70
     1
102
RTVSPropertyOp2
 70
     1
102
RTVSPropertyOp3
 70
     1
102
RTVSPropertyOp4
 70
     1
102
RTVSPropertyOp5
 70
     1
102
RTVSPropertyOp6
 70
     1
102
RTVSPropertyOp7
 70
     1
102
RTVSPropertyOp8
 70
     1
102
RTVSPropertyOp9
 70
     1
102
RTVSPropertyOp10
 70
     1
102
RTVSPropertyOp11
 70
     1
102
RTVSPropertyOp12
 70
     1
102
RTVSPropertyOp13
 70
     1
102
RTVSPropertyOp14
 70
     1
102
RTVSPropertyOp15
 70
     1
102
RTVSPropertyOp16
 70
     1
102
RTVSPropertyOp17
 70
     1
102
RTVSPropertyOp18
 70
     1
102
RTVSPropertyOp19
 70
     1
102
RTVSPropertyOp20
 70
     1
102
RTVSPropertyOp21
 70
     1
102
RTVSPropertyOp22
 70
     1
102
RTVSPropertyOp23
 70
     1
102
RTVSPropertyOp24
 70
     1
102
RTVSPropertyOp25
 70
     1
102
RTVSPropertyOp26
 70
     1
102
RTVSPropertyOp27
 70
     1
102
RTVSPropertyOp28
 70
     1
102
RTVSPropertyOp29
 70
     1
102
RTVSPropertyOp30
 70
     1
102
RTVSPropertyOp31
 70
     1
102
RTVSPropertyOp32
 70
     1
  0
ENDSEC
  0
EOF
