  0
SECTION
  2
HEADER
  9
$ACADVER
  1
AC1015
  9
$ACADMAINTVER
 70
     6
  9
$DWGCODEPAGE
  3
ANSI_1252
  9
$INSBASE
 10
0.0
 20
0.0
 30
0.0
  9
$EXTMIN
 10
0.0
 20
0.0
 30
0.0
  9
$EXTMAX
 10
210.0
 20
297.0
 30
0.0
  9
$LIMMIN
 10
0.0
 20
0.0
  9
$LIMMAX
 10
0.0
 20
0.0
  9
$ORTHOMODE
 70
     0
  9
$REGENMODE
 70
     1
  9
$FILLMODE
 70
     1
  9
$QTEXTMODE
 70
     0
  9
$MIRRTEXT
 70
     1
  9
$LTSCALE
 40
1.0
  9
$ATTMODE
 70
     1
  9
$TEXTSIZE
 40
0.0
  9
$TRACEWID
 40
0.05
  9
$TEXTSTYLE
  7
STANDARD
  9
$CLAYER
  8
0
  9
$CELTYPE
  6
CONTINUOUS
  9
$CECOLOR
 62
   256
  9
$CELTSCALE
 40
1.0
  9
$DISPSILH
 70
     0
  9
$DIMSCALE
 40
1.0
  9
$DIMASZ
 40
0.0
  9
$DIMEXO
 40
0.0
  9
$DIMDLI
 40
0.38
  9
$DIMRND
 40
0.0
  9
$DIMDLE
 40
1000.0
  9
$DIMEXE
 40
0.18
  9
$DIMTP
 40
0.0
  9
$DIMTM
 40
0.0
  9
$DIMTXT
 40
3.5
  9
$DIMCEN
 40
0.09
  9
$DIMTSZ
 40
0.0
  9
$DIMTOL
 70
     0
  9
$DIMLIM
 70
     0
  9
$DIMTIH
 70
     1
  9
$DIMTOH
 70
     1
  9
$DIMSE1
 70
     0
  9
$DIMSE2
 70
     0
  9
$DIMTAD
 70
     1
  9
$DIMZIN
 70
     0
  9
$DIMBLK
  1

  9
$DIMASO
 70
     1
  9
$DIMSHO
 70
     1
  9
$DIMPOST
  1

  9
$DIMAPOST
  1

  9
$DIMALT
 70
     0
  9
$DIMALTD
 70
     2
  9
$DIMALTF
 40
0.0394
  9
$DIMLFAC
 40
1.0
  9
$DIMTOFL
 70
     0
  9
$DIMTVP
 40
0.0
  9
$DIMTIX
 70
     0
  9
$DIMSOXD
 70
     0
  9
$DIMSAH
 70
     0
  9
$DIMBLK1
  1

  9
$DIMBLK2
  1

  9
$DIMSTYLE
  2
STANDARD
  9
$DIMCLRD
 70
     0
  9
$DIMCLRE
 70
     0
  9
$DIMCLRT
 70
     0
  9
$DIMTFAC
 40
1.0
  9
$DIMGAP
 40
0.0
  9
$DIMJUST
 70
     0
  9
$DIMSD1
 70
     0
  9
$DIMSD2
 70
     0
  9
$DIMTOLJ
 70
     1
  9
$DIMTZIN
 70
     0
  9
$DIMALTZ
 70
     0
  9
$DIMALTTZ
 70
     0
  9
$DIMUPT
 70
     0
  9
$DIMDEC
 70
     4
  9
$DIMTDEC
 70
     4
  9
$DIMALTU
 70
     2
  9
$DIMALTTD
 70
     2
  9
$DIMTXSTY
  7
STANDARD
  9
$DIMAUNIT
 70
     0
  9
$DIMADEC
 70
     0
  9
$DIMALTRND
 40
0.0
  9
$DIMAZIN
 70
     0
  9
$DIMDSEP
 70
    46
  9
$DIMATFIT
 70
     3
  9
$DIMFRAC
 70
     0
  9
$DIMLDRBLK
  1

  9
$DIMLUNIT
 70
     2
  9
$DIMLWD
 70
    -2
  9
$DIMLWE
 70
    -2
  9
$DIMTMOVE
 70
     2
  9
$LUNITS
 70
     2
  9
$LUPREC
 70
     2
  9
$SKETCHINC
 40
0.1
  9
$FILLETRAD
 40
0.0
  9
$AUNITS
 70
     0
  9
$AUPREC
 70
     2
  9
$MENU
  1
acad
  9
$ELEVATION
 40
0.0
  9
$PELEVATION
 40
0.0
  9
$THICKNESS
 40
0.0
  9
$LIMCHECK
 70
     0
  9
$CHAMFERA
 40
0.0
  9
$CHAMFERB
 40
0.0
  9
$CHAMFERC
 40
0.0
  9
$CHAMFERD
 40
0.0
  9
$SKPOLY
 70
     0
  9
$TDCREATE
 40
2447893.0
  9
$TDUCREATE
 40
2447892.916666667
  9
$TDUPDATE
 40
2458327.548784942
  9
$TDUUPDATE
 40
2458327.465451609
  9
$TDINDWG
 40
0.0
  9
$TDUSRTIMER
 40
0.0
  9
$USRTIMER
 70
     1
  9
$ANGBASE
 50
0.0
  9
$ANGDIR
 70
     0
  9
$PDMODE
 70
     0
  9
$PDSIZE
 40
-1.0
  9
$PLINEWID
 40
0.0
  9
$SPLFRAME
 70
     0
  9
$SPLINETYPE
 70
     6
  9
$SPLINESEGS
 70
     8
  9
$HANDSEED
  5
3E9
  9
$SURFTAB1
 70
     6
  9
$SURFTAB2
 70
     6
  9
$SURFTYPE
 70
     6
  9
$SURFU
 70
     6
  9
$SURFV
 70
     6
  9
$UCSBASE
  2

  9
$UCSNAME
  2

  9
$UCSORG
 10
0.0
 20
0.0
 30
0.0
  9
$UCSXDIR
 10
1.0
 20
0.0
 30
0.0
  9
$UCSYDIR
 10
0.0
 20
1.0
 30
0.0
  9
$UCSORTHOREF
  2

  9
$UCSORTHOVIEW
 70
     0
  9
$UCSORGTOP
 10
0.0
 20
0.0
 30
0.0
  9
$UCSORGBOTTOM
 10
0.0
 20
0.0
 30
0.0
  9
$UCSORGLEFT
 10
0.0
 20
0.0
 30
0.0
  9
$UCSORGRIGHT
 10
0.0
 20
0.0
 30
0.0
  9
$UCSORGFRONT
 10
0.0
 20
0.0
 30
0.0
  9
$UCSORGBACK
 10
0.0
 20
0.0
 30
0.0
  9
$PUCSBASE
  2

  9
$PUCSNAME
  2

  9
$PUCSORG
 10
0.0
 20
0.0
 30
0.0
  9
$PUCSXDIR
 10
1.0
 20
0.0
 30
0.0
  9
$PUCSYDIR
 10
0.0
 20
1.0
 30
0.0
  9
$PUCSORTHOREF
  2

  9
$PUCSORTHOVIEW
 70
     0
  9
$PUCSORGTOP
 10
0.0
 20
0.0
 30
0.0
  9
$PUCSORGBOTTOM
 10
0.0
 20
0.0
 30
0.0
  9
$PUCSORGLEFT
 10
0.0
 20
0.0
 30
0.0
  9
$PUCSORGRIGHT
 10
0.0
 20
0.0
 30
0.0
  9
$PUCSORGFRONT
 10
0.0
 20
0.0
 30
0.0
  9
$PUCSORGBACK
 10
0.0
 20
0.0
 30
0.0
  9
$USERI1
 70
     0
  9
$USERI2
 70
     0
  9
$USERI3
 70
     0
  9
$USERI4
 70
     0
  9
$USERI5
 70
     0
  9
$USERR1
 40
0.0
  9
$USERR2
 40
0.0
  9
$USERR3
 40
0.0
  9
$USERR4
 40
0.0
  9
$USERR5
 40
0.0
  9
$WORLDVIEW
 70
     1
  9
$SHADEDGE
 70
     3
  9
$SHADEDIF
 70
    70
  9
$TILEMODE
 70
     1
  9
$MAXACTVP
 70
    16
  9
$PINSBASE
 10
0.0
 20
0.0
 30
0.0
  9
$PLIMCHECK
 70
     0
  9
$PEXTMIN
 10
1.000000000000000E+20
 20
1.000000000000000E+20
 30
1.000000000000000E+20
  9
$PEXTMAX
 10
-1.000000000000000E+20
 20
-1.000000000000000E+20
 30
-1.000000000000000E+20
  9
$PLIMMIN
 10
0.0
 20
0.0
  9
$PLIMMAX
 10
12.0
 20
9.0
  9
$UNITMODE
 70
     0
  9
$VISRETAIN
 70
     0
  9
$PLINEGEN
 70
     1
  9
$PSLTSCALE
 70
     1
  9
$TREEDEPTH
 70
  3020
  9
$CMLSTYLE
  2
STANDARD
  9
$CMLJUST
 70
     0
  9
$CMLSCALE
 40
1.0
  9
$PROXYGRAPHICS
 70
     1
  9
$MEASUREMENT
 70
     0
  9
$CELWEIGHT
370
    -1
  9
$ENDCAPS
280
     0
  9
$JOINSTYLE
280
     0
  9
$LWDISPLAY
290
     0
  9
$INSUNITS
 70
     0
  9
$HYPERLINKBASE
  1

  9
$STYLESHEET
  1

  9
$XEDIT
290
     1
  9
$CEPSNTYPE
380
     0
  9
$PSTYLEMODE
290
     1
  9
$FINGERPRINTGUID
  2
{7D9A3C4B-3A3F-4AF5-B6D2-19B7922B8FEF}
  9
$VERSIONGUID
  2
{FAEB1C32-E019-11D5-929B-00C0DF256EC4}
  9
$EXTNAMES
290
     1
  9
$PSVPSCALE
 40
0.0
  9
$OLESTARTUP
290
     0
  0
ENDSEC
  0
SECTION
  2
CLASSES
  0
CLASS
  1
LWPOLYLINE
  2
AcDbPolyline
  3
ObjectDBX Classes
 90
        0
280
     0
281
     1
  0
CLASS
  1
IMAGE
  2
AcDbRasterImage
  3
ISM
 90
      127
280
     0
281
     1
  0
CLASS
  1
OLE2FRAME
  2
AcDbOle2Frame
  3
ObjectDBX Classes
 90
        0
280
     0
281
     1
  0
CLASS
  1
HATCH
  2
AcDbHatch
  3
ObjectDBX Classes
 90
        0
280
     0
281
     1
  0
CLASS
  1
DICTIONARYVAR
  2
AcDbDictionaryVar
  3
ObjectDBX Classes
 90
        0
280
     0
281
     0
  0
CLASS
  1
RASTERVARIABLES
  2
AcDbRasterVariables
  3
ISM
 90
        0
280
     0
281
     0
  0
CLASS
  1
IMAGEDEF
  2
AcDbRasterImageDef
  3
ISM
 90
        0
280
     0
281
     0
  0
CLASS
  1
IMAGEDEF_REACTOR
  2
AcDbRasterImageDefReactor
  3
ISM
 90
        1
280
     0
281
     0
  0
CLASS
  1
IDBUFFER
  2
AcDbIdBuffer
  3
ObjectDBX Classes
 90
        0
280
     0
281
     0
  0
CLASS
  1
SPATIAL_FILTER
  2
AcDbSpatialFilter
  3
ObjectDBX Classes
 90
        0
280
     0
281
     0
  0
CLASS
  1
XRECORD
  2
AcDbXrecord
  3
ObjectDBX Classes
 90
        0
280
     0
281
     0
  0
CLASS
  1
SORTENTSTABLE
  2
AcDbSortentsTable
  3
ObjectDBX Classes
 90
        0
280
     0
281
     0
  0
CLASS
  1
LAYER_INDEX
  2
AcDbLayerIndex
  3
ObjectDBX Classes
 90
        0
280
     0
281
     0
  0
CLASS
  1
SPATIAL_INDEX
  2
AcDbSpatialIndex
  3
AutoCAD 2000
 90
        0
280
     0
281
     0
  0
CLASS
  1
OBJECT_PTR
  2
CAseDLPNTableRecord
  3
ASE-LPNTableRecord
 90
        1
280
     0
281
     0
  0
CLASS
  1
LAYOUT
  2
AcDbLayout
  3
ObjectDBX Classes
 90
        0
280
     0
281
     0
  0
CLASS
  1
PLOTSETTINGS
  2
AcDbPlotSettings
  3
ObjectDBX Classes
 90
        0
280
     0
281
     0
  0
CLASS
  1
ACDBDICTIONARYWDFLT
  2
AcDbDictionaryWithDefault
  3
ObjectDBX Classes
 90
        0
280
     0
281
     0
  0
CLASS
  1
ACDBPLACEHOLDER
  2
AcDbPlaceHolder
  3
ObjectDBX Classes
 90
        0
280
     0
281
     0
  0
CLASS
  1
VBA_PROJECT
  2
AcDbVbaProject
  3
ObjectDBX Classes
 90
        0
280
     0
281
     0
  0
CLASS
  1
WIPEOUT
  2
AcDbWipeout
  3
WipeOut|AutoCAD Express Tool|expresstools@autodesk.com
 90
      127
280
     0
281
     1
  0
CLASS
  1
WIPEOUTVARIABLES
  2
AcDbWipeoutVariables
  3
WipeOut|AutoCAD Express Tool|expresstools@autodesk.com
 90
        0
280
     0
281
     0
  0
CLASS
  1
RTEXT
  2
RText
  3
RText|AutoCAD Express Tool|expresstools@autodesk.com
 90
        0
280
     0
281
     1
  0
CLASS
  1
ARCALIGNEDTEXT
  2
AcDbArcAlignedText
  3
ATEXT|AutoCAD Express Tool|expresstools@autodesk.com
 90
        0
280
     0
281
     1
  0
CLASS
  1
SCALE
  2
AcDbScale
  3
ObjectDBX Classes
 90
     1153
280
     0
281
     0
  0
CLASS
  1
VISUALSTYLE
  2
AcDbVisualStyle
  3
ObjectDBX Classes
 90
     4095
280
     0
281
     0
  0
CLASS
  1
MATERIAL
  2
AcDbMaterial
  3
ObjectDBX Classes
 90
     1153
280
     0
281
     0
  0
ENDSEC
  0
SECTION
  2
TABLES
  0
TABLE
  2
VPORT
  5
7
102
{ACAD_XDICTIONARY
360
3AE
102
}
330
0
100
AcDbSymbolTable
 70
     1
  0
VPORT
  5
15
330
7
100
AcDbSymbolTableRecord
100
AcDbViewportTableRecord
  2
*ACTIVE
 70
     0
 10
0.0
 20
0.0
 11
1.0
 21
1.0
 12
105.0
 22
148.5
 13
0.0
 23
0.0
 14
1.0
 24
1.0
 15
0.0
 25
0.0
 16
0.0
 26
0.0
 36
1.0
 17
0.0
 27
0.0
 37
0.0
 40
297.0
 41
1.4142857143
 42
50.0
 43
0.0
 44
0.0
 50
0.0
 51
0.0
 71
     0
 72
  2000
 73
     1
 74
     1
 75
     0
 76
     0
 77
     0
 78
     0
281
     0
 65
     1
110
0.0
120
0.0
130
0.0
111
1.0
121
0.0
131
0.0
112
0.0
122
1.0
132
0.0
 79
     0
146
0.0
  0
ENDTAB
  0
TABLE
  2
LTYPE
  5
4
330
0
100
AcDbSymbolTable
 70
     6
  0
LTYPE
  5
11
330
4
100
AcDbSymbolTableRecord
100
AcDbLinetypeTableRecord
  2
BYBLOCK
 70
     0
  3

 72
    65
 73
     0
 40
0.0
  0
LTYPE
  5
12
330
4
100
AcDbSymbolTableRecord
100
AcDbLinetypeTableRecord
  2
BYLAYER
 70
     0
  3

 72
    65
 73
     0
 40
0.0
  0
LTYPE
  5
13
330
4
100
AcDbSymbolTableRecord
100
AcDbLinetypeTableRecord
  2
CONTINUOUS
 70
     0
  3
Solid line
 72
    65
 73
     0
 40
0.0
  0
LTYPE
  5
1D
330
4
100
AcDbSymbolTableRecord
100
AcDbLinetypeTableRecord
  2
HIDDEN
 70
     0
  3
Hidden __ __ __ __ __ __ __ __ __ __ __ __ __ __
 72
    65
 73
     2
 40
1.905
 49
1.27
 74
     0
 49
-0.635
 74
     0
  0
LTYPE
  5
1E
330
4
100
AcDbSymbolTableRecord
100
AcDbLinetypeTableRecord
  2
PHANTOM
 70
     0
  3
Phantom ______  __  __  ______  __  __  ______
 72
    65
 73
     6
 40
12.7
 49
6.35
 74
     0
 49
-1.27
 74
     0
 49
1.27
 74
     0
 49
-1.27
 74
     0
 49
1.27
 74
     0
 49
-1.27
 74
     0
  0
LTYPE
  5
1F
330
4
100
AcDbSymbolTableRecord
100
AcDbLinetypeTableRecord
  2
CENTER
 70
     0
  3
Center ____ _ ____ _ ____ _ ____ _ ____ _ ____
 72
    65
 73
     4
 40
10.16
 49
6.35
 74
     0
 49
-1.27
 74
     0
 49
1.27
 74
     0
 49
-1.27
 74
     0
  0
LTYPE
  5
20
330
4
100
AcDbSymbolTableRecord
100
AcDbLinetypeTableRecord
  2
CENTERX2
 70
     0
  3
Center (2x) ________  __  ________  __  _____
 72
    65
 73
     4
 40
20.32
 49
12.7
 74
     0
 49
-2.54
 74
     0
 49
2.54
 74
     0
 49
-2.54
 74
     0
  0
LTYPE
  5
21
330
4
100
AcDbSymbolTableRecord
100
AcDbLinetypeTableRecord
  2
DOT2
 70
     0
  3
Dot (.5x) ........................................
 72
    65
 73
     2
 40
0.635
 49
0.0
 74
     0
 49
-0.635
 74
     0
  0
LTYPE
  5
3D8
330
5
100
AcDbSymbolTableRecord
100
AcDbLinetypeTableRecord
  2
DASH
 70
     0
  3
DASH _ _ _ _ _
 72
    65
 73
     2
 40
0.75
 49
0.40
 74
     0
 49
-0.35
 74
     0
  0
LTYPE
  5
3D9
330
5
100
AcDbSymbolTableRecord
100
AcDbLinetypeTableRecord
  2
LONGDASH_DASH
 70
     0
  3
LONGDASH_DASH __ . __ . __
 72
    65
 73
     4
 40
0.85
 49
0.40
 74
     0
 49
-0.20
 74
     0
 49
0.05
 74
     0
 49
-0.20
 74
     0
  0
LTYPE
  5
3DA
330
5
100
AcDbSymbolTableRecord
100
AcDbLinetypeTableRecord
  2
LONGDASH_DASH_DASH
 70
     0
  3
LONGDASH_DASH_DASH __ . . __ . . __
 72
    65
 73
     6
 40
1.10
 49
0.40
 74
     0
 49
-0.20
 74
     0
 49
0.05
 74
     0
 49
-0.20
 74
     0
 49
0.05
 74
     0
 49
-0.20
 74
     0
  0
ENDTAB
  0
TABLE
  2
LAYER
  5
2
330
0
100
AcDbSymbolTable
 70
     8
  0
LAYER
  5
23
330
2
100
AcDbSymbolTableRecord
100
AcDbLayerTableRecord
  2
DEFPOINTS
 70
     0
 62
     7
  6
CONTINUOUS
290
     0
370
    -3
390
0
  0
LAYER
  5
3DB
330
2
100
AcDbSymbolTableRecord
100
AcDbLayerTableRecord
  2
0
 70
     0
 62
     -1
  6
CONTINUOUS
370
    -3
390
F
  0
LAYER
  5
3DC
330
2
100
AcDbSymbolTableRecord
100
AcDbLayerTableRecord
  2
1
 70
     0
 62
     4
  6
CONTINUOUS
370
    50
390
F
  0
LAYER
  5
3DD
330
2
100
AcDbSymbolTableRecord
100
AcDbLayerTableRecord
  2
2
 70
     0
 62
     7
  6
CONTINUOUS
370
    25
390
F
  0
LAYER
  5
3DE
330
2
100
AcDbSymbolTableRecord
100
AcDbLayerTableRecord
  2
3
 70
     0
 62
     1
  6
DASH
370
    35
390
F
  0
LAYER
  5
3DF
330
2
100
AcDbSymbolTableRecord
100
AcDbLayerTableRecord
  2
4
 70
     0
 62
     2
  6
LONGDASH_DASH
370
    25
390
F
  0
LAYER
  5
3E0
330
2
100
AcDbSymbolTableRecord
100
AcDbLayerTableRecord
  2
6
 70
     0
 62
     5
  6
CONTINUOUS
370
    -3
390
F
  0
LAYER
  5
3E1
330
2
100
AcDbSymbolTableRecord
100
AcDbLayerTableRecord
  2
CUT
 70
     0
 62
     1
  6
CONTINUOUS
370
    25
390
F
  0
LAYER
  5
3E2
330
2
100
AcDbSymbolTableRecord
100
AcDbLayerTableRecord
  2
NOCUT
 70
     0
 62
     7
  6
CONTINUOUS
370
    25
390
F
  0
LAYER
  5
3E3
330
2
100
AcDbSymbolTableRecord
100
AcDbLayerTableRecord
  2
SK1
 70
     0
 62
     4
  6
CONTINUOUS
370
    50
390
F
  0
LAYER
  5
3E4
330
2
100
AcDbSymbolTableRecord
100
AcDbLayerTableRecord
  2
SK2
 70
     0
 62
     7
  6
CONTINUOUS
370
    25
390
F
  0
LAYER
  5
3E5
330
2
100
AcDbSymbolTableRecord
100
AcDbLayerTableRecord
  2
SK3
 70
     0
 62
     1
  6
DASH
370
    35
390
F
  0
LAYER
  5
3E6
330
2
100
AcDbSymbolTableRecord
100
AcDbLayerTableRecord
  2
SK4
 70
     0
 62
     2
  6
LONGDASH_DASH
370
    25
390
F
  0
LAYER
  5
3E7
330
2
100
AcDbSymbolTableRecord
100
AcDbLayerTableRecord
  2
SK6
 70
     0
 62
     5
  6
CONTINUOUS
370
    -3
390
F
  0
LAYER
  5
3E8
330
2
100
AcDbSymbolTableRecord
100
AcDbLayerTableRecord
  2
INFTOTAL
 70
     0
 62
     9
  6
CONTINUOUS
370
    18
390
F
  0
ENDTAB
  0
TABLE
  2
STYLE
  5
3
330
0
100
AcDbSymbolTable
 70
     2
  0
STYLE
  5
17
330
3
100
AcDbSymbolTableRecord
100
AcDbTextStyleTableRecord
  2
STANDARD
 70
     0
 40
0.0
 41
1.0
 50
0.0
 71
     0
 42
0.2
  3
txt
  4

  0
STYLE
  5
3A6
330
3
100
AcDbSymbolTableRecord
100
AcDbTextStyleTableRecord
  2
BMG_Text
 70
     0
 40
3.5
 41
1.0
 50
0.0
 71
     0
 42
0.0
  3
monos.ttf
  4

1001
ACAD
1000
Monospac821 BT
1071
       49
  0
ENDTAB
  0
TABLE
  2
VIEW
  5
5
330
0
100
AcDbSymbolTable
 70
     0
  0
ENDTAB
  0
TABLE
  2
UCS
  5
6
330
0
100
AcDbSymbolTable
 70
     0
  0
ENDTAB
  0
TABLE
  2
APPID
  5
8
330
0
100
AcDbSymbolTable
 70
     1
  0
APPID
  5
16
330
8
100
AcDbSymbolTableRecord
100
AcDbRegAppTableRecord
  2
ACAD
 70
     0
  0
ENDTAB
  0
TABLE
  2
DIMSTYLE
  5
9
330
0
100
AcDbSymbolTable
 70
     1
100
AcDbDimStyleTable
  0
DIMSTYLE
105
18
330
9
100
AcDbSymbolTableRecord
100
AcDbDimStyleTableRecord
  2
STANDARD
 70
     0
178
     0
340
17
  0
ENDTAB
  0
TABLE
  2
BLOCK_RECORD
  5
1
330
0
100
AcDbSymbolTable
 70
     0
  0
BLOCK_RECORD
  5
A
330
1
100
AcDbSymbolTableRecord
100
AcDbBlockTableRecord
  2
*MODEL_SPACE
340
38F
  0
BLOCK_RECORD
  5
B
330
1
100
AcDbSymbolTableRecord
100
AcDbBlockTableRecord
  2
*PAPER_SPACE
340
390
  0
ENDTAB
  0
ENDSEC
  0
SECTION
  2
BLOCKS
  0
BLOCK
  5
D
330
A
100
AcDbEntity
  8
0
100
AcDbBlockBegin
  2
*MODEL_SPACE
 70
     0
 10
0.0
 20
0.0
 30
0.0
  3
*MODEL_SPACE
  1

  0
ENDBLK
  5
E
330
A
100
AcDbEntity
  8
0
100
AcDbBlockEnd
  0
BLOCK
  5
F
330
B
100
AcDbEntity
 67
     1
  8
0
100
AcDbBlockBegin
  2
*PAPER_SPACE
 70
     0
 10
0.0
 20
0.0
 30
0.0
  3
*PAPER_SPACE
  1

  0
ENDBLK
  5
10
330
B
100
AcDbEntity
 67
     1
  8
0
100
AcDbBlockEnd
  0
ENDSEC
  0
SECTION
  2
ENTITIES
  0
ARC
  5
29
330
A
100
AcDbEntity
  8
1
  6
CONTINUOUS
370
    50
100
AcDbCircle
 10
118.2775938215
 20
133.1053717112
 30
0.0
 40
0.5
100
AcDbArc
 50
66.4218215218
 51
90.0
  0
ARC
  5
2A
330
A
100
AcDbEntity
  8
1
  6
CONTINUOUS
370
    50
100
AcDbCircle
 10
118.2775938215
 20
203.3553717112
 30
0.0
 40
0.5
100
AcDbArc
 50
270.0
 51
293.5781784782001
  0
LINE
  5
2B
330
A
100
AcDbEntity
  8
1
  6
CONTINUOUS
370
    50
100
AcDbLine
 10
116.9775938215
 20
203.1553717112
 30
0.0
 11
17.2309338856
 21
188.6089838039
 31
0.0
  0
LINE
  5
2C
330
A
100
AcDbEntity
  8
1
  6
CONTINUOUS
370
    50
100
AcDbLine
 10
17.2309338856
 20
147.8517596185
 30
0.0
 11
116.9775938215
 21
133.3053717112
 31
0.0
  0
LINE
  5
2D
330
A
100
AcDbEntity
  8
1
  6
CONTINUOUS
370
    50
100
AcDbLine
 10
116.9775938215
 20
133.3053717112
 30
0.0
 11
117.5204840981
 21
133.5585256047
 31
0.0
  0
LINE
  5
2E
330
A
100
AcDbEntity
  8
1
  6
CONTINUOUS
370
    50
100
AcDbLine
 10
117.5204840981
 20
202.9022178177
 30
0.0
 11
116.9775938215
 21
203.1553717112
 31
0.0
  0
ARC
  5
2F
330
A
100
AcDbEntity
  8
1
  6
CONTINUOUS
370
    50
100
AcDbCircle
 10
117.7317932289
 20
133.1053717112
 30
0.0
 40
0.5
100
AcDbArc
 50
90.0
 51
115.0
  0
ARC
  5
30
330
A
100
AcDbEntity
  8
1
  6
CONTINUOUS
370
    50
100
AcDbCircle
 10
117.7317932289
 20
203.3553717112
 30
0.0
 40
0.5
100
AcDbArc
 50
245.0
 51
270.0
  0
LINE
  5
31
330
A
100
AcDbEntity
  8
1
  6
CONTINUOUS
370
    50
100
AcDbLine
 10
117.7317932289
 20
133.6053717112
 30
0.0
 11
118.2775938215
 21
133.6053717112
 31
0.0
  0
LINE
  5
32
330
A
100
AcDbEntity
  8
1
  6
CONTINUOUS
370
    50
100
AcDbLine
 10
118.2775938215
 20
202.8553717112
 30
0.0
 11
117.7317932289
 21
202.8553717112
 31
0.0
  0
ARC
  5
33
330
A
100
AcDbEntity
  8
1
  6
CONTINUOUS
370
    50
100
AcDbCircle
 10
17.6275938215
 20
150.0677132848
 30
0.0
 40
2.25
100
AcDbArc
 50
180.0
 51
258.0
  0
ARC
  5
34
330
A
100
AcDbEntity
  8
1
  6
CONTINUOUS
370
    50
100
AcDbCircle
 10
17.6275938215
 20
186.3930301376
 30
0.0
 40
2.25
100
AcDbArc
 50
102.0
 51
180.0
  0
ARC
  5
35
330
A
100
AcDbEntity
  8
1
  6
CONTINUOUS
370
    50
100
AcDbCircle
 10
141.0275938215
 20
149.7803717112
 30
0.0
 40
5.0
100
AcDbArc
 50
81.890385544
 51
180.0
  0
ARC
  5
36
330
A
100
AcDbEntity
  8
1
  6
CONTINUOUS
370
    50
100
AcDbCircle
 10
141.0275938215
 20
186.6803717112
 30
0.0
 40
5.0
100
AcDbArc
 50
180.0
 51
278.109614456
  0
LINE
  5
37
330
A
100
AcDbEntity
  8
1
  6
CONTINUOUS
370
    50
100
AcDbLine
 10
158.8589796129
 20
154.7303717112
 30
0.0
 11
195.9444657175
 21
157.6490627661
 31
0.0
  0
LINE
  5
38
330
A
100
AcDbEntity
  8
1
  6
CONTINUOUS
370
    50
100
AcDbLine
 10
195.9444657175
 20
178.8116806564
 30
0.0
 11
158.8589796129
 21
181.7303717112
 31
0.0
  0
LINE
  5
39
330
A
100
AcDbEntity
  8
1
  6
CONTINUOUS
370
    50
100
AcDbLine
 10
141.7329306204
 20
154.7303717112
 30
0.0
 11
158.8589796129
 21
154.7303717112
 31
0.0
  0
LINE
  5
3A
330
A
100
AcDbEntity
  8
1
  6
CONTINUOUS
370
    50
100
AcDbLine
 10
158.8589796129
 20
181.7303717112
 30
0.0
 11
141.7329306204
 21
181.7303717112
 31
0.0
  0
ARC
  5
3B
330
A
100
AcDbEntity
  8
1
  6
CONTINUOUS
370
    50
100
AcDbCircle
 10
194.9775938215
 20
159.3998222403
 30
0.0
 40
2.0
100
AcDbArc
 50
298.9100507073
 51
0.0
  0
ARC
  5
3C
330
A
100
AcDbEntity
  8
1
  6
CONTINUOUS
370
    50
100
AcDbCircle
 10
194.9775938215
 20
177.0609211821
 30
0.0
 40
2.0
100
AcDbArc
 50
0.0
 51
61.08994929269999
  0
LINE
  5
3D
330
A
100
AcDbEntity
  8
1
  6
CONTINUOUS
370
    50
100
AcDbLine
 10
130.0025938215
 20
198.0803717112
 30
0.0
 11
130.0025938215
 21
123.5835962325
 31
0.0
  0
LINE
  5
3E
330
A
100
AcDbEntity
  8
1
  6
CONTINUOUS
370
    50
100
AcDbLine
 10
131.3107553289
 20
198.0803717112
 30
0.0
 11
130.0025938215
 21
198.0803717112
 31
0.0
  0
LINE
  5
3F
330
A
100
AcDbEntity
  8
1
  6
CONTINUOUS
370
    50
100
AcDbLine
 10
131.3107553289
 20
198.0803717112
 30
0.0
 11
131.3107553289
 21
121.471034409
 31
0.0
  0
LINE
  5
40
330
A
100
AcDbEntity
  8
1
  6
CONTINUOUS
370
    50
100
AcDbLine
 10
130.7038359149
 20
122.3210344112
 30
0.0
 11
131.3107553289
 21
121.471034409
 31
0.0
  0
LINE
  5
41
330
A
100
AcDbEntity
  8
1
  6
CONTINUOUS
370
    50
100
AcDbLine
 10
130.0025938215
 20
123.5835962325
 30
0.0
 11
130.7038359149
 21
122.3210344112
 31
0.0
  0
LINE
  5
42
330
A
100
AcDbEntity
  8
1
  6
CONTINUOUS
370
    50
100
AcDbLine
 10
135.5275938215
 20
121.471034409
 30
0.0
 11
135.5275938215
 21
198.0803717112
 31
0.0
  0
LINE
  5
43
330
A
100
AcDbEntity
  8
1
  6
CONTINUOUS
370
    50
100
AcDbLine
 10
135.5275938215
 20
198.0803717112
 30
0.0
 11
136.0275938215
 21
198.0803717112
 31
0.0
  0
LINE
  5
44
330
A
100
AcDbEntity
  8
1
  6
CONTINUOUS
370
    50
100
AcDbLine
 10
136.0275938215
 20
198.0803717112
 30
0.0
 11
136.0275938215
 21
121.8746177193
 31
0.0
  0
LINE
  5
45
330
A
100
AcDbEntity
  8
1
  6
CONTINUOUS
370
    50
100
AcDbLine
 10
136.0275938215
 20
121.8746177193
 30
0.0
 11
135.5275938215
 21
121.471034409
 31
0.0
  0
LINE
  5
46
330
A
100
AcDbEntity
  8
1
  6
CONTINUOUS
370
    50
100
AcDbLine
 10
126.1525938215
 20
198.0803717112
 30
0.0
 11
124.844432314
 21
198.0803717112
 31
0.0
  0
LINE
  5
47
330
A
100
AcDbEntity
  8
1
  6
CONTINUOUS
370
    50
100
AcDbLine
 10
126.1525938215
 20
123.5835962325
 30
0.0
 11
126.1525938215
 21
198.0803717112
 31
0.0
  0
LWPOLYLINE
  5
48
330
A
100
AcDbEntity
  8
1
  6
CONTINUOUS
370
    50
100
AcDbPolyline
 90
        3
 70
   128
 43
0.0
 10
125.451351728
 20
122.3210344112
 10
125.4986638924
 20
122.4061367207
 10
126.1525938215
 20
123.5835962325
  0
LINE
  5
4D
330
A
100
AcDbEntity
  8
1
  6
CONTINUOUS
370
    50
100
AcDbLine
 10
124.844432314
 20
121.471034409
 30
0.0
 11
125.451351728
 21
122.3210344112
 31
0.0
  0
LINE
  5
4E
330
A
100
AcDbEntity
  8
1
  6
CONTINUOUS
370
    50
100
AcDbLine
 10
124.844432314
 20
121.471034409
 30
0.0
 11
124.844432314
 21
198.0803717112
 31
0.0
  0
LINE
  5
4F
330
A
100
AcDbEntity
  8
1
  6
CONTINUOUS
370
    50
100
AcDbLine
 10
135.5275938215
 20
198.0803717112
 30
0.0
 11
131.3107553289
 21
198.0803717112
 31
0.0
  0
LINE
  5
50
330
A
100
AcDbEntity
  8
1
  6
CONTINUOUS
370
    50
100
AcDbLine
 10
131.3107553289
 20
121.471034409
 30
0.0
 11
135.5275938215
 21
121.471034409
 31
0.0
  0
LINE
  5
51
330
A
100
AcDbEntity
  8
1
  6
CONTINUOUS
370
    50
100
AcDbLine
 10
119.8275938193
 20
121.471034409
 30
0.0
 11
124.844432314
 21
121.471034409
 31
0.0
  0
LINE
  5
52
330
A
100
AcDbEntity
  8
1
  6
CONTINUOUS
370
    50
100
AcDbLine
 10
118.9775938215
 20
121.7285101893
 30
0.0
 11
119.8275938193
 21
121.471034409
 31
0.0
  0
LINE
  5
53
330
A
100
AcDbEntity
  8
1
  6
CONTINUOUS
370
    50
100
AcDbLine
 10
118.9775938215
 20
198.0803717112
 30
0.0
 11
118.9775938215
 21
121.7285101893
 31
0.0
  0
LINE
  5
54
330
A
100
AcDbEntity
  8
1
  6
CONTINUOUS
370
    50
100
AcDbLine
 10
124.844432314
 20
198.0803717112
 30
0.0
 11
118.9775938215
 21
198.0803717112
 31
0.0
  0
LINE
  5
55
330
A
100
AcDbEntity
  8
1
  6
CONTINUOUS
370
    50
100
AcDbLine
 10
118.4775938215
 20
122.4139104227
 30
0.0
 11
118.4775938215
 21
198.0803717112
 31
0.0
  0
LINE
  5
56
330
A
100
AcDbEntity
  8
1
  6
CONTINUOUS
370
    50
100
AcDbLine
 10
118.4775938215
 20
198.0803717112
 30
0.0
 11
118.9775938215
 21
198.0803717112
 31
0.0
  0
LINE
  5
57
330
A
100
AcDbEntity
  8
1
  6
CONTINUOUS
370
    50
100
AcDbLine
 10
118.9775938215
 20
121.7285101893
 30
0.0
 11
118.4775938215
 21
122.4139104227
 31
0.0
  0
ARC
  5
58
330
A
100
AcDbEntity
  8
1
  6
CONTINUOUS
370
    50
100
AcDbCircle
 10
126.6640753388
 20
124.0711639907
 30
0.0
 40
0.5115703146
100
AcDbArc
 50
91.28603577260002
 51
181.0675571359
  0
LINE
  5
59
330
A
100
AcDbEntity
  8
1
  6
CONTINUOUS
370
    50
100
AcDbLine
 10
126.1525938215
 20
198.0803717112
 30
0.0
 11
126.6525938215
 21
198.0803717112
 31
0.0
  0
LINE
  5
5A
330
A
100
AcDbEntity
  8
1
  6
CONTINUOUS
370
    50
100
AcDbLine
 10
126.6525938215
 20
198.0803717112
 30
0.0
 11
126.6525938215
 21
124.5826054453
 31
0.0
  0
ARC
  5
5B
330
A
100
AcDbEntity
  8
1
  6
CONTINUOUS
370
    50
100
AcDbCircle
 10
129.4927008955
 20
124.0726886305
 30
0.0
 40
0.5100127724
100
AcDbArc
 50
358.7578664214
 51
88.8885406702
  0
LINE
  5
5C
330
A
100
AcDbEntity
  8
1
  6
CONTINUOUS
370
    50
100
AcDbLine
 10
129.5025938215
 20
198.0803717112
 30
0.0
 11
129.5025938215
 21
124.5826054453
 31
0.0
  0
LINE
  5
5D
330
A
100
AcDbEntity
  8
1
  6
CONTINUOUS
370
    50
100
AcDbLine
 10
129.5025938215
 20
198.0803717112
 30
0.0
 11
130.0025938215
 21
198.0803717112
 31
0.0
  0
LINE
  5
5E
330
A
100
AcDbEntity
  8
1
  6
CONTINUOUS
370
    50
100
AcDbLine
 10
129.5025938215
 20
124.5826054453
 30
0.0
 11
126.6525938215
 21
124.5826054453
 31
0.0
  0
LINE
  5
5F
330
A
100
AcDbEntity
  8
1
  6
CONTINUOUS
370
    50
100
AcDbLine
 10
126.6525938215
 20
198.0803717112
 30
0.0
 11
129.5025938215
 21
198.0803717112
 31
0.0
  0
LINE
  5
60
330
A
100
AcDbEntity
  8
1
  6
CONTINUOUS
370
    50
100
AcDbLine
 10
17.2309338856
 20
188.6089838039
 30
0.0
 11
17.2309338856
 21
147.8517596185
 31
0.0
  0
LINE
  5
61
330
A
100
AcDbEntity
  8
1
  6
CONTINUOUS
370
    50
100
AcDbLine
 10
116.9775938215
 20
133.3053717112
 30
0.0
 11
116.9775938215
 21
203.1553717112
 31
0.0
  0
LINE
  5
62
330
A
100
AcDbEntity
  8
1
  6
CONTINUOUS
370
    50
100
AcDbLine
 10
124.844432314
 20
206.7414496629
 30
0.0
 11
126.1525938215
 21
203.8314188959
 31
0.0
  0
LINE
  5
63
330
A
100
AcDbEntity
  8
1
  6
CONTINUOUS
370
    50
100
AcDbLine
 10
126.1525938215
 20
203.2300502812
 30
0.0
 11
126.1525938215
 21
203.8314188959
 31
0.0
  0
ARC
  5
64
330
A
100
AcDbEntity
  8
1
  6
CONTINUOUS
370
    50
100
AcDbCircle
 10
126.7493393668
 20
203.1629190627
 30
0.0
 40
0.6005096556
100
AcDbArc
 50
173.5814650342
 51
260.7289175408
  0
LINE
  5
65
330
A
100
AcDbEntity
  8
1
  6
CONTINUOUS
370
    50
100
AcDbLine
 10
129.5025938215
 20
202.5702537727
 30
0.0
 11
126.6525938215
 21
202.5702537727
 31
0.0
  0
ARC
  5
66
330
A
100
AcDbEntity
  8
1
  6
CONTINUOUS
370
    50
100
AcDbCircle
 10
129.4375198989
 20
203.138918009
 30
0.0
 40
0.5723754266
100
AcDbArc
 50
276.5281284847999
 51
9.1614889403
  0
LINE
  5
67
330
A
100
AcDbEntity
  8
1
  6
CONTINUOUS
370
    50
100
AcDbLine
 10
130.0025938215
 20
203.8314188959
 30
0.0
 11
130.0025938215
 21
203.2300502812
 31
0.0
  0
LWPOLYLINE
  5
68
330
A
100
AcDbEntity
  8
1
  6
CONTINUOUS
370
    50
100
AcDbPolyline
 90
        3
 70
   128
 43
0.0
 10
130.0025938215
 20
203.8314188959
 10
130.0908933718
 20
204.0307743088
 10
131.3107553289
 20
206.7414496629
  0
LINE
  5
6D
330
A
100
AcDbEntity
  8
1
  6
CONTINUOUS
370
    50
100
AcDbLine
 10
131.3107553289
 20
206.7414496629
 30
0.0
 11
135.5275938215
 21
206.7414496629
 31
0.0
  0
LINE
  5
6E
330
A
100
AcDbEntity
  8
1
  6
CONTINUOUS
370
    50
100
AcDbLine
 10
136.0275938215
 20
206.1068568306
 30
0.0
 11
135.5275938215
 21
206.7414496629
 31
0.0
  0
LINE
  5
6F
330
A
100
AcDbEntity
  8
1
  6
CONTINUOUS
370
    50
100
AcDbLine
 10
118.9775938215
 20
206.7414496629
 30
0.0
 11
118.4775938215
 21
206.1068568306
 31
0.0
  0
LINE
  5
70
330
A
100
AcDbEntity
  8
1
  6
CONTINUOUS
370
    50
100
AcDbLine
 10
118.9775938215
 20
206.7414496629
 30
0.0
 11
124.844432314
 21
206.7414496629
 31
0.0
  0
LINE
  5
71
330
A
100
AcDbEntity
  8
1
  6
CONTINUOUS
370
    50
100
AcDbLine
 10
118.4775938215
 20
206.1068568306
 30
0.0
 11
118.4775938215
 21
198.0803717112
 31
0.0
  0
LINE
  5
72
330
A
100
AcDbEntity
  8
1
  6
CONTINUOUS
370
    50
100
AcDbLine
 10
136.0275938215
 20
206.1068568306
 30
0.0
 11
136.0275938215
 21
198.0803717112
 31
0.0
  0
LINE
  5
73
330
A
100
AcDbEntity
  8
1
  6
CONTINUOUS
370
    50
100
AcDbLine
 10
129.5025938215
 20
211.8781379771
 30
0.0
 11
129.5025938215
 21
202.5702537727
 31
0.0
  0
LINE
  5
74
330
A
100
AcDbEntity
  8
1
  6
CONTINUOUS
370
    50
100
AcDbLine
 10
126.6525938215
 20
211.8781379771
 30
0.0
 11
126.6525938215
 21
202.5702537727
 31
0.0
  0
LINE
  5
75
330
A
100
AcDbEntity
  8
1
  6
CONTINUOUS
370
    50
100
AcDbLine
 10
129.5025938215
 20
211.8781379771
 30
0.0
 11
126.6525938215
 21
211.8781379771
 31
0.0
  0
ARC
  5
76
330
A
100
AcDbEntity
  8
1
  6
CONTINUOUS
370
    50
100
AcDbCircle
 10
126.6618309947
 20
212.3874254378
 30
0.0
 40
0.5093712232
100
AcDbArc
 50
178.685492207
 51
268.9609148846
  0
ARC
  5
77
330
A
100
AcDbEntity
  8
1
  6
CONTINUOUS
370
    50
100
AcDbCircle
 10
129.4950346097
 20
212.3858150255
 30
0.0
 40
0.5077333229
100
AcDbArc
 50
270.8530598853999
 51
1.500533023
  0
LINE
  5
78
330
A
100
AcDbEntity
  8
1
  6
CONTINUOUS
370
    50
100
AcDbLine
 10
126.1525938215
 20
203.8314188959
 30
0.0
 11
126.1525938215
 21
212.8771471899
 31
0.0
  0
LINE
  5
79
330
A
100
AcDbEntity
  8
1
  6
CONTINUOUS
370
    50
100
AcDbLine
 10
124.844432314
 20
206.7414496629
 30
0.0
 11
124.844432314
 21
214.9897090134
 31
0.0
  0
LINE
  5
7A
330
A
100
AcDbEntity
  8
1
  6
CONTINUOUS
370
    50
100
AcDbLine
 10
125.451351728
 20
214.1397090112
 30
0.0
 11
124.844432314
 21
214.9897090134
 31
0.0
  0
LINE
  5
7B
330
A
100
AcDbEntity
  8
1
  6
CONTINUOUS
370
    50
100
AcDbLine
 10
125.451351728
 20
214.1397090112
 30
0.0
 11
126.1525938215
 21
212.8771471899
 31
0.0
  0
LINE
  5
7C
330
A
100
AcDbEntity
  8
1
  6
CONTINUOUS
370
    50
100
AcDbLine
 10
130.0025938215
 20
212.8771471899
 30
0.0
 11
130.7038359149
 21
214.1397090112
 31
0.0
  0
LINE
  5
7D
330
A
100
AcDbEntity
  8
1
  6
CONTINUOUS
370
    50
100
AcDbLine
 10
131.3107553289
 20
214.9897090134
 30
0.0
 11
130.7038359149
 21
214.1397090112
 31
0.0
  0
LINE
  5
7E
330
A
100
AcDbEntity
  8
1
  6
CONTINUOUS
370
    50
100
AcDbLine
 10
131.3107553289
 20
214.9897090134
 30
0.0
 11
131.3107553289
 21
206.7414496629
 31
0.0
  0
LINE
  5
7F
330
A
100
AcDbEntity
  8
1
  6
CONTINUOUS
370
    50
100
AcDbLine
 10
130.0025938215
 20
212.8771471899
 30
0.0
 11
130.0025938215
 21
203.8314188959
 31
0.0
  0
LINE
  5
80
330
A
100
AcDbEntity
  8
1
  6
CONTINUOUS
370
    50
100
AcDbLine
 10
135.5275938215
 20
206.7414496629
 30
0.0
 11
135.5275938215
 21
214.9897090134
 31
0.0
  0
LINE
  5
81
330
A
100
AcDbEntity
  8
1
  6
CONTINUOUS
370
    50
100
AcDbLine
 10
135.5275938215
 20
214.9897090134
 30
0.0
 11
136.0275938215
 21
214.5861257031
 31
0.0
  0
LINE
  5
82
330
A
100
AcDbEntity
  8
1
  6
CONTINUOUS
370
    50
100
AcDbLine
 10
136.0275938215
 20
214.5861257031
 30
0.0
 11
136.0275938215
 21
206.1068568306
 31
0.0
  0
LINE
  5
83
330
A
100
AcDbEntity
  8
1
  6
CONTINUOUS
370
    50
100
AcDbLine
 10
118.4775938215
 20
214.0468329997
 30
0.0
 11
118.9775938215
 21
214.7322332331
 31
0.0
  0
LINE
  5
84
330
A
100
AcDbEntity
  8
1
  6
CONTINUOUS
370
    50
100
AcDbLine
 10
118.9775938215
 20
214.7322332331
 30
0.0
 11
118.9775938215
 21
206.7414496629
 31
0.0
  0
LINE
  5
85
330
A
100
AcDbEntity
  8
1
  6
CONTINUOUS
370
    50
100
AcDbLine
 10
118.4775938215
 20
206.1068568306
 30
0.0
 11
118.4775938215
 21
214.0468329997
 31
0.0
  0
LINE
  5
86
330
A
100
AcDbEntity
  8
1
  6
CONTINUOUS
370
    50
100
AcDbLine
 10
124.844432314
 20
214.9897090134
 30
0.0
 11
119.8275938193
 21
214.9897090134
 31
0.0
  0
LINE
  5
87
330
A
100
AcDbEntity
  8
1
  6
CONTINUOUS
370
    50
100
AcDbLine
 10
118.9775938215
 20
214.7322332331
 30
0.0
 11
119.8275938193
 21
214.9897090134
 31
0.0
  0
LINE
  5
88
330
A
100
AcDbEntity
  8
1
  6
CONTINUOUS
370
    50
100
AcDbLine
 10
135.5275938215
 20
214.9897090134
 30
0.0
 11
131.3107553289
 21
214.9897090134
 31
0.0
  0
LINE
  5
89
330
A
100
AcDbEntity
  8
1
  6
CONTINUOUS
370
    50
100
AcDbLine
 10
15.3775938215
 20
150.0677132864
 30
0.0
 11
15.3775938215
 21
186.3930301376
 31
0.0
  0
LINE
  5
8A
330
A
100
AcDbEntity
  8
1
  6
CONTINUOUS
370
    50
100
AcDbLine
 10
141.7329306204
 20
154.7303717112
 30
0.0
 11
141.7329306204
 21
181.7303717112
 31
0.0
  0
LINE
  5
8B
330
A
100
AcDbEntity
  8
1
  6
CONTINUOUS
370
    50
100
AcDbLine
 10
195.9444657175
 20
178.8116806564
 30
0.0
 11
195.9444657175
 21
157.6490627661
 31
0.0
  0
LINE
  5
8C
330
A
100
AcDbEntity
  8
1
  6
CONTINUOUS
370
    50
100
AcDbLine
 10
158.8589796129
 20
154.7303717112
 30
0.0
 11
158.8589796129
 21
181.7303717112
 31
0.0
  0
LINE
  5
8D
330
A
100
AcDbEntity
  8
1
  6
CONTINUOUS
370
    50
100
AcDbLine
 10
196.9775938215
 20
159.3998223155
 30
0.0
 11
196.9775938215
 21
177.0609211821
 31
0.0
  0
LINE
  5
8E
330
A
100
AcDbEntity
  8
1
  6
CONTINUOUS
370
    50
100
AcDbLine
 10
118.2775938215
 20
133.6053717112
 30
0.0
 11
118.2775938215
 21
202.8553717112
 31
0.0
  0
LINE
  5
8F
330
A
100
AcDbEntity
  8
1
  6
CONTINUOUS
370
    50
100
AcDbLine
 10
117.5204840981
 20
133.5585256047
 30
0.0
 11
117.5204840981
 21
202.9022178177
 31
0.0
  0
LINE
  5
90
330
A
100
AcDbEntity
  8
1
  6
CONTINUOUS
370
    50
100
AcDbLine
 10
117.7317932289
 20
133.6053717112
 30
0.0
 11
117.7317932289
 21
202.8553717112
 31
0.0
  0
LINE
  5
91
330
A
100
AcDbEntity
  8
1
  6
CONTINUOUS
370
    50
100
AcDbLine
 10
17.1597925171
 20
147.8668811832
 30
0.0
 11
17.1597925171
 21
188.5938622392
 31
0.0
  0
LWPOLYLINE
  5
92
330
A
100
AcDbEntity
  8
1
  6
CONTINUOUS
370
    50
100
AcDbPolyline
 90
       26
 70
   128
 43
0.0
 10
135.200146431
 20
154.5650016926
 10
135.0379450647
 20
153.9342272114
 10
134.784782935
 20
153.3430866106
 10
134.4565671496
 20
152.8287234283
 10
134.0739207134
 20
152.423456995
 10
133.6608867093
 20
152.152751691
 10
133.2434175827
 20
152.0336169263
 10
132.8477444542
 20
152.0735383762
 10
132.4987289217
 20
152.2700076293
 10
132.2183009147
 20
152.6106797998
 10
132.0240807562
 20
153.0741492023
 10
131.928272013
 20
153.6312943497
 10
131.9368947008
 20
154.2471077634
 10
132.0494070246
 20
154.8828956218
 10
132.258739421
 20
155.4987090356
 10
132.5517387659
 20
156.055854183
 10
132.9099948328
 20
156.5193235855
 10
133.3109970754
 20
156.859995756
 10
133.7295490481
 20
157.056465009
 10
134.1393515911
 20
157.096386459
 10
134.5146553035
 20
156.9772516943
 10
134.8318784727
 20
156.7065463903
 10
135.0710888003
 20
156.301279957
 10
135.2172558218
 20
155.7869167747
 10
135.2611953256
 20
155.1957761739
 10
135.200146431
 20
154.5650016926
  0
LWPOLYLINE
  5
AE
330
A
100
AcDbEntity
  8
1
  6
CONTINUOUS
370
    50
100
AcDbPolyline
 90
       26
 70
   128
 43
0.0
 10
127.0916811645
 20
156.0000527709
 10
127.0970208055
 20
155.485550601
 10
127.0914341932
 20
155.0319451415
 10
127.0739172061
 20
154.6835594434
 10
127.0342006875
 20
154.4320150803
 10
126.9282541207
 20
154.3154499335
 10
126.8069027784
 20
154.32914988
 10
126.6388760277
 20
154.3752143477
 10
126.3976516391
 20
154.4444888715
 10
125.9885152855
 20
154.5697156068
 10
125.148173816
 20
154.9373065963
 10
124.5496184009
 20
155.4031348354
 10
124.2562822652
 20
155.8316499934
 10
124.1450136244
 20
156.2455925191
 10
124.1898236883
 20
156.6692069514
 10
124.3687599942
 20
157.0402531413
 10
124.8041428491
 20
157.4844646824
 10
125.6145143868
 20
157.8896689643
 10
126.1433831769
 20
157.9971621996
 10
126.4593993462
 20
157.9907093873
 10
126.6727332843
 20
157.9230456502
 10
126.8201221394
 20
157.7991861133
 10
126.9632919469
 20
157.4813210216
 10
127.0543420706
 20
156.8457034435
 10
127.0850918235
 20
156.250052164
 10
127.0916811645
 20
156.0000527709
  0
LWPOLYLINE
  5
CA
330
A
100
AcDbEntity
  8
1
  6
CONTINUOUS
370
    50
100
AcDbPolyline
 90
       24
 70
   128
 43
0.0
 10
134.5075386637
 20
154.6749248478
 10
134.3615107811
 20
154.1222131141
 10
134.1298788351
 20
153.6104934813
 10
133.8298219075
 20
153.1777178534
 10
133.4835938479
 20
152.855983219
 10
133.1168728077
 20
152.6691511641
 10
132.7568568088
 20
152.6310781676
 10
132.4302465908
 20
152.7445879293
 10
132.1612653395
 20
153.0012619496
 10
131.9698621637
 20
153.3820638906
 10
131.8702325614
 20
153.8587514143
 10
131.8697656045
 20
154.3959707878
 10
131.9684959249
 20
154.9538789078
 10
132.1591011466
 20
155.4910982814
 10
132.4274449521
 20
155.9677858051
 10
132.7536255089
 20
156.348587746
 10
133.1134514975
 20
156.6052617663
 10
133.4802362702
 20
156.7187715281
 10
133.8267770785
 20
156.6806985315
 10
134.1273725758
 20
156.4938664767
 10
134.3597289694
 20
156.1721318423
 10
134.5066134484
 20
155.7393562144
 10
134.5571322629
 20
155.2276365815
 10
134.5075386637
 20
154.6749248478
  0
LWPOLYLINE
  5
E4
330
A
100
AcDbEntity
  8
1
  6
CONTINUOUS
370
    50
100
AcDbPolyline
 90
       24
 70
   128
 43
0.0
 10
125.3226657907
 20
157.3108821094
 10
125.1766379081
 20
156.7581703758
 10
124.9450059621
 20
156.2464507429
 10
124.6449490345
 20
155.813675115
 10
124.2987209749
 20
155.4919404806
 10
123.9319999348
 20
155.3051084258
 10
123.5719839358
 20
155.2670354292
 10
123.2453737178
 20
155.380545191
 10
122.9763924665
 20
155.6372192112
 10
122.7849892907
 20
156.0180211522
 10
122.6853596884
 20
156.4947086759
 10
122.6848927315
 20
157.0319280494
 10
122.7836230519
 20
157.5898361695
 10
122.9742282736
 20
158.127055543
 10
123.2425720791
 20
158.6037430667
 10
123.5687526359
 20
158.9845450076
 10
123.9285786245
 20
159.2412190279
 10
124.2953633972
 20
159.3547287897
 10
124.6419042055
 20
159.3166557931
 10
124.9424997028
 20
159.1298237383
 10
125.1748560964
 20
158.8080891039
 10
125.3217405754
 20
158.375313476
 10
125.3722593899
 20
157.8635938431
 10
125.3226657907
 20
157.3108821094
  0
LINE
  5
FE
330
A
100
AcDbEntity
  8
1
  6
CONTINUOUS
370
    50
100
AcDbLine
 10
118.730747715
 20
132.9303717112
 30
0.0
 11
118.730747715
 21
204.4536193094
 31
0.0
  0
LINE
  5
FF
330
A
100
AcDbEntity
  8
1
  6
CONTINUOUS
370
    50
100
AcDbLine
 10
118.7775938215
 20
132.9303717112
 30
0.0
 11
118.7775938215
 21
204.2617216117
 31
0.0
  0
LWPOLYLINE
  5
100
330
A
100
AcDbEntity
  8
1
  6
CONTINUOUS
370
    50
100
AcDbPolyline
 90
       26
 70
   128
 43
0.0
 10
125.5626737829
 20
157.3130805725
 10
125.4067109307
 20
156.7065666483
 10
125.163285806
 20
156.1381622244
 10
124.8476937046
 20
155.6435822415
 10
124.479764439
 20
155.2539029786
 10
124.0826163581
 20
154.9936094171
 10
123.6812037364
 20
154.8790567588
 10
123.3007488052
 20
154.9174427683
 10
122.965156947
 20
155.1063555117
 10
122.6955146326
 20
155.4339249063
 10
122.5087644801
 20
155.8795685626
 10
122.4166406886
 20
156.4152850505
 10
122.4249317346
 20
157.0074133329
 10
122.5331166613
 20
157.6187478122
 10
122.7343978117
 20
158.2108760946
 10
123.016127951
 20
158.7465925825
 10
123.3606049384
 20
159.1922362388
 10
123.7461840179
 20
159.5198056334
 10
124.1486378378
 20
159.7087183768
 10
124.5426787445
 20
159.7471043863
 10
124.9035476987
 20
159.632551728
 10
125.2085699768
 20
159.3722581665
 10
125.4385799072
 20
158.9825789036
 10
125.5791251202
 20
158.4879989207
 10
125.621374643
 20
157.9195944968
 10
125.5626737829
 20
157.3130805725
  0
LWPOLYLINE
  5
11C
330
A
100
AcDbEntity
  8
1
  6
CONTINUOUS
370
    50
100
AcDbPolyline
 90
       26
 70
   128
 43
0.0
 10
125.5703342273
 20
157.3108821094
 10
125.4143713751
 20
156.7043681852
 10
125.1709462504
 20
156.1359637613
 10
124.855354149
 20
155.6413837784
 10
124.4874248835
 20
155.2517045155
 10
124.0902768025
 20
154.991410954
 10
123.6888641808
 20
154.8768582957
 10
123.3084092496
 20
154.9152443052
 10
122.9728173914
 20
155.1041570486
 10
122.703175077
 20
155.4317264432
 10
122.5164249246
 20
155.8773700995
 10
122.424301133
 20
156.4130865874
 10
122.4325921791
 20
157.0052148698
 10
122.5407771057
 20
157.6165493491
 10
122.7420582562
 20
158.2086776315
 10
123.0237883955
 20
158.7443941194
 10
123.3682653829
 20
159.1900377756
 10
123.7538444623
 20
159.5176071703
 10
124.1562982822
 20
159.7065199137
 10
124.5503391889
 20
159.7449059232
 10
124.9112081431
 20
159.6303532648
 10
125.2162304212
 20
159.3700597034
 10
125.4462403516
 20
158.9803804405
 10
125.5867855646
 20
158.4858004576
 10
125.6290350875
 20
157.9173960337
 10
125.5703342273
 20
157.3108821094
  0
LWPOLYLINE
  5
138
330
A
100
AcDbEntity
  8
1
  6
CONTINUOUS
370
    50
100
AcDbPolyline
 90
       24
 70
   128
 43
0.0
 10
125.3150053463
 20
157.3130805725
 10
125.1689774637
 20
156.7603688389
 10
124.9373455177
 20
156.248649206
 10
124.6372885901
 20
155.8158735781
 10
124.2910605305
 20
155.4941389437
 10
123.9243394903
 20
155.3073068889
 10
123.5643234914
 20
155.2692338923
 10
123.2377132734
 20
155.3827436541
 10
122.968732022
 20
155.6394176744
 10
122.7773288463
 20
156.0202196153
 10
122.677699244
 20
156.496907139
 10
122.6772322871
 20
157.0341265125
 10
122.7759626075
 20
157.5920346326
 10
122.9665678291
 20
158.1292540061
 10
123.2349116346
 20
158.6059415298
 10
123.5610921915
 20
158.9867434707
 10
123.92091818
 20
159.243417491
 10
124.2877029528
 20
159.3569272528
 10
124.634243761
 20
159.3188542562
 10
124.9348392584
 20
159.1320222014
 10
125.1671956519
 20
158.810287567
 10
125.3140801309
 20
158.3775119391
 10
125.3645989455
 20
157.8657923062
 10
125.3150053463
 20
157.3130805725
  0
LWPOLYLINE
  5
152
330
A
100
AcDbEntity
  8
1
  6
CONTINUOUS
370
    50
100
AcDbPolyline
 90
       22
 70
   128
 43
0.0
 10
101.6162775178
 20
164.1143542074
 10
101.1697870216
 20
163.5992816274
 10
100.2880782662
 20
163.1074135701
 10
98.7032159275
 20
162.7568516475
 10
97.8746382212
 20
162.749679979
 10
97.0317965498
 20
162.8753548736
 10
96.1717459904
 20
163.2071708433
 10
95.6141665864
 20
163.648903856
 10
95.3182000006
 20
164.1246946058
 10
95.2209037823
 20
164.6791811147
 10
95.325466482
 20
165.1824684504
 10
95.5900622525
 20
165.6372445606
 10
96.1387765087
 20
166.1303057617
 10
97.0718698953
 20
166.5380472415
 10
98.5278865827
 20
166.6766279535
 10
100.0090550115
 20
166.3750600031
 10
100.9317933913
 20
165.9061011979
 10
101.4394112206
 20
165.4426425921
 10
101.6792579767
 20
165.0343379504
 10
101.7542335058
 20
164.6563097016
 10
101.6910131783
 20
164.280977029
 10
101.6162775178
 20
164.1143542074
  0
LINE
  5
16A
330
A
100
AcDbEntity
  8
1
  6
CONTINUOUS
370
    50
100
AcDbLine
 10
118.4775938215
 20
132.1803717112
 30
0.0
 11
120.6775938215
 21
132.1803717112
 31
0.0
  0
LINE
  5
16B
330
A
100
AcDbEntity
  8
1
  6
CONTINUOUS
370
    50
100
AcDbLine
 10
120.6775938215
 20
206.4803717112
 30
0.0
 11
118.4775938215
 21
206.4803717112
 31
0.0
  0
LINE
  5
16C
330
A
100
AcDbEntity
  8
1
  6
CONTINUOUS
370
    50
100
AcDbLine
 10
16.1380653142
 20
155.299947794
 30
0.0
 11
16.1380653142
 21
181.1607956284
 31
0.0
  0
LINE
  5
16D
330
A
100
AcDbEntity
  8
1
  6
CONTINUOUS
370
    50
100
AcDbLine
 10
120.3669336497
 20
132.9303717112
 30
0.0
 11
118.4775938215
 21
132.9303717112
 31
0.0
  0
LINE
  5
16E
330
A
100
AcDbEntity
  8
1
  6
CONTINUOUS
370
    50
100
AcDbLine
 10
118.4775938215
 20
205.7303717112
 30
0.0
 11
120.3669336497
 21
205.7303717112
 31
0.0
  0
LINE
  5
16F
330
A
100
AcDbEntity
  8
1
  6
CONTINUOUS
370
    50
100
AcDbLine
 10
119.8275938193
 20
121.471034409
 30
0.0
 11
120.6775938215
 21
122.3210344112
 31
0.0
  0
LINE
  5
170
330
A
100
AcDbEntity
  8
1
  6
CONTINUOUS
370
    50
100
AcDbLine
 10
119.8275938193
 20
214.9897090134
 30
0.0
 11
120.6775938215
 21
214.1397090112
 31
0.0
  0
LINE
  5
171
330
A
100
AcDbEntity
  8
1
  6
CONTINUOUS
370
    50
100
AcDbLine
 10
16.6380653142
 20
155.5886229286
 30
0.0
 11
16.6380653142
 21
180.8721204938
 31
0.0
  0
LINE
  5
172
330
A
100
AcDbEntity
  8
1
  6
CONTINUOUS
370
    50
100
AcDbLine
 10
120.6775938215
 20
122.3210344112
 30
0.0
 11
125.451351728
 21
122.3210344112
 31
0.0
  0
LINE
  5
173
330
A
100
AcDbEntity
  8
1
  6
CONTINUOUS
370
    50
100
AcDbLine
 10
130.7038359149
 20
122.3210344112
 30
0.0
 11
136.0275938215
 21
122.3210344112
 31
0.0
  0
LINE
  5
174
330
A
100
AcDbEntity
  8
1
  6
CONTINUOUS
370
    50
100
AcDbLine
 10
120.6775938215
 20
122.3210344112
 30
0.0
 11
120.6775938215
 21
132.1803717112
 31
0.0
  0
LINE
  5
175
330
A
100
AcDbEntity
  8
1
  6
CONTINUOUS
370
    50
100
AcDbLine
 10
120.6775938215
 20
132.1803717112
 30
0.0
 11
136.0275938215
 21
132.1803717112
 31
0.0
  0
LINE
  5
176
330
A
100
AcDbEntity
  8
1
  6
CONTINUOUS
370
    50
100
AcDbLine
 10
136.0275938215
 20
132.9303717112
 30
0.0
 11
120.3669336497
 21
132.9303717112
 31
0.0
  0
LINE
  5
177
330
A
100
AcDbEntity
  8
1
  6
CONTINUOUS
370
    50
100
AcDbLine
 10
120.6775938215
 20
132.1803717112
 30
0.0
 11
120.3669336497
 21
132.9303717112
 31
0.0
  0
LINE
  5
178
330
A
100
AcDbEntity
  8
1
  6
CONTINUOUS
370
    50
100
AcDbLine
 10
130.7038359149
 20
214.1397090112
 30
0.0
 11
136.0275938215
 21
214.1397090112
 31
0.0
  0
LINE
  5
179
330
A
100
AcDbEntity
  8
1
  6
CONTINUOUS
370
    50
100
AcDbLine
 10
120.6775938215
 20
214.1397090112
 30
0.0
 11
125.451351728
 21
214.1397090112
 31
0.0
  0
LINE
  5
17A
330
A
100
AcDbEntity
  8
1
  6
CONTINUOUS
370
    50
100
AcDbLine
 10
120.6775938215
 20
214.1397090112
 30
0.0
 11
120.6775938215
 21
206.4803717112
 31
0.0
  0
LINE
  5
17B
330
A
100
AcDbEntity
  8
1
  6
CONTINUOUS
370
    50
100
AcDbLine
 10
136.0275938215
 20
206.4803717112
 30
0.0
 11
120.6775938215
 21
206.4803717112
 31
0.0
  0
LINE
  5
17C
330
A
100
AcDbEntity
  8
1
  6
CONTINUOUS
370
    50
100
AcDbLine
 10
120.3669336497
 20
205.7303717112
 30
0.0
 11
136.0275938215
 21
205.7303717112
 31
0.0
  0
LINE
  5
17D
330
A
100
AcDbEntity
  8
1
  6
CONTINUOUS
370
    50
100
AcDbLine
 10
120.6775938215
 20
206.4803717112
 30
0.0
 11
120.3669336497
 21
205.7303717112
 31
0.0
  0
LINE
  5
17E
330
A
100
AcDbEntity
  8
1
  6
CONTINUOUS
370
    50
100
AcDbLine
 10
28.2828125084
 20
178.7928717112
 30
0.0
 11
28.2828125084
 21
157.6678717112
 31
0.0
  0
LINE
  5
17F
330
A
100
AcDbEntity
  8
1
  6
CONTINUOUS
370
    50
100
AcDbLine
 10
27.0775938215
 20
180.8803717112
 30
0.0
 11
27.0775938215
 21
155.5803717112
 31
0.0
  0
LINE
  5
180
330
A
100
AcDbEntity
  8
1
  6
CONTINUOUS
370
    50
100
AcDbLine
 10
24.107497632
 20
180.7303717112
 30
0.0
 11
24.107497632
 21
155.7303717112
 31
0.0
  0
LINE
  5
181
330
A
100
AcDbEntity
  8
1
  6
CONTINUOUS
370
    50
100
AcDbLine
 10
24.3673052532
 20
180.8803717112
 30
0.0
 11
24.3673052532
 21
155.5803717112
 31
0.0
  0
LINE
  5
182
330
A
100
AcDbEntity
  8
1
  6
CONTINUOUS
370
    50
100
AcDbLine
 10
17.3775938215
 20
180.7303717112
 30
0.0
 11
17.3775938215
 21
155.7303717112
 31
0.0
  0
LINE
  5
183
330
A
100
AcDbEntity
  8
1
  6
CONTINUOUS
370
    50
100
AcDbLine
 10
64.3875938215
 20
180.2303717112
 30
0.0
 11
64.3875938215
 21
156.2303717112
 31
0.0
  0
LINE
  5
184
330
A
100
AcDbEntity
  8
1
  6
CONTINUOUS
370
    50
100
AcDbLine
 10
64.3775938215
 20
180.2303717112
 30
0.0
 11
64.3775938215
 21
156.2303717112
 31
0.0
  0
LINE
  5
185
330
A
100
AcDbEntity
  8
1
  6
CONTINUOUS
370
    50
100
AcDbLine
 10
79.3775938215
 20
178.7928717112
 30
0.0
 11
79.3775938215
 21
157.6678717112
 31
0.0
  0
LINE
  5
186
330
A
100
AcDbEntity
  8
1
  6
CONTINUOUS
370
    50
100
AcDbLine
 10
79.4003419611
 20
178.7303717112
 30
0.0
 11
79.4003419611
 21
157.7303717112
 31
0.0
  0
LINE
  5
187
330
A
100
AcDbEntity
  8
1
  6
CONTINUOUS
370
    50
100
AcDbLine
 10
128.553020302
 20
163.2303717112
 30
0.0
 11
128.553020302
 21
173.2303717112
 31
0.0
  0
LINE
  5
188
330
A
100
AcDbEntity
  8
1
  6
CONTINUOUS
370
    50
100
AcDbLine
 10
125.3775938215
 20
178.7303717112
 30
0.0
 11
125.3775938215
 21
157.7303717112
 31
0.0
  0
LWPOLYLINE
  5
189
330
A
100
AcDbEntity
  8
1
  6
CONTINUOUS
370
    50
100
AcDbPolyline
 90
       22
 70
   128
 43
0.0
 10
101.6162775178
 20
172.346389215
 10
101.1697870216
 20
172.861461795
 10
100.2880782662
 20
173.3533298524
 10
98.7032159275
 20
173.7038917749
 10
97.8603557615
 20
173.710456832
 10
97.0317965498
 20
173.5853885488
 10
96.1717459904
 20
173.2535725791
 10
95.6141665864
 20
172.8118395664
 10
95.3182000006
 20
172.3360488166
 10
95.2209037823
 20
171.7815623077
 10
95.325466482
 20
171.278274972
 10
95.5900622525
 20
170.8234988619
 10
96.1387765087
 20
170.3304376607
 10
97.0718698953
 20
169.9226961809
 10
98.5278865827
 20
169.7841154689
 10
100.0090550115
 20
170.0856834193
 10
100.9317933913
 20
170.5546422245
 10
101.4394112206
 20
171.0181008303
 10
101.6792579767
 20
171.426405472
 10
101.7542335058
 20
171.8044337208
 10
101.6910131783
 20
172.1797663934
 10
101.6162775178
 20
172.346389215
  0
LINE
  5
1A1
330
A
100
AcDbEntity
  8
1
  6
CONTINUOUS
370
    50
100
AcDbLine
 10
123.0775938215
 20
205.5303717112
 30
0.0
 11
133.0775938215
 21
205.5303717112
 31
0.0
  0
LINE
  5
1A2
330
A
100
AcDbEntity
  8
1
  6
CONTINUOUS
370
    50
100
AcDbLine
 10
147.3775938215
 20
163.2303717112
 30
0.0
 11
147.3775938215
 21
173.2303717112
 31
0.0
  0
LINE
  5
1A3
330
A
100
AcDbEntity
  8
1
  6
CONTINUOUS
370
    50
100
AcDbLine
 10
149.0519096021
 20
166.1303717112
 30
0.0
 11
149.0519096021
 21
170.3303717112
 31
0.0
  0
LINE
  5
1A4
330
A
100
AcDbEntity
  8
1
  6
CONTINUOUS
370
    50
100
AcDbLine
 10
123.3775940022
 20
201.0303717112
 30
0.0
 11
132.7775938215
 21
201.0303717112
 31
0.0
  0
LINE
  5
1A5
330
A
100
AcDbEntity
  8
1
  6
CONTINUOUS
370
    50
100
AcDbLine
 10
133.0775938215
 20
201.3303717112
 30
0.0
 11
123.0977223515
 21
201.3303717112
 31
0.0
  0
LINE
  5
1A6
330
A
100
AcDbEntity
  8
1
  6
CONTINUOUS
370
    50
100
AcDbLine
 10
195.8422511949
 20
171.2303717112
 30
0.0
 11
195.8422511949
 21
165.2303717112
 31
0.0
  0
LINE
  5
1A7
330
A
100
AcDbEntity
  8
1
  6
CONTINUOUS
370
    50
100
AcDbLine
 10
161.4775938215
 20
171.4303717112
 30
0.0
 11
161.4775938215
 21
165.0303717112
 31
0.0
  0
LINE
  5
1A8
330
A
100
AcDbEntity
  8
1
  6
CONTINUOUS
370
    50
100
AcDbLine
 10
160.9775938215
 20
165.5303720364
 30
0.0
 11
160.9775938215
 21
170.9303717112
 31
0.0
  0
LINE
  5
1A9
330
A
100
AcDbEntity
  8
1
  6
CONTINUOUS
370
    50
100
AcDbLine
 10
170.8621237715
 20
165.0303717112
 30
0.0
 11
170.8621237715
 21
171.4303717112
 31
0.0
  0
LINE
  5
1AA
330
A
100
AcDbEntity
  8
1
  6
CONTINUOUS
370
    50
100
AcDbLine
 10
170.9775938253
 20
171.2303717112
 30
0.0
 11
170.9775938253
 21
165.2303717112
 31
0.0
  0
LINE
  5
1AB
330
A
100
AcDbEntity
  8
1
  6
CONTINUOUS
370
    50
100
AcDbLine
 10
126.9775938215
 20
200.6303717112
 30
0.0
 11
129.1775938215
 21
200.6303717112
 31
0.0
  0
LINE
  5
1AC
330
A
100
AcDbEntity
  8
1
  6
CONTINUOUS
370
    50
100
AcDbLine
 10
126.8275938215
 20
197.2203717112
 30
0.0
 11
129.3275938215
 21
197.2203717112
 31
0.0
  0
LINE
  5
1AD
330
A
100
AcDbEntity
  8
1
  6
CONTINUOUS
370
    50
100
AcDbLine
 10
126.8275938215
 20
197.2303717112
 30
0.0
 11
129.3275938215
 21
197.2303717112
 31
0.0
  0
LINE
  5
1AE
330
A
100
AcDbEntity
  8
1
  6
CONTINUOUS
370
    50
100
AcDbLine
 10
126.9775938215
 20
194.6303717112
 30
0.0
 11
129.1775938215
 21
194.6303717112
 31
0.0
  0
LWPOLYLINE
  5
1AF
330
A
100
AcDbEntity
  8
1
  6
CONTINUOUS
370
    50
100
AcDbPolyline
 90
       24
 70
   128
 43
0.0
 10
125.3150053463
 20
179.1476628499
 10
125.1689774637
 20
179.7003745836
 10
124.9373455177
 20
180.2120942164
 10
124.6372885901
 20
180.6448698443
 10
124.2910605305
 20
180.9666044787
 10
123.9243394903
 20
181.1534365336
 10
123.5643234914
 20
181.1915095301
 10
123.2377132734
 20
181.0779997683
 10
122.968732022
 20
180.8213257481
 10
122.7773288463
 20
180.4405238071
 10
122.677699244
 20
179.9638362834
 10
122.6772322871
 20
179.4266169099
 10
122.7759626075
 20
178.8687087899
 10
122.9665678291
 20
178.3314894163
 10
123.2349116346
 20
177.8548018926
 10
123.5610921915
 20
177.4739999517
 10
123.92091818
 20
177.2173259314
 10
124.2877029528
 20
177.1038161696
 10
124.634243761
 20
177.1418891662
 10
124.9348392584
 20
177.328721221
 10
125.1671956519
 20
177.6504558554
 10
125.3140801309
 20
178.0832314833
 10
125.3645989455
 20
178.5949511162
 10
125.3150053463
 20
179.1476628499
  0
LINE
  5
1C9
330
A
100
AcDbEntity
  8
1
  6
CONTINUOUS
370
    50
100
AcDbLine
 10
129.5025938215
 20
124.5826054453
 30
0.0
 11
129.5025938215
 21
211.8781379771
 31
0.0
  0
LINE
  5
1CA
330
A
100
AcDbEntity
  8
1
  6
CONTINUOUS
370
    50
100
AcDbLine
 10
130.0025938215
 20
198.0803717112
 30
0.0
 11
130.0025938215
 21
203.2300502812
 31
0.0
  0
LINE
  5
1CB
330
A
100
AcDbEntity
  8
1
  6
CONTINUOUS
370
    50
100
AcDbLine
 10
126.6525938215
 20
124.5826054453
 30
0.0
 11
126.6525938215
 21
211.8781379771
 31
0.0
  0
LINE
  5
1CC
330
A
100
AcDbEntity
  8
1
  6
CONTINUOUS
370
    50
100
AcDbLine
 10
126.1525938215
 20
198.0803717112
 30
0.0
 11
126.1525938215
 21
203.2300502812
 31
0.0
  0
LINE
  5
1CD
330
A
100
AcDbEntity
  8
1
  6
CONTINUOUS
370
    50
100
AcDbLine
 10
124.844432314
 20
206.7414496629
 30
0.0
 11
124.844432314
 21
198.0803717112
 31
0.0
  0
LINE
  5
1CE
330
A
100
AcDbEntity
  8
1
  6
CONTINUOUS
370
    50
100
AcDbLine
 10
135.5275938215
 20
206.7414496629
 30
0.0
 11
135.5275938215
 21
198.0803717112
 31
0.0
  0
LINE
  5
1CF
330
A
100
AcDbEntity
  8
1
  6
CONTINUOUS
370
    50
100
AcDbLine
 10
131.3107553289
 20
198.0803717112
 30
0.0
 11
131.3107553289
 21
206.7414496629
 31
0.0
  0
LINE
  5
1D0
330
A
100
AcDbEntity
  8
1
  6
CONTINUOUS
370
    50
100
AcDbLine
 10
118.9775938215
 20
198.0803717112
 30
0.0
 11
118.9775938215
 21
206.7414496629
 31
0.0
  0
LINE
  5
1D1
330
A
100
AcDbEntity
  8
1
  6
CONTINUOUS
370
    50
100
AcDbLine
 10
132.4275938215
 20
176.8828475537
 30
0.0
 11
132.4275938215
 21
183.8828475537
 31
0.0
  0
LINE
  5
1D2
330
A
100
AcDbEntity
  8
1
  6
CONTINUOUS
370
    50
100
AcDbLine
 10
132.4275938215
 20
169.8828475537
 30
0.0
 11
132.4275938215
 21
176.8828475537
 31
0.0
  0
LWPOLYLINE
  5
1D3
330
A
100
AcDbEntity
  8
1
  6
CONTINUOUS
370
    50
100
AcDbPolyline
 90
       26
 70
   128
 43
0.0
 10
125.5703342273
 20
179.149861313
 10
125.4143713751
 20
179.7563752373
 10
125.1709462504
 20
180.3247796611
 10
124.855354149
 20
180.8193596441
 10
124.4874248835
 20
181.2090389069
 10
124.0902768025
 20
181.4693324684
 10
123.6888641808
 20
181.5838851268
 10
123.3084092496
 20
181.5454991172
 10
122.9728173914
 20
181.3565863739
 10
122.703175077
 20
181.0290169792
 10
122.5164249246
 20
180.5833733229
 10
122.424301133
 20
180.047656835
 10
122.4325921791
 20
179.4555285526
 10
122.5407771057
 20
178.8441940733
 10
122.7420582562
 20
178.2520657909
 10
123.0237883955
 20
177.716349303
 10
123.3682653829
 20
177.2707056468
 10
123.7538444623
 20
176.9431362521
 10
124.1562982822
 20
176.7542235087
 10
124.5503391889
 20
176.7158374992
 10
124.9112081431
 20
176.8303901576
 10
125.2162304212
 20
177.090683719
 10
125.4462403516
 20
177.4803629819
 10
125.5867855646
 20
177.9749429649
 10
125.6290350875
 20
178.5433473887
 10
125.5703342273
 20
179.149861313
  0
LWPOLYLINE
  5
1EF
330
A
100
AcDbEntity
  8
1
  6
CONTINUOUS
370
    50
100
AcDbPolyline
 90
       26
 70
   128
 43
0.0
 10
125.5626737829
 20
179.1476628499
 10
125.4067109307
 20
179.7541767742
 10
125.163285806
 20
180.322581198
 10
124.8476937046
 20
180.8171611809
 10
124.479764439
 20
181.2068404438
 10
124.0826163581
 20
181.4671340053
 10
123.6812037364
 20
181.5816866636
 10
123.3007488052
 20
181.5433006541
 10
122.965156947
 20
181.3543879108
 10
122.6955146326
 20
181.0268185161
 10
122.5087644801
 20
180.5811748598
 10
122.4166406886
 20
180.0454583719
 10
122.4249317346
 20
179.4533300895
 10
122.5331166613
 20
178.8419956102
 10
122.7343978117
 20
178.2498673278
 10
123.016127951
 20
177.7141508399
 10
123.3606049384
 20
177.2685071837
 10
123.7461840179
 20
176.940937789
 10
124.1486378378
 20
176.7520250456
 10
124.5426787445
 20
176.7136390361
 10
124.9035476987
 20
176.8281916945
 10
125.2085699768
 20
177.0884852559
 10
125.4385799072
 20
177.4781645188
 10
125.5791251202
 20
177.9727445018
 10
125.621374643
 20
178.5411489256
 10
125.5626737829
 20
179.1476628499
  0
LWPOLYLINE
  5
20B
330
A
100
AcDbEntity
  8
1
  6
CONTINUOUS
370
    50
100
AcDbPolyline
 90
       24
 70
   128
 43
0.0
 10
125.3226657907
 20
179.149861313
 10
125.1766379081
 20
179.7025730467
 10
124.9450059621
 20
180.2142926795
 10
124.6449490345
 20
180.6470683074
 10
124.2987209749
 20
180.9688029418
 10
123.9319999348
 20
181.1556349967
 10
123.5719839358
 20
181.1937079932
 10
123.2453737178
 20
181.0801982315
 10
122.9763924665
 20
180.8235242112
 10
122.7849892907
 20
180.4427222702
 10
122.6853596884
 20
179.9660347465
 10
122.6848927315
 20
179.428815373
 10
122.7836230519
 20
178.870907253
 10
122.9742282736
 20
178.3336878794
 10
123.2425720791
 20
177.8570003557
 10
123.5687526359
 20
177.4761984148
 10
123.9285786245
 20
177.2195243945
 10
124.2953633972
 20
177.1060146327
 10
124.6419042055
 20
177.1440876293
 10
124.9424997028
 20
177.3309196841
 10
125.1748560964
 20
177.6526543185
 10
125.3217405754
 20
178.0854299464
 10
125.3722593899
 20
178.5971495793
 10
125.3226657907
 20
179.149861313
  0
LWPOLYLINE
  5
225
330
A
100
AcDbEntity
  8
1
  6
CONTINUOUS
370
    50
100
AcDbPolyline
 90
       25
 70
   128
 43
0.0
 10
127.0916811645
 20
180.4606906515
 10
127.0688754298
 20
179.8351107791
 10
127.0197258629
 20
179.2789210206
 10
126.8826375046
 20
178.7593468476
 10
126.7467411956
 20
178.5870058958
 10
126.561534086
 20
178.4925049828
 10
126.3215222292
 20
178.4580351454
 10
125.8294525451
 20
178.5132444349
 10
124.9290322155
 20
178.8895526715
 10
124.4512721266
 20
179.3098089103
 10
124.2099121405
 20
179.7301225933
 10
124.1445853632
 20
180.2098158025
 10
124.2494921644
 20
180.6141217636
 10
124.549898306
 20
181.0579095678
 10
125.158764074
 20
181.5295626079
 10
126.0759897023
 20
181.9195092035
 10
126.4032003764
 20
182.0178554412
 10
126.6332979158
 20
182.0839280773
 10
126.7977817304
 20
182.1293802974
 10
126.9440785864
 20
182.1421175091
 10
127.0463721443
 20
181.9814835337
 10
127.0825185646
 20
181.6519693274
 10
127.0953227318
 20
181.2353233793
 10
127.0957000677
 20
180.7192278389
 10
127.0916811645
 20
180.4606906515
  0
LWPOLYLINE
  5
240
330
A
100
AcDbEntity
  8
1
  6
CONTINUOUS
370
    50
100
AcDbPolyline
 90
       24
 70
   128
 43
0.0
 10
134.5075386637
 20
181.7858185746
 10
134.3615107811
 20
182.3385303083
 10
134.1298788351
 20
182.8502499412
 10
133.8298219075
 20
183.283025569
 10
133.4835938479
 20
183.6047602034
 10
133.1168728077
 20
183.7915922583
 10
132.7568568088
 20
183.8296652548
 10
132.4302465908
 20
183.7161554931
 10
132.1612653395
 20
183.4594814728
 10
131.9698621637
 20
183.0786795318
 10
131.8702325614
 20
182.6019920081
 10
131.8697656045
 20
182.0647726346
 10
131.9684959249
 20
181.5068645146
 10
132.1591011466
 20
180.969645141
 10
132.4274449521
 20
180.4929576173
 10
132.7536255089
 20
180.1121556764
 10
133.1134514975
 20
179.8554816561
 10
133.4802362702
 20
179.7419718944
 10
133.8267770785
 20
179.7800448909
 10
134.1273725758
 20
179.9668769458
 10
134.3597289694
 20
180.2886115801
 10
134.5066134484
 20
180.721387208
 10
134.5571322629
 20
181.2331068409
 10
134.5075386637
 20
181.7858185746
  0
LWPOLYLINE
  5
25A
330
A
100
AcDbEntity
  8
1
  6
CONTINUOUS
370
    50
100
AcDbPolyline
 90
       26
 70
   128
 43
0.0
 10
135.200146431
 20
181.8957417298
 10
135.0379450647
 20
182.526516211
 10
134.784782935
 20
183.1176568118
 10
134.4565671496
 20
183.6320199941
 10
134.0739207134
 20
184.0372864275
 10
133.6608867093
 20
184.3079917314
 10
133.2434175827
 20
184.4271264961
 10
132.8477444542
 20
184.3872050462
 10
132.4987289217
 20
184.1907357931
 10
132.2183009147
 20
183.8500636226
 10
132.0240807562
 20
183.3865942201
 10
131.928272013
 20
182.8294490727
 10
131.9368947008
 20
182.213635659
 10
132.0494070246
 20
181.5778478006
 10
132.258739421
 20
180.9620343868
 10
132.5517387659
 20
180.4048892394
 10
132.9099948328
 20
179.9414198369
 10
133.3109970754
 20
179.6007476665
 10
133.7295490481
 20
179.4042784134
 10
134.1393515911
 20
179.3643569634
 10
134.5146553035
 20
179.4834917282
 10
134.8318784727
 20
179.7541970321
 10
135.0710888003
 20
180.1594634655
 10
135.2172558218
 20
180.6738266477
 10
135.2611953256
 20
181.2649672485
 10
135.200146431
 20
181.8957417298
  0
LINE
  5
276
330
A
100
AcDbEntity
  8
1
  6
CONTINUOUS
370
    50
100
AcDbLine
 10
120.2775938215
 20
148.2303717112
 30
0.0
 11
124.2775938215
 21
148.2303717112
 31
0.0
  0
LINE
  5
277
330
A
100
AcDbEntity
  8
1
  6
CONTINUOUS
370
    50
100
AcDbLine
 10
124.2775938215
 20
148.2303717112
 30
0.0
 11
124.2775938215
 21
155.7811159181
 31
0.0
  0
LINE
  5
278
330
A
100
AcDbEntity
  8
1
  6
CONTINUOUS
370
    50
100
AcDbLine
 10
124.2775938215
 20
156.8341763097
 30
0.0
 11
124.2775938215
 21
179.6204266894
 31
0.0
  0
LINE
  5
279
330
A
100
AcDbEntity
  8
1
  6
CONTINUOUS
370
    50
100
AcDbLine
 10
124.2775938215
 20
180.6595318946
 30
0.0
 11
124.2775938215
 21
188.2303717112
 31
0.0
  0
LINE
  5
27A
330
A
100
AcDbEntity
  8
1
  6
CONTINUOUS
370
    50
100
AcDbLine
 10
135.0775938215
 20
148.2303717112
 30
0.0
 11
135.0775938215
 21
188.2303717112
 31
0.0
  0
LINE
  5
27B
330
A
100
AcDbEntity
  8
1
  6
CONTINUOUS
370
    50
100
AcDbLine
 10
120.2775938215
 20
188.2303717112
 30
0.0
 11
120.2775938215
 21
148.2303717112
 31
0.0
  0
LINE
  5
27C
330
A
100
AcDbEntity
  8
1
  6
CONTINUOUS
370
    50
100
AcDbLine
 10
133.0775938215
 20
188.2303717112
 30
0.0
 11
133.0775938215
 21
148.2303717112
 31
0.0
  0
LINE
  5
27D
330
A
100
AcDbEntity
  8
1
  6
CONTINUOUS
370
    50
100
AcDbLine
 10
133.0775938215
 20
148.2303717112
 30
0.0
 11
135.0775938215
 21
148.2303717112
 31
0.0
  0
LINE
  5
27E
330
A
100
AcDbEntity
  8
1
  6
CONTINUOUS
370
    50
100
AcDbLine
 10
124.2775938215
 20
188.2303717112
 30
0.0
 11
120.2775938215
 21
188.2303717112
 31
0.0
  0
LINE
  5
27F
330
A
100
AcDbEntity
  8
1
  6
CONTINUOUS
370
    50
100
AcDbLine
 10
135.0775938215
 20
188.2303717112
 30
0.0
 11
133.0775938215
 21
188.2303717112
 31
0.0
  0
LINE
  5
280
330
A
100
AcDbEntity
  8
1
  6
CONTINUOUS
370
    50
100
AcDbLine
 10
132.8730819761
 20
152.0658826437
 30
0.0
 11
136.0275938215
 21
151.160572519
 31
0.0
  0
LINE
  5
281
330
A
100
AcDbEntity
  8
1
  6
CONTINUOUS
370
    50
100
AcDbLine
 10
136.0275938215
 20
156.570478864
 30
0.0
 11
134.3075212102
 21
157.0641207416
 31
0.0
  0
LINE
  5
282
330
A
100
AcDbEntity
  8
1
  6
CONTINUOUS
370
    50
100
AcDbLine
 10
118.4775938215
 20
151.8888291424
 30
0.0
 11
126.9436179278
 21
154.3184847324
 31
0.0
  0
LINE
  5
283
330
A
100
AcDbEntity
  8
1
  6
CONTINUOUS
370
    50
100
AcDbLine
 10
125.674132048
 20
157.9075493779
 30
0.0
 11
118.4775938215
 21
155.8422222407
 31
0.0
  0
LINE
  5
284
330
A
100
AcDbEntity
  8
1
  6
CONTINUOUS
370
    50
100
AcDbLine
 10
132.9141215916
 20
156.5236845336
 30
0.0
 11
132.6611339857
 21
156.2569379117
 31
0.0
  0
LINE
  5
285
330
A
100
AcDbEntity
  8
1
  6
CONTINUOUS
370
    50
100
AcDbLine
 10
131.9053091106
 20
153.6233006013
 30
0.0
 11
131.9783384128
 21
153.2629907207
 31
0.0
  0
LINE
  5
286
330
A
100
AcDbEntity
  8
1
  6
CONTINUOUS
370
    50
100
AcDbLine
 10
126.566302578
 20
154.3960421081
 30
0.0
 11
132.627986604
 21
152.656405616
 31
0.0
  0
LINE
  5
287
330
A
100
AcDbEntity
  8
1
  6
CONTINUOUS
370
    50
100
AcDbLine
 10
123.443113731
 20
155.2923628776
 30
0.0
 11
126.566302578
 21
154.3960421081
 31
0.0
  0
LINE
  5
288
330
A
100
AcDbEntity
  8
1
  6
CONTINUOUS
370
    50
100
AcDbLine
 10
133.7865721392
 20
156.6934440797
 30
0.0
 11
124.6016992662
 21
159.3294013413
 31
0.0
  0
LINE
  5
289
330
A
100
AcDbEntity
  8
1
  6
CONTINUOUS
370
    50
100
AcDbLine
 10
118.730747715
 20
204.4730307426
 30
0.0
 11
118.4775938215
 21
205.0159210192
 31
0.0
  0
ARC
  5
28A
330
A
100
AcDbEntity
  8
1
  6
CONTINUOUS
370
    50
100
AcDbCircle
 10
118.2775938215
 20
204.2617216117
 30
0.0
 40
0.5
100
AcDbArc
 50
360.0
 51
25.0
  0
ARC
  5
28B
330
A
100
AcDbEntity
  8
1
  6
CONTINUOUS
370
    50
100
AcDbCircle
 10
118.2775938215
 20
133.1053717112
 30
0.0
 40
0.5
100
AcDbArc
 50
0.0
 51
66.4218215218
  0
ARC
  5
28C
330
A
100
AcDbEntity
  8
1
  6
CONTINUOUS
370
    50
100
AcDbCircle
 10
118.2775938215
 20
203.3553717112
 30
0.0
 40
0.5
100
AcDbArc
 50
293.5781784782001
 51
0.0
  0
LINE
  5
28D
330
A
100
AcDbEntity
  8
1
  6
CONTINUOUS
370
    50
100
AcDbLine
 10
96.8891749198
 20
162.9130505889
 30
0.0
 11
123.4354532865
 21
155.2945613407
 31
0.0
  0
LINE
  5
28E
330
A
100
AcDbEntity
  8
1
  6
CONTINUOUS
370
    50
100
AcDbLine
 10
124.5940388218
 20
159.3315998044
 30
0.0
 11
99.679434856
 21
166.481816487
 31
0.0
  0
ARC
  5
28F
330
A
100
AcDbEntity
  8
1
  6
CONTINUOUS
370
    50
100
AcDbCircle
 10
17.3775938215
 20
153.7303717112
 30
0.0
 40
2.0
100
AcDbArc
 50
128.2989210679
 51
180.0
  0
ARC
  5
290
330
A
100
AcDbEntity
  8
1
  6
CONTINUOUS
370
    50
100
AcDbCircle
 10
17.3775938215
 20
182.7303717112
 30
0.0
 40
2.0
100
AcDbArc
 50
180.0
 51
231.7010789321
  0
LINE
  5
291
330
A
100
AcDbEntity
  8
1
  6
CONTINUOUS
370
    50
100
AcDbLine
 10
16.1380653142
 20
155.299947794
 30
0.0
 11
16.6380653142
 21
155.5886229286
 31
0.0
  0
LINE
  5
292
330
A
100
AcDbEntity
  8
1
  6
CONTINUOUS
370
    50
100
AcDbLine
 10
16.6380653142
 20
180.8721204938
 30
0.0
 11
16.1380653142
 21
181.1607956284
 31
0.0
  0
LINE
  5
293
330
A
100
AcDbEntity
  8
1
  6
CONTINUOUS
370
    50
100
AcDbLine
 10
27.0775938215
 20
155.5803717112
 30
0.0
 11
28.2828125084
 21
157.6678717112
 31
0.0
  0
LINE
  5
294
330
A
100
AcDbEntity
  8
1
  6
CONTINUOUS
370
    50
100
AcDbLine
 10
28.2828125084
 20
178.7928717112
 30
0.0
 11
27.0775938215
 21
180.8803717112
 31
0.0
  0
LINE
  5
295
330
A
100
AcDbEntity
  8
1
  6
CONTINUOUS
370
    50
100
AcDbLine
 10
24.3673052532
 20
180.8803717112
 30
0.0
 11
24.107497632
 21
180.7303717112
 31
0.0
  0
LINE
  5
296
330
A
100
AcDbEntity
  8
1
  6
CONTINUOUS
370
    50
100
AcDbLine
 10
24.107497632
 20
155.7303717112
 30
0.0
 11
24.3673052532
 21
155.5803717112
 31
0.0
  0
LINE
  5
297
330
A
100
AcDbEntity
  8
1
  6
CONTINUOUS
370
    50
100
AcDbLine
 10
27.0775938215
 20
180.8803717112
 30
0.0
 11
24.3673052532
 21
180.8803717112
 31
0.0
  0
LINE
  5
298
330
A
100
AcDbEntity
  8
1
  6
CONTINUOUS
370
    50
100
AcDbLine
 10
24.3673052532
 20
155.5803717112
 30
0.0
 11
27.0775938215
 21
155.5803717112
 31
0.0
  0
ARC
  5
299
330
A
100
AcDbEntity
  8
1
  6
CONTINUOUS
370
    50
100
AcDbCircle
 10
17.3775938215
 20
153.7303717112
 30
0.0
 40
2.0
100
AcDbArc
 50
90.0
 51
111.7010789321
  0
ARC
  5
29A
330
A
100
AcDbEntity
  8
1
  6
CONTINUOUS
370
    50
100
AcDbCircle
 10
17.3775938215
 20
182.7303717112
 30
0.0
 40
2.0
100
AcDbArc
 50
248.2989210679
 51
270.0
  0
LINE
  5
29B
330
A
100
AcDbEntity
  8
1
  6
CONTINUOUS
370
    50
100
AcDbLine
 10
17.3775938215
 20
155.7303717112
 30
0.0
 11
24.107497632
 21
155.7303717112
 31
0.0
  0
LINE
  5
29C
330
A
100
AcDbEntity
  8
1
  6
CONTINUOUS
370
    50
100
AcDbLine
 10
24.107497632
 20
180.7303717112
 30
0.0
 11
17.3775938215
 21
180.7303717112
 31
0.0
  0
LINE
  5
29D
330
A
100
AcDbEntity
  8
1
  6
CONTINUOUS
370
    50
100
AcDbLine
 10
64.3775938215
 20
178.7928717112
 30
0.0
 11
28.2828125084
 21
178.7928717112
 31
0.0
  0
LINE
  5
29E
330
A
100
AcDbEntity
  8
1
  6
CONTINUOUS
370
    50
100
AcDbLine
 10
28.2828125084
 20
157.6678717112
 30
0.0
 11
64.3775938215
 21
157.6678717112
 31
0.0
  0
LINE
  5
29F
330
A
100
AcDbEntity
  8
1
  6
CONTINUOUS
370
    50
100
AcDbLine
 10
79.3775938215
 20
178.7928717112
 30
0.0
 11
64.3875938215
 21
178.7928717112
 31
0.0
  0
LINE
  5
2A0
330
A
100
AcDbEntity
  8
1
  6
CONTINUOUS
370
    50
100
AcDbLine
 10
64.3875938215
 20
157.6678717112
 30
0.0
 11
79.3775938215
 21
157.6678717112
 31
0.0
  0
LINE
  5
2A1
330
A
100
AcDbEntity
  8
1
  6
CONTINUOUS
370
    50
100
AcDbLine
 10
125.3775938215
 20
157.7303717112
 30
0.0
 11
128.553020302
 21
163.2303717112
 31
0.0
  0
LINE
  5
2A2
330
A
100
AcDbEntity
  8
1
  6
CONTINUOUS
370
    50
100
AcDbLine
 10
128.553020302
 20
173.2303717112
 30
0.0
 11
125.3775938215
 21
178.7303717112
 31
0.0
  0
LINE
  5
2A3
330
A
100
AcDbEntity
  8
1
  6
CONTINUOUS
370
    50
100
AcDbLine
 10
125.3775938215
 20
178.7303717112
 30
0.0
 11
79.4003419611
 21
178.7303717112
 31
0.0
  0
LINE
  5
2A4
330
A
100
AcDbEntity
  8
1
  6
CONTINUOUS
370
    50
100
AcDbLine
 10
79.4003419611
 20
157.7303717112
 30
0.0
 11
125.3775938215
 21
157.7303717112
 31
0.0
  0
LINE
  5
2A5
330
A
100
AcDbEntity
  8
1
  6
CONTINUOUS
370
    50
100
AcDbLine
 10
122.8775938215
 20
205.7303717112
 30
0.0
 11
123.0775938215
 21
205.5303717112
 31
0.0
  0
LINE
  5
2A6
330
A
100
AcDbEntity
  8
1
  6
CONTINUOUS
370
    50
100
AcDbLine
 10
133.0775938215
 20
205.5303717112
 30
0.0
 11
133.2775938215
 21
205.7303717112
 31
0.0
  0
LINE
  5
2A7
330
A
100
AcDbEntity
  8
1
  6
CONTINUOUS
370
    50
100
AcDbLine
 10
147.3775938215
 20
163.2303717112
 30
0.0
 11
149.0519096021
 21
166.1303717112
 31
0.0
  0
LINE
  5
2A8
330
A
100
AcDbEntity
  8
1
  6
CONTINUOUS
370
    50
100
AcDbLine
 10
149.0519096021
 20
170.3303717112
 30
0.0
 11
147.3775938215
 21
173.2303717112
 31
0.0
  0
LINE
  5
2A9
330
A
100
AcDbEntity
  8
1
  6
CONTINUOUS
370
    50
100
AcDbLine
 10
128.553020302
 20
163.2303717112
 30
0.0
 11
147.3775938215
 21
163.2303717112
 31
0.0
  0
LINE
  5
2AA
330
A
100
AcDbEntity
  8
1
  6
CONTINUOUS
370
    50
100
AcDbLine
 10
147.3775938215
 20
173.2303717112
 30
0.0
 11
128.553020302
 21
173.2303717112
 31
0.0
  0
ARC
  5
2AB
330
A
100
AcDbEntity
  8
1
  6
CONTINUOUS
370
    50
100
AcDbCircle
 10
123.3775938215
 20
201.3303717112
 30
0.0
 40
0.3
100
AcDbArc
 50
180.0
 51
270.0
  0
ARC
  5
2AC
330
A
100
AcDbEntity
  8
1
  6
CONTINUOUS
370
    50
100
AcDbCircle
 10
132.7775938215
 20
201.3303717112
 30
0.0
 40
0.3
100
AcDbArc
 50
270.0
 51
0.0
  0
LINE
  5
2AD
330
A
100
AcDbEntity
  8
1
  6
CONTINUOUS
370
    50
100
AcDbLine
 10
123.0775938215
 20
205.5303717112
 30
0.0
 11
123.0775938215
 21
201.3303717112
 31
0.0
  0
LINE
  5
2AE
330
A
100
AcDbEntity
  8
1
  6
CONTINUOUS
370
    50
100
AcDbLine
 10
133.0775938215
 20
201.3303717112
 30
0.0
 11
133.0775938215
 21
205.5303717112
 31
0.0
  0
ARC
  5
2AF
330
A
100
AcDbEntity
  8
1
  6
CONTINUOUS
370
    50
100
AcDbCircle
 10
195.4775938215
 20
163.7753717112
 30
0.0
 40
1.5
100
AcDbArc
 50
0.0
 51
75.9301322524
  0
ARC
  5
2B0
330
A
100
AcDbEntity
  8
1
  6
CONTINUOUS
370
    50
100
AcDbCircle
 10
195.4775938215
 20
172.6853717112
 30
0.0
 40
1.5
100
AcDbArc
 50
284.0698677476
 51
0.0
  0
ARC
  5
2B1
330
A
100
AcDbEntity
  8
1
  6
CONTINUOUS
370
    50
100
AcDbCircle
 10
161.4775938215
 20
165.5303717112
 30
0.0
 40
0.5
100
AcDbArc
 50
180.0
 51
270.0
  0
ARC
  5
2B2
330
A
100
AcDbEntity
  8
1
  6
CONTINUOUS
370
    50
100
AcDbCircle
 10
161.4775938215
 20
170.9303717112
 30
0.0
 40
0.5
100
AcDbArc
 50
90.0
 51
180.0
  0
LINE
  5
2B3
330
A
100
AcDbEntity
  8
1
  6
CONTINUOUS
370
    50
100
AcDbLine
 10
161.4775938215
 20
165.0303717112
 30
0.0
 11
170.8621237715
 21
165.0303717112
 31
0.0
  0
LINE
  5
2B4
330
A
100
AcDbEntity
  8
1
  6
CONTINUOUS
370
    50
100
AcDbLine
 10
170.8621237715
 20
171.4303717112
 30
0.0
 11
161.4775938215
 21
171.4303717112
 31
0.0
  0
LINE
  5
2B5
330
A
100
AcDbEntity
  8
1
  6
CONTINUOUS
370
    50
100
AcDbLine
 10
170.8621237715
 20
165.0303717112
 30
0.0
 11
170.9775938253
 21
165.2303717112
 31
0.0
  0
LINE
  5
2B6
330
A
100
AcDbEntity
  8
1
  6
CONTINUOUS
370
    50
100
AcDbLine
 10
170.9775938253
 20
171.2303717112
 30
0.0
 11
170.8621237715
 21
171.4303717112
 31
0.0
  0
LINE
  5
2B7
330
A
100
AcDbEntity
  8
1
  6
CONTINUOUS
370
    50
100
AcDbLine
 10
170.9775938253
 20
165.2303717112
 30
0.0
 11
195.8422511949
 21
165.2303717112
 31
0.0
  0
LINE
  5
2B8
330
A
100
AcDbEntity
  8
1
  6
CONTINUOUS
370
    50
100
AcDbLine
 10
195.8422511949
 20
171.2303717112
 30
0.0
 11
170.9775938253
 21
171.2303717112
 31
0.0
  0
LINE
  5
2B9
330
A
100
AcDbEntity
  8
1
  6
CONTINUOUS
370
    50
100
AcDbLine
 10
149.0519096021
 20
166.1303717112
 30
0.0
 11
160.9775938215
 21
166.1303717112
 31
0.0
  0
LINE
  5
2BA
330
A
100
AcDbEntity
  8
1
  6
CONTINUOUS
370
    50
100
AcDbLine
 10
160.9775938215
 20
170.3303717112
 30
0.0
 11
149.0519096021
 21
170.3303717112
 31
0.0
  0
LINE
  5
2BB
330
A
100
AcDbEntity
  8
1
  6
CONTINUOUS
370
    50
100
AcDbLine
 10
126.5775938215
 20
201.0303717112
 30
0.0
 11
126.9775938215
 21
200.6303717112
 31
0.0
  0
LINE
  5
2BC
330
A
100
AcDbEntity
  8
1
  6
CONTINUOUS
370
    50
100
AcDbLine
 10
129.1775938215
 20
200.6303717112
 30
0.0
 11
129.5775938215
 21
201.0303717112
 31
0.0
  0
LINE
  5
2BD
330
A
100
AcDbEntity
  8
1
  6
CONTINUOUS
370
    50
100
AcDbLine
 10
126.9775938215
 20
194.6303717112
 30
0.0
 11
128.0775938215
 21
194.2300044535
 31
0.0
  0
LINE
  5
2BE
330
A
100
AcDbEntity
  8
1
  6
CONTINUOUS
370
    50
100
AcDbLine
 10
128.0775938215
 20
194.2300044535
 30
0.0
 11
129.1775938215
 21
194.6303717112
 31
0.0
  0
LINE
  5
2BF
330
A
100
AcDbEntity
  8
1
  6
CONTINUOUS
370
    50
100
AcDbLine
 10
126.9775938215
 20
197.2203717112
 30
0.0
 11
126.9775938215
 21
194.6303717112
 31
0.0
  0
LINE
  5
2C0
330
A
100
AcDbEntity
  8
1
  6
CONTINUOUS
370
    50
100
AcDbLine
 10
129.1775938215
 20
194.6303717112
 30
0.0
 11
129.1775938215
 21
197.2203717112
 31
0.0
  0
LINE
  5
2C1
330
A
100
AcDbEntity
  8
1
  6
CONTINUOUS
370
    50
100
AcDbLine
 10
126.9775938215
 20
200.6303717112
 30
0.0
 11
126.9775938215
 21
197.2303717112
 31
0.0
  0
LINE
  5
2C2
330
A
100
AcDbEntity
  8
1
  6
CONTINUOUS
370
    50
100
AcDbLine
 10
129.1775938215
 20
197.2303717112
 30
0.0
 11
129.1775938215
 21
200.6303717112
 31
0.0
  0
LINE
  5
2C3
330
A
100
AcDbEntity
  8
1
  6
CONTINUOUS
370
    50
100
AcDbLine
 10
99.679434856
 20
169.9789269354
 30
0.0
 11
124.5940388218
 21
177.129143618
 31
0.0
  0
LINE
  5
2C4
330
A
100
AcDbEntity
  8
1
  6
CONTINUOUS
370
    50
100
AcDbLine
 10
123.4354532865
 20
181.1661820817
 30
0.0
 11
96.8891749198
 21
173.5476928335
 31
0.0
  0
LINE
  5
2C5
330
A
100
AcDbEntity
  8
1
  6
CONTINUOUS
370
    50
100
AcDbLine
 10
132.4275938215
 20
183.8828475537
 30
0.0
 11
129.8798021816
 21
176.8828475537
 31
0.0
  0
LINE
  5
2C6
330
A
100
AcDbEntity
  8
1
  6
CONTINUOUS
370
    50
100
AcDbLine
 10
129.8798021816
 20
176.8828475537
 30
0.0
 11
132.4275938215
 21
169.8828475537
 31
0.0
  0
LINE
  5
2C7
330
A
100
AcDbEntity
  8
1
  6
CONTINUOUS
370
    50
100
AcDbLine
 10
132.4275938215
 20
169.8828475537
 30
0.0
 11
136.0275938215
 21
169.8828475537
 31
0.0
  0
LINE
  5
2C8
330
A
100
AcDbEntity
  8
1
  6
CONTINUOUS
370
    50
100
AcDbLine
 10
136.0275938215
 20
183.8828475537
 30
0.0
 11
132.4275938215
 21
183.8828475537
 31
0.0
  0
LINE
  5
2C9
330
A
100
AcDbEntity
  8
1
  6
CONTINUOUS
370
    50
100
AcDbLine
 10
124.6016992662
 20
177.1313420811
 30
0.0
 11
133.7865721392
 21
179.7672993427
 31
0.0
  0
LINE
  5
2CA
330
A
100
AcDbEntity
  8
1
  6
CONTINUOUS
370
    50
100
AcDbLine
 10
126.6191444323
 20
182.0798663439
 30
0.0
 11
123.443113731
 21
181.1683805448
 31
0.0
  0
LINE
  5
2CB
330
A
100
AcDbEntity
  8
1
  6
CONTINUOUS
370
    50
100
AcDbLine
 10
132.627986604
 20
183.8043378064
 30
0.0
 11
126.6191444323
 21
182.0798663439
 31
0.0
  0
LINE
  5
2CC
330
A
100
AcDbEntity
  8
1
  6
CONTINUOUS
370
    50
100
AcDbLine
 10
118.4775938215
 20
180.6185211817
 30
0.0
 11
125.6766735204
 21
178.5524646699
 31
0.0
  0
LINE
  5
2CD
330
A
100
AcDbEntity
  8
1
  6
CONTINUOUS
370
    50
100
AcDbLine
 10
126.9452961936
 20
182.1417770462
 30
0.0
 11
118.4775938215
 21
184.57191428
 31
0.0
  0
LINE
  5
2CE
330
A
100
AcDbEntity
  8
1
  6
CONTINUOUS
370
    50
100
AcDbLine
 10
134.3075212102
 20
179.3966226808
 30
0.0
 11
136.0275938215
 21
179.8902645584
 31
0.0
  0
LINE
  5
2CF
330
A
100
AcDbEntity
  8
1
  6
CONTINUOUS
370
    50
100
AcDbLine
 10
136.0275938215
 20
185.3001709034
 30
0.0
 11
132.8730819761
 21
184.3948607787
 31
0.0
  0
LINE
  5
2D0
330
A
100
AcDbEntity
  8
1
  6
CONTINUOUS
370
    50
100
AcDbLine
 10
131.9783384128
 20
183.1977527017
 30
0.0
 11
131.9053091106
 21
182.8374428212
 31
0.0
  0
LINE
  5
2D1
330
A
100
AcDbEntity
  8
1
  6
CONTINUOUS
370
    50
100
AcDbLine
 10
132.6611339857
 20
180.2038055108
 30
0.0
 11
132.9141215916
 21
179.9370588888
 31
0.0
  0
LINE
  5
2D2
330
A
100
AcDbEntity
  8
1
  6
CONTINUOUS
370
    50
100
AcDbLine
 10
118.2775938215
 20
202.8553717112
 30
0.0
 11
118.2775938215
 21
133.6053717112
 31
0.0
  0
LINE
  5
2D3
330
A
100
AcDbEntity
  8
1
  6
CONTINUOUS
370
    50
100
AcDbLine
 10
117.5204840981
 20
202.9022178177
 30
0.0
 11
117.5204840981
 21
133.5585256047
 31
0.0
  0
LINE
  5
2D4
330
A
100
AcDbEntity
  8
1
  6
CONTINUOUS
370
    50
100
AcDbLine
 10
117.7317932289
 20
202.8553717112
 30
0.0
 11
117.7317932289
 21
133.6053717112
 31
0.0
  0
LINE
  5
2D5
330
A
100
AcDbEntity
  8
1
  6
CONTINUOUS
370
    50
100
AcDbLine
 10
17.1597925171
 20
188.5938622392
 30
0.0
 11
17.1597925171
 21
147.8668811832
 31
0.0
  0
LINE
  5
2D6
330
A
100
AcDbEntity
  8
1
  6
CONTINUOUS
370
    50
100
AcDbLine
 10
64.2775938215
 20
180.2303717112
 30
0.0
 11
27.4528714964
 21
180.2303717112
 31
0.0
  0
LINE
  5
2D7
330
A
100
AcDbEntity
  8
1
  6
CONTINUOUS
370
    50
100
AcDbLine
 10
27.4528714964
 20
156.2303717112
 30
0.0
 11
64.2775938215
 21
156.2303717112
 31
0.0
  0
LINE
  5
2D8
330
A
100
AcDbEntity
  8
1
  6
CONTINUOUS
370
    50
100
AcDbLine
 10
64.2775938215
 20
180.2303717112
 30
0.0
 11
64.2775938215
 21
180.1646344556
 31
0.0
  0
LINE
  5
2D9
330
A
100
AcDbEntity
  8
1
  6
CONTINUOUS
370
    50
100
AcDbLine
 10
64.2775938215
 20
180.1646344556
 30
0.0
 11
64.2775938215
 21
156.2303717112
 31
0.0
  0
LINE
  5
2DA
330
A
100
AcDbEntity
  8
1
  6
CONTINUOUS
370
    50
100
AcDbLine
 10
64.2775938215
 20
178.7928717112
 30
0.0
 11
64.2775938215
 21
178.7633368189
 31
0.0
  0
LINE
  5
2DB
330
A
100
AcDbEntity
  8
1
  6
CONTINUOUS
370
    50
100
AcDbLine
 10
64.2775938215
 20
178.7633368189
 30
0.0
 11
64.2775938215
 21
168.2303717112
 31
0.0
  0
LINE
  5
2DC
330
A
100
AcDbEntity
  8
1
  6
CONTINUOUS
370
    50
100
AcDbLine
 10
122.4744787699
 20
179.149861313
 30
0.0
 11
122.6836081264
 21
178.3962194497
 31
0.0
  0
LINE
  5
2DD
330
A
100
AcDbEntity
  8
1
  6
CONTINUOUS
370
    50
100
AcDbLine
 10
122.6836081264
 20
178.3962194497
 30
0.0
 11
123.0237883955
 21
177.716349303
 31
0.0
  0
LINE
  5
2DE
330
A
100
AcDbEntity
  8
1
  6
CONTINUOUS
370
    50
100
AcDbLine
 10
123.0237883955
 20
177.716349303
 30
0.0
 11
123.4617203623
 21
177.1768012997
 31
0.0
  0
LINE
  5
2DF
330
A
100
AcDbEntity
  8
1
  6
CONTINUOUS
370
    50
100
AcDbLine
 10
123.4617203623
 20
177.1768012997
 30
0.0
 11
123.9545361947
 21
176.8303901576
 31
0.0
  0
LINE
  5
2E0
330
A
100
AcDbEntity
  8
1
  6
CONTINUOUS
370
    50
100
AcDbLine
 10
123.9545361947
 20
176.8303901576
 30
0.0
 11
124.4539956453
 21
176.7110250128
 31
0.0
  0
LINE
  5
2E1
330
A
100
AcDbEntity
  8
1
  6
CONTINUOUS
370
    50
100
AcDbLine
 10
124.4539956453
 20
176.7110250128
 30
0.0
 11
124.9112081431
 21
176.8303901576
 31
0.0
  0
LINE
  5
2E2
330
A
100
AcDbEntity
  8
1
  6
CONTINUOUS
370
    50
100
AcDbLine
 10
124.9112081431
 20
176.8303901576
 30
0.0
 11
125.2814185434
 21
177.1768012997
 31
0.0
  0
LINE
  5
2E3
330
A
100
AcDbEntity
  8
1
  6
CONTINUOUS
370
    50
100
AcDbLine
 10
125.2814185434
 20
177.1768012997
 30
0.0
 11
125.5283880726
 21
177.716349303
 31
0.0
  0
LINE
  5
2E4
330
A
100
AcDbEntity
  8
1
  6
CONTINUOUS
370
    50
100
AcDbLine
 10
125.5283880726
 20
177.716349303
 30
0.0
 11
125.6279416326
 21
178.3962194497
 31
0.0
  0
LINE
  5
2E5
330
A
100
AcDbEntity
  8
1
  6
CONTINUOUS
370
    50
100
AcDbLine
 10
125.6279416326
 20
178.3962194497
 30
0.0
 11
125.5703342273
 21
179.149861313
 31
0.0
  0
LINE
  5
2E6
330
A
100
AcDbEntity
  8
1
  6
CONTINUOUS
370
    50
100
AcDbLine
 10
125.5703342273
 20
179.149861313
 30
0.0
 11
125.3612048708
 21
179.9035031762
 31
0.0
  0
LINE
  5
2E7
330
A
100
AcDbEntity
  8
1
  6
CONTINUOUS
370
    50
100
AcDbLine
 10
125.3612048708
 20
179.9035031762
 30
0.0
 11
125.0210246017
 21
180.5833733229
 31
0.0
  0
LINE
  5
2E8
330
A
100
AcDbEntity
  8
1
  6
CONTINUOUS
370
    50
100
AcDbLine
 10
125.0210246017
 20
180.5833733229
 30
0.0
 11
124.5830926349
 21
181.1229213263
 31
0.0
  0
LINE
  5
2E9
330
A
100
AcDbEntity
  8
1
  6
CONTINUOUS
370
    50
100
AcDbLine
 10
124.5830926349
 20
181.1229213263
 30
0.0
 11
124.0902768025
 21
181.4693324684
 31
0.0
  0
LINE
  5
2EA
330
A
100
AcDbEntity
  8
1
  6
CONTINUOUS
370
    50
100
AcDbLine
 10
124.0902768025
 20
181.4693324684
 30
0.0
 11
123.5908173519
 21
181.5886976131
 31
0.0
  0
LINE
  5
2EB
330
A
100
AcDbEntity
  8
1
  6
CONTINUOUS
370
    50
100
AcDbLine
 10
123.5908173519
 20
181.5886976131
 30
0.0
 11
123.1336048541
 21
181.4693324684
 31
0.0
  0
LINE
  5
2EC
330
A
100
AcDbEntity
  8
1
  6
CONTINUOUS
370
    50
100
AcDbLine
 10
123.1336048541
 20
181.4693324684
 30
0.0
 11
122.7633944538
 21
181.1229213263
 31
0.0
  0
LINE
  5
2ED
330
A
100
AcDbEntity
  8
1
  6
CONTINUOUS
370
    50
100
AcDbLine
 10
122.7633944538
 20
181.1229213263
 30
0.0
 11
122.5164249246
 21
180.5833733229
 31
0.0
  0
LINE
  5
2EE
330
A
100
AcDbEntity
  8
1
  6
CONTINUOUS
370
    50
100
AcDbLine
 10
122.5164249246
 20
180.5833733229
 30
0.0
 11
122.4168713646
 21
179.9035031762
 31
0.0
  0
LINE
  5
2EF
330
A
100
AcDbEntity
  8
1
  6
CONTINUOUS
370
    50
100
AcDbLine
 10
122.4168713646
 20
179.9035031762
 30
0.0
 11
122.4744787699
 21
179.149861313
 31
0.0
  0
LINE
  5
2F0
330
A
100
AcDbEntity
  8
1
  6
CONTINUOUS
370
    50
100
AcDbLine
 10
131.9657694201
 20
181.8737570987
 30
0.0
 11
131.9081620148
 21
182.627398962
 31
0.0
  0
LINE
  5
2F1
330
A
100
AcDbEntity
  8
1
  6
CONTINUOUS
370
    50
100
AcDbLine
 10
131.9081620148
 20
182.627398962
 30
0.0
 11
132.0077155748
 21
183.3072691087
 31
0.0
  0
LINE
  5
2F2
330
A
100
AcDbEntity
  8
1
  6
CONTINUOUS
370
    50
100
AcDbLine
 10
132.0077155748
 20
183.3072691087
 30
0.0
 11
132.2546851041
 21
183.846817112
 31
0.0
  0
LINE
  5
2F3
330
A
100
AcDbEntity
  8
1
  6
CONTINUOUS
370
    50
100
AcDbLine
 10
132.2546851041
 20
183.846817112
 30
0.0
 11
132.6248955043
 21
184.1932282541
 31
0.0
  0
LINE
  5
2F4
330
A
100
AcDbEntity
  8
1
  6
CONTINUOUS
370
    50
100
AcDbLine
 10
132.6248955043
 20
184.1932282541
 30
0.0
 11
133.0821080022
 21
184.3125933989
 31
0.0
  0
LINE
  5
2F5
330
A
100
AcDbEntity
  8
1
  6
CONTINUOUS
370
    50
100
AcDbLine
 10
133.0821080022
 20
184.3125933989
 30
0.0
 11
133.5815674528
 21
184.1932282541
 31
0.0
  0
LINE
  5
2F6
330
A
100
AcDbEntity
  8
1
  6
CONTINUOUS
370
    50
100
AcDbLine
 10
133.5815674528
 20
184.1932282541
 30
0.0
 11
134.0743832852
 21
183.846817112
 31
0.0
  0
LINE
  5
2F7
330
A
100
AcDbEntity
  8
1
  6
CONTINUOUS
370
    50
100
AcDbLine
 10
134.0743832852
 20
183.846817112
 30
0.0
 11
134.512315252
 21
183.3072691087
 31
0.0
  0
LINE
  5
2F8
330
A
100
AcDbEntity
  8
1
  6
CONTINUOUS
370
    50
100
AcDbLine
 10
134.512315252
 20
183.3072691087
 30
0.0
 11
134.8524955211
 21
182.627398962
 31
0.0
  0
LINE
  5
2F9
330
A
100
AcDbEntity
  8
1
  6
CONTINUOUS
370
    50
100
AcDbLine
 10
134.8524955211
 20
182.627398962
 30
0.0
 11
135.0616248776
 21
181.8737570987
 31
0.0
  0
LINE
  5
2FA
330
A
100
AcDbEntity
  8
1
  6
CONTINUOUS
370
    50
100
AcDbLine
 10
135.0616248776
 20
181.8737570987
 30
0.0
 11
135.1192322829
 21
181.1201152355
 31
0.0
  0
LINE
  5
2FB
330
A
100
AcDbEntity
  8
1
  6
CONTINUOUS
370
    50
100
AcDbLine
 10
135.1192322829
 20
181.1201152355
 30
0.0
 11
135.0196787229
 21
180.4402450888
 31
0.0
  0
LINE
  5
2FC
330
A
100
AcDbEntity
  8
1
  6
CONTINUOUS
370
    50
100
AcDbLine
 10
135.0196787229
 20
180.4402450888
 30
0.0
 11
134.7727091936
 21
179.9006970854
 31
0.0
  0
LINE
  5
2FD
330
A
100
AcDbEntity
  8
1
  6
CONTINUOUS
370
    50
100
AcDbLine
 10
134.7727091936
 20
179.9006970854
 30
0.0
 11
134.4024987934
 21
179.5542859433
 31
0.0
  0
LINE
  5
2FE
330
A
100
AcDbEntity
  8
1
  6
CONTINUOUS
370
    50
100
AcDbLine
 10
134.4024987934
 20
179.5542859433
 30
0.0
 11
133.9452862955
 21
179.4349207986
 31
0.0
  0
LINE
  5
2FF
330
A
100
AcDbEntity
  8
1
  6
CONTINUOUS
370
    50
100
AcDbLine
 10
133.9452862955
 20
179.4349207986
 30
0.0
 11
133.4458268449
 21
179.5542859433
 31
0.0
  0
LINE
  5
300
330
A
100
AcDbEntity
  8
1
  6
CONTINUOUS
370
    50
100
AcDbLine
 10
133.4458268449
 20
179.5542859433
 30
0.0
 11
132.9530110125
 21
179.9006970854
 31
0.0
  0
LINE
  5
301
330
A
100
AcDbEntity
  8
1
  6
CONTINUOUS
370
    50
100
AcDbLine
 10
132.9530110125
 20
179.9006970854
 30
0.0
 11
132.5150790457
 21
180.4402450888
 31
0.0
  0
LINE
  5
302
330
A
100
AcDbEntity
  8
1
  6
CONTINUOUS
370
    50
100
AcDbLine
 10
132.5150790457
 20
180.4402450888
 30
0.0
 11
132.1748987766
 21
181.1201152355
 31
0.0
  0
LINE
  5
303
330
A
100
AcDbEntity
  8
1
  6
CONTINUOUS
370
    50
100
AcDbLine
 10
132.1748987766
 20
181.1201152355
 30
0.0
 11
131.9657694201
 21
181.8737570987
 31
0.0
  0
LINE
  5
304
330
A
100
AcDbEntity
  8
1
  6
CONTINUOUS
370
    50
100
AcDbLine
 10
125.5703342273
 20
157.3108821094
 30
0.0
 11
125.3612048708
 21
156.5572402462
 31
0.0
  0
LINE
  5
305
330
A
100
AcDbEntity
  8
1
  6
CONTINUOUS
370
    50
100
AcDbLine
 10
125.3612048708
 20
156.5572402462
 30
0.0
 11
125.0210246017
 21
155.8773700995
 31
0.0
  0
LINE
  5
306
330
A
100
AcDbEntity
  8
1
  6
CONTINUOUS
370
    50
100
AcDbLine
 10
125.0210246017
 20
155.8773700995
 30
0.0
 11
124.5830926349
 21
155.3378220961
 31
0.0
  0
LINE
  5
307
330
A
100
AcDbEntity
  8
1
  6
CONTINUOUS
370
    50
100
AcDbLine
 10
124.5830926349
 20
155.3378220961
 30
0.0
 11
124.0902768025
 21
154.991410954
 31
0.0
  0
LINE
  5
308
330
A
100
AcDbEntity
  8
1
  6
CONTINUOUS
370
    50
100
AcDbLine
 10
124.0902768025
 20
154.991410954
 30
0.0
 11
123.5908173519
 21
154.8720458093
 31
0.0
  0
LINE
  5
309
330
A
100
AcDbEntity
  8
1
  6
CONTINUOUS
370
    50
100
AcDbLine
 10
123.5908173519
 20
154.8720458093
 30
0.0
 11
123.1336048541
 21
154.991410954
 31
0.0
  0
LINE
  5
30A
330
A
100
AcDbEntity
  8
1
  6
CONTINUOUS
370
    50
100
AcDbLine
 10
123.1336048541
 20
154.991410954
 30
0.0
 11
122.7633944538
 21
155.3378220961
 31
0.0
  0
LINE
  5
30B
330
A
100
AcDbEntity
  8
1
  6
CONTINUOUS
370
    50
100
AcDbLine
 10
122.7633944538
 20
155.3378220961
 30
0.0
 11
122.5164249246
 21
155.8773700995
 31
0.0
  0
LINE
  5
30C
330
A
100
AcDbEntity
  8
1
  6
CONTINUOUS
370
    50
100
AcDbLine
 10
122.5164249246
 20
155.8773700995
 30
0.0
 11
122.4168713646
 21
156.5572402462
 31
0.0
  0
LINE
  5
30D
330
A
100
AcDbEntity
  8
1
  6
CONTINUOUS
370
    50
100
AcDbLine
 10
122.4168713646
 20
156.5572402462
 30
0.0
 11
122.4744787699
 21
157.3108821094
 31
0.0
  0
LINE
  5
30E
330
A
100
AcDbEntity
  8
1
  6
CONTINUOUS
370
    50
100
AcDbLine
 10
122.4744787699
 20
157.3108821094
 30
0.0
 11
122.6836081264
 21
158.0645239727
 31
0.0
  0
LINE
  5
30F
330
A
100
AcDbEntity
  8
1
  6
CONTINUOUS
370
    50
100
AcDbLine
 10
122.6836081264
 20
158.0645239727
 30
0.0
 11
123.0237883955
 21
158.7443941194
 31
0.0
  0
LINE
  5
310
330
A
100
AcDbEntity
  8
1
  6
CONTINUOUS
370
    50
100
AcDbLine
 10
123.0237883955
 20
158.7443941194
 30
0.0
 11
123.4617203623
 21
159.2839421227
 31
0.0
  0
LINE
  5
311
330
A
100
AcDbEntity
  8
1
  6
CONTINUOUS
370
    50
100
AcDbLine
 10
123.4617203623
 20
159.2839421227
 30
0.0
 11
123.9545361947
 21
159.6303532648
 31
0.0
  0
LINE
  5
312
330
A
100
AcDbEntity
  8
1
  6
CONTINUOUS
370
    50
100
AcDbLine
 10
123.9545361947
 20
159.6303532648
 30
0.0
 11
124.4539956453
 21
159.7497184096
 31
0.0
  0
LINE
  5
313
330
A
100
AcDbEntity
  8
1
  6
CONTINUOUS
370
    50
100
AcDbLine
 10
124.4539956453
 20
159.7497184096
 30
0.0
 11
124.9112081431
 21
159.6303532648
 31
0.0
  0
LINE
  5
314
330
A
100
AcDbEntity
  8
1
  6
CONTINUOUS
370
    50
100
AcDbLine
 10
124.9112081431
 20
159.6303532648
 30
0.0
 11
125.2814185434
 21
159.2839421227
 31
0.0
  0
LINE
  5
315
330
A
100
AcDbEntity
  8
1
  6
CONTINUOUS
370
    50
100
AcDbLine
 10
125.2814185434
 20
159.2839421227
 30
0.0
 11
125.5283880726
 21
158.7443941194
 31
0.0
  0
LINE
  5
316
330
A
100
AcDbEntity
  8
1
  6
CONTINUOUS
370
    50
100
AcDbLine
 10
125.5283880726
 20
158.7443941194
 30
0.0
 11
125.6279416326
 21
158.0645239727
 31
0.0
  0
LINE
  5
317
330
A
100
AcDbEntity
  8
1
  6
CONTINUOUS
370
    50
100
AcDbLine
 10
125.6279416326
 20
158.0645239727
 30
0.0
 11
125.5703342273
 21
157.3108821094
 31
0.0
  0
LINE
  5
318
330
A
100
AcDbEntity
  8
1
  6
CONTINUOUS
370
    50
100
AcDbLine
 10
135.0616248776
 20
154.5869863237
 30
0.0
 11
135.1192322829
 21
155.3406281869
 31
0.0
  0
LINE
  5
319
330
A
100
AcDbEntity
  8
1
  6
CONTINUOUS
370
    50
100
AcDbLine
 10
135.1192322829
 20
155.3406281869
 30
0.0
 11
135.0196787229
 21
156.0204983336
 31
0.0
  0
LINE
  5
31A
330
A
100
AcDbEntity
  8
1
  6
CONTINUOUS
370
    50
100
AcDbLine
 10
135.0196787229
 20
156.0204983336
 30
0.0
 11
134.7727091936
 21
156.560046337
 31
0.0
  0
LINE
  5
31B
330
A
100
AcDbEntity
  8
1
  6
CONTINUOUS
370
    50
100
AcDbLine
 10
134.7727091936
 20
156.560046337
 30
0.0
 11
134.4024987934
 21
156.9064574791
 31
0.0
  0
LINE
  5
31C
330
A
100
AcDbEntity
  8
1
  6
CONTINUOUS
370
    50
100
AcDbLine
 10
134.4024987934
 20
156.9064574791
 30
0.0
 11
133.9452862955
 21
157.0258226238
 31
0.0
  0
LINE
  5
31D
330
A
100
AcDbEntity
  8
1
  6
CONTINUOUS
370
    50
100
AcDbLine
 10
133.9452862955
 20
157.0258226238
 30
0.0
 11
133.4458268449
 21
156.9064574791
 31
0.0
  0
LINE
  5
31E
330
A
100
AcDbEntity
  8
1
  6
CONTINUOUS
370
    50
100
AcDbLine
 10
133.4458268449
 20
156.9064574791
 30
0.0
 11
132.9530110125
 21
156.560046337
 31
0.0
  0
LINE
  5
31F
330
A
100
AcDbEntity
  8
1
  6
CONTINUOUS
370
    50
100
AcDbLine
 10
132.9530110125
 20
156.560046337
 30
0.0
 11
132.5150790457
 21
156.0204983336
 31
0.0
  0
LINE
  5
320
330
A
100
AcDbEntity
  8
1
  6
CONTINUOUS
370
    50
100
AcDbLine
 10
132.5150790457
 20
156.0204983336
 30
0.0
 11
132.1748987766
 21
155.3406281869
 31
0.0
  0
LINE
  5
321
330
A
100
AcDbEntity
  8
1
  6
CONTINUOUS
370
    50
100
AcDbLine
 10
132.1748987766
 20
155.3406281869
 30
0.0
 11
131.9657694201
 21
154.5869863237
 31
0.0
  0
LINE
  5
322
330
A
100
AcDbEntity
  8
1
  6
CONTINUOUS
370
    50
100
AcDbLine
 10
131.9657694201
 20
154.5869863237
 30
0.0
 11
131.9081620148
 21
153.8333444604
 31
0.0
  0
LINE
  5
323
330
A
100
AcDbEntity
  8
1
  6
CONTINUOUS
370
    50
100
AcDbLine
 10
131.9081620148
 20
153.8333444604
 30
0.0
 11
132.0077155748
 21
153.1534743137
 31
0.0
  0
LINE
  5
324
330
A
100
AcDbEntity
  8
1
  6
CONTINUOUS
370
    50
100
AcDbLine
 10
132.0077155748
 20
153.1534743137
 30
0.0
 11
132.2546851041
 21
152.6139263104
 31
0.0
  0
LINE
  5
325
330
A
100
AcDbEntity
  8
1
  6
CONTINUOUS
370
    50
100
AcDbLine
 10
132.2546851041
 20
152.6139263104
 30
0.0
 11
132.6248955043
 21
152.2675151683
 31
0.0
  0
LINE
  5
326
330
A
100
AcDbEntity
  8
1
  6
CONTINUOUS
370
    50
100
AcDbLine
 10
132.6248955043
 20
152.2675151683
 30
0.0
 11
133.0821080022
 21
152.1481500236
 31
0.0
  0
LINE
  5
327
330
A
100
AcDbEntity
  8
1
  6
CONTINUOUS
370
    50
100
AcDbLine
 10
133.0821080022
 20
152.1481500236
 30
0.0
 11
133.5815674528
 21
152.2675151683
 31
0.0
  0
LINE
  5
328
330
A
100
AcDbEntity
  8
1
  6
CONTINUOUS
370
    50
100
AcDbLine
 10
133.5815674528
 20
152.2675151683
 30
0.0
 11
134.0743832852
 21
152.6139263104
 31
0.0
  0
LINE
  5
329
330
A
100
AcDbEntity
  8
1
  6
CONTINUOUS
370
    50
100
AcDbLine
 10
134.0743832852
 20
152.6139263104
 30
0.0
 11
134.512315252
 21
153.1534743137
 31
0.0
  0
LINE
  5
32A
330
A
100
AcDbEntity
  8
1
  6
CONTINUOUS
370
    50
100
AcDbLine
 10
134.512315252
 20
153.1534743137
 30
0.0
 11
134.8524955211
 21
153.8333444604
 31
0.0
  0
LINE
  5
32B
330
A
100
AcDbEntity
  8
1
  6
CONTINUOUS
370
    50
100
AcDbLine
 10
134.8524955211
 20
153.8333444604
 30
0.0
 11
135.0616248776
 21
154.5869863237
 31
0.0
  0
LINE
  5
32C
330
A
100
AcDbEntity
  8
1
  6
CONTINUOUS
370
    50
100
AcDbLine
 10
125.5626737829
 20
157.3130805725
 30
0.0
 11
125.3535444264
 21
156.5594387093
 31
0.0
  0
LINE
  5
32D
330
A
100
AcDbEntity
  8
1
  6
CONTINUOUS
370
    50
100
AcDbLine
 10
125.3535444264
 20
156.5594387093
 30
0.0
 11
125.0133641573
 21
155.8795685626
 31
0.0
  0
LINE
  5
32E
330
A
100
AcDbEntity
  8
1
  6
CONTINUOUS
370
    50
100
AcDbLine
 10
125.0133641573
 20
155.8795685626
 30
0.0
 11
124.5754321905
 21
155.3400205592
 31
0.0
  0
LINE
  5
32F
330
A
100
AcDbEntity
  8
1
  6
CONTINUOUS
370
    50
100
AcDbLine
 10
124.5754321905
 20
155.3400205592
 30
0.0
 11
124.0826163581
 21
154.9936094171
 31
0.0
  0
LINE
  5
330
330
A
100
AcDbEntity
  8
1
  6
CONTINUOUS
370
    50
100
AcDbLine
 10
124.0826163581
 20
154.9936094171
 30
0.0
 11
123.5831569075
 21
154.8742442724
 31
0.0
  0
LINE
  5
331
330
A
100
AcDbEntity
  8
1
  6
CONTINUOUS
370
    50
100
AcDbLine
 10
123.5831569075
 20
154.8742442724
 30
0.0
 11
123.1259444097
 21
154.9936094171
 31
0.0
  0
LINE
  5
332
330
A
100
AcDbEntity
  8
1
  6
CONTINUOUS
370
    50
100
AcDbLine
 10
123.1259444097
 20
154.9936094171
 30
0.0
 11
122.7557340094
 21
155.3400205592
 31
0.0
  0
LINE
  5
333
330
A
100
AcDbEntity
  8
1
  6
CONTINUOUS
370
    50
100
AcDbLine
 10
122.7557340094
 20
155.3400205592
 30
0.0
 11
122.5087644801
 21
155.8795685626
 31
0.0
  0
LINE
  5
334
330
A
100
AcDbEntity
  8
1
  6
CONTINUOUS
370
    50
100
AcDbLine
 10
122.5087644801
 20
155.8795685626
 30
0.0
 11
122.4092109201
 21
156.5594387093
 31
0.0
  0
LINE
  5
335
330
A
100
AcDbEntity
  8
1
  6
CONTINUOUS
370
    50
100
AcDbLine
 10
122.4092109201
 20
156.5594387093
 30
0.0
 11
122.4668183255
 21
157.3130805725
 31
0.0
  0
LINE
  5
336
330
A
100
AcDbEntity
  8
1
  6
CONTINUOUS
370
    50
100
AcDbLine
 10
122.4668183255
 20
157.3130805725
 30
0.0
 11
122.6759476819
 21
158.0667224358
 31
0.0
  0
LINE
  5
337
330
A
100
AcDbEntity
  8
1
  6
CONTINUOUS
370
    50
100
AcDbLine
 10
122.6759476819
 20
158.0667224358
 30
0.0
 11
123.016127951
 21
158.7465925825
 31
0.0
  0
LINE
  5
338
330
A
100
AcDbEntity
  8
1
  6
CONTINUOUS
370
    50
100
AcDbLine
 10
123.016127951
 20
158.7465925825
 30
0.0
 11
123.4540599179
 21
159.2861405858
 31
0.0
  0
LINE
  5
339
330
A
100
AcDbEntity
  8
1
  6
CONTINUOUS
370
    50
100
AcDbLine
 10
123.4540599179
 20
159.2861405858
 30
0.0
 11
123.9468757502
 21
159.632551728
 31
0.0
  0
LINE
  5
33A
330
A
100
AcDbEntity
  8
1
  6
CONTINUOUS
370
    50
100
AcDbLine
 10
123.9468757502
 20
159.632551728
 30
0.0
 11
124.4463352008
 21
159.7519168727
 31
0.0
  0
LINE
  5
33B
330
A
100
AcDbEntity
  8
1
  6
CONTINUOUS
370
    50
100
AcDbLine
 10
124.4463352008
 20
159.7519168727
 30
0.0
 11
124.9035476987
 21
159.632551728
 31
0.0
  0
LINE
  5
33C
330
A
100
AcDbEntity
  8
1
  6
CONTINUOUS
370
    50
100
AcDbLine
 10
124.9035476987
 20
159.632551728
 30
0.0
 11
125.273758099
 21
159.2861405858
 31
0.0
  0
LINE
  5
33D
330
A
100
AcDbEntity
  8
1
  6
CONTINUOUS
370
    50
100
AcDbLine
 10
125.273758099
 20
159.2861405858
 30
0.0
 11
125.5207276282
 21
158.7465925825
 31
0.0
  0
LINE
  5
33E
330
A
100
AcDbEntity
  8
1
  6
CONTINUOUS
370
    50
100
AcDbLine
 10
125.5207276282
 20
158.7465925825
 30
0.0
 11
125.6202811882
 21
158.0667224358
 31
0.0
  0
LINE
  5
33F
330
A
100
AcDbEntity
  8
1
  6
CONTINUOUS
370
    50
100
AcDbLine
 10
125.6202811882
 20
158.0667224358
 30
0.0
 11
125.5626737829
 21
157.3130805725
 31
0.0
  0
LINE
  5
340
330
A
100
AcDbEntity
  8
1
  6
CONTINUOUS
370
    50
100
AcDbLine
 10
135.0616248776
 20
154.5869863237
 30
0.0
 11
135.1192322829
 21
155.3406281869
 31
0.0
  0
LINE
  5
341
330
A
100
AcDbEntity
  8
1
  6
CONTINUOUS
370
    50
100
AcDbLine
 10
135.1192322829
 20
155.3406281869
 30
0.0
 11
135.0196787229
 21
156.0204983336
 31
0.0
  0
LINE
  5
342
330
A
100
AcDbEntity
  8
1
  6
CONTINUOUS
370
    50
100
AcDbLine
 10
135.0196787229
 20
156.0204983336
 30
0.0
 11
134.7727091936
 21
156.560046337
 31
0.0
  0
LINE
  5
343
330
A
100
AcDbEntity
  8
1
  6
CONTINUOUS
370
    50
100
AcDbLine
 10
134.7727091936
 20
156.560046337
 30
0.0
 11
134.4024987934
 21
156.9064574791
 31
0.0
  0
LINE
  5
344
330
A
100
AcDbEntity
  8
1
  6
CONTINUOUS
370
    50
100
AcDbLine
 10
134.4024987934
 20
156.9064574791
 30
0.0
 11
133.9452862955
 21
157.0258226238
 31
0.0
  0
LINE
  5
345
330
A
100
AcDbEntity
  8
1
  6
CONTINUOUS
370
    50
100
AcDbLine
 10
133.9452862955
 20
157.0258226238
 30
0.0
 11
133.4458268449
 21
156.9064574791
 31
0.0
  0
LINE
  5
346
330
A
100
AcDbEntity
  8
1
  6
CONTINUOUS
370
    50
100
AcDbLine
 10
133.4458268449
 20
156.9064574791
 30
0.0
 11
132.9530110125
 21
156.560046337
 31
0.0
  0
LINE
  5
347
330
A
100
AcDbEntity
  8
1
  6
CONTINUOUS
370
    50
100
AcDbLine
 10
132.9530110125
 20
156.560046337
 30
0.0
 11
132.5150790457
 21
156.0204983336
 31
0.0
  0
LINE
  5
348
330
A
100
AcDbEntity
  8
1
  6
CONTINUOUS
370
    50
100
AcDbLine
 10
132.5150790457
 20
156.0204983336
 30
0.0
 11
132.1748987766
 21
155.3406281869
 31
0.0
  0
LINE
  5
349
330
A
100
AcDbEntity
  8
1
  6
CONTINUOUS
370
    50
100
AcDbLine
 10
132.1748987766
 20
155.3406281869
 30
0.0
 11
131.9657694201
 21
154.5869863237
 31
0.0
  0
LINE
  5
34A
330
A
100
AcDbEntity
  8
1
  6
CONTINUOUS
370
    50
100
AcDbLine
 10
131.9657694201
 20
154.5869863237
 30
0.0
 11
131.9081620148
 21
153.8333444604
 31
0.0
  0
LINE
  5
34B
330
A
100
AcDbEntity
  8
1
  6
CONTINUOUS
370
    50
100
AcDbLine
 10
131.9081620148
 20
153.8333444604
 30
0.0
 11
132.0077155748
 21
153.1534743137
 31
0.0
  0
LINE
  5
34C
330
A
100
AcDbEntity
  8
1
  6
CONTINUOUS
370
    50
100
AcDbLine
 10
132.0077155748
 20
153.1534743137
 30
0.0
 11
132.2546851041
 21
152.6139263104
 31
0.0
  0
LINE
  5
34D
330
A
100
AcDbEntity
  8
1
  6
CONTINUOUS
370
    50
100
AcDbLine
 10
132.2546851041
 20
152.6139263104
 30
0.0
 11
132.6248955043
 21
152.2675151683
 31
0.0
  0
LINE
  5
34E
330
A
100
AcDbEntity
  8
1
  6
CONTINUOUS
370
    50
100
AcDbLine
 10
132.6248955043
 20
152.2675151683
 30
0.0
 11
133.0821080022
 21
152.1481500236
 31
0.0
  0
LINE
  5
34F
330
A
100
AcDbEntity
  8
1
  6
CONTINUOUS
370
    50
100
AcDbLine
 10
133.0821080022
 20
152.1481500236
 30
0.0
 11
133.5815674528
 21
152.2675151683
 31
0.0
  0
LINE
  5
350
330
A
100
AcDbEntity
  8
1
  6
CONTINUOUS
370
    50
100
AcDbLine
 10
133.5815674528
 20
152.2675151683
 30
0.0
 11
134.0743832852
 21
152.6139263104
 31
0.0
  0
LINE
  5
351
330
A
100
AcDbEntity
  8
1
  6
CONTINUOUS
370
    50
100
AcDbLine
 10
134.0743832852
 20
152.6139263104
 30
0.0
 11
134.512315252
 21
153.1534743137
 31
0.0
  0
LINE
  5
352
330
A
100
AcDbEntity
  8
1
  6
CONTINUOUS
370
    50
100
AcDbLine
 10
134.512315252
 20
153.1534743137
 30
0.0
 11
134.8524955211
 21
153.8333444604
 31
0.0
  0
LINE
  5
353
330
A
100
AcDbEntity
  8
1
  6
CONTINUOUS
370
    50
100
AcDbLine
 10
134.8524955211
 20
153.8333444604
 30
0.0
 11
135.0616248776
 21
154.5869863237
 31
0.0
  0
LINE
  5
354
330
A
100
AcDbEntity
  8
1
  6
CONTINUOUS
370
    50
100
AcDbLine
 10
125.5703342273
 20
157.3108821094
 30
0.0
 11
125.3612048708
 21
156.5572402462
 31
0.0
  0
LINE
  5
355
330
A
100
AcDbEntity
  8
1
  6
CONTINUOUS
370
    50
100
AcDbLine
 10
125.3612048708
 20
156.5572402462
 30
0.0
 11
125.0210246017
 21
155.8773700995
 31
0.0
  0
LINE
  5
356
330
A
100
AcDbEntity
  8
1
  6
CONTINUOUS
370
    50
100
AcDbLine
 10
125.0210246017
 20
155.8773700995
 30
0.0
 11
124.5830926349
 21
155.3378220961
 31
0.0
  0
LINE
  5
357
330
A
100
AcDbEntity
  8
1
  6
CONTINUOUS
370
    50
100
AcDbLine
 10
124.5830926349
 20
155.3378220961
 30
0.0
 11
124.0902768025
 21
154.991410954
 31
0.0
  0
LINE
  5
358
330
A
100
AcDbEntity
  8
1
  6
CONTINUOUS
370
    50
100
AcDbLine
 10
124.0902768025
 20
154.991410954
 30
0.0
 11
123.5908173519
 21
154.8720458093
 31
0.0
  0
LINE
  5
359
330
A
100
AcDbEntity
  8
1
  6
CONTINUOUS
370
    50
100
AcDbLine
 10
123.5908173519
 20
154.8720458093
 30
0.0
 11
123.1336048541
 21
154.991410954
 31
0.0
  0
LINE
  5
35A
330
A
100
AcDbEntity
  8
1
  6
CONTINUOUS
370
    50
100
AcDbLine
 10
123.1336048541
 20
154.991410954
 30
0.0
 11
122.7633944538
 21
155.3378220961
 31
0.0
  0
LINE
  5
35B
330
A
100
AcDbEntity
  8
1
  6
CONTINUOUS
370
    50
100
AcDbLine
 10
122.7633944538
 20
155.3378220961
 30
0.0
 11
122.5164249246
 21
155.8773700995
 31
0.0
  0
LINE
  5
35C
330
A
100
AcDbEntity
  8
1
  6
CONTINUOUS
370
    50
100
AcDbLine
 10
122.5164249246
 20
155.8773700995
 30
0.0
 11
122.4168713646
 21
156.5572402462
 31
0.0
  0
LINE
  5
35D
330
A
100
AcDbEntity
  8
1
  6
CONTINUOUS
370
    50
100
AcDbLine
 10
122.4168713646
 20
156.5572402462
 30
0.0
 11
122.4744787699
 21
157.3108821094
 31
0.0
  0
LINE
  5
35E
330
A
100
AcDbEntity
  8
1
  6
CONTINUOUS
370
    50
100
AcDbLine
 10
122.4744787699
 20
157.3108821094
 30
0.0
 11
122.6836081264
 21
158.0645239727
 31
0.0
  0
LINE
  5
35F
330
A
100
AcDbEntity
  8
1
  6
CONTINUOUS
370
    50
100
AcDbLine
 10
122.6836081264
 20
158.0645239727
 30
0.0
 11
123.0237883955
 21
158.7443941194
 31
0.0
  0
LINE
  5
360
330
A
100
AcDbEntity
  8
1
  6
CONTINUOUS
370
    50
100
AcDbLine
 10
123.0237883955
 20
158.7443941194
 30
0.0
 11
123.4617203623
 21
159.2839421227
 31
0.0
  0
LINE
  5
361
330
A
100
AcDbEntity
  8
1
  6
CONTINUOUS
370
    50
100
AcDbLine
 10
123.4617203623
 20
159.2839421227
 30
0.0
 11
123.9545361947
 21
159.6303532648
 31
0.0
  0
LINE
  5
362
330
A
100
AcDbEntity
  8
1
  6
CONTINUOUS
370
    50
100
AcDbLine
 10
123.9545361947
 20
159.6303532648
 30
0.0
 11
124.4539956453
 21
159.7497184096
 31
0.0
  0
LINE
  5
363
330
A
100
AcDbEntity
  8
1
  6
CONTINUOUS
370
    50
100
AcDbLine
 10
124.4539956453
 20
159.7497184096
 30
0.0
 11
124.9112081431
 21
159.6303532648
 31
0.0
  0
LINE
  5
364
330
A
100
AcDbEntity
  8
1
  6
CONTINUOUS
370
    50
100
AcDbLine
 10
124.9112081431
 20
159.6303532648
 30
0.0
 11
125.2814185434
 21
159.2839421227
 31
0.0
  0
LINE
  5
365
330
A
100
AcDbEntity
  8
1
  6
CONTINUOUS
370
    50
100
AcDbLine
 10
125.2814185434
 20
159.2839421227
 30
0.0
 11
125.5283880726
 21
158.7443941194
 31
0.0
  0
LINE
  5
366
330
A
100
AcDbEntity
  8
1
  6
CONTINUOUS
370
    50
100
AcDbLine
 10
125.5283880726
 20
158.7443941194
 30
0.0
 11
125.6279416326
 21
158.0645239727
 31
0.0
  0
LINE
  5
367
330
A
100
AcDbEntity
  8
1
  6
CONTINUOUS
370
    50
100
AcDbLine
 10
125.6279416326
 20
158.0645239727
 30
0.0
 11
125.5703342273
 21
157.3108821094
 31
0.0
  0
LINE
  5
368
330
A
100
AcDbEntity
  8
1
  6
CONTINUOUS
370
    50
100
AcDbLine
 10
160.9775938215
 20
170.7303717112
 30
0.0
 11
149.0519096021
 21
170.7303717112
 31
0.0
  0
LINE
  5
369
330
A
100
AcDbEntity
  8
1
  6
CONTINUOUS
370
    50
100
AcDbLine
 10
149.0519096021
 20
165.7303717112
 30
0.0
 11
160.9775938215
 21
165.7303717112
 31
0.0
  0
ENDSEC
  0
SECTION
  2
OBJECTS
  0
DICTIONARY
  5
19
330
0
100
AcDbDictionary
281
     1
  3
ACAD_GROUP
350
1A
  3
ACAD_LAYOUT
350
38E
  3
ACAD_MATERIAL
350
3A2
  3
ACAD_MLEADERSTYLE
350
3AA
  3
ACAD_MLINESTYLE
350
1B
  3
ACAD_SCALELIST
350
36C
  3
ACAD_VISUALSTYLE
350
391
  3
ACDB_RECOMPOSE_DATA
350
3D7
  3
AcDbVariableDictionary
350
3A8
  0
DICTIONARY
  5
3AE
330
7
100
AcDbDictionary
280
     1
281
     1
  3
ACAD_XREC_ROUNDTRIP
360
3AF
  0
DICTIONARY
  5
1A
102
{ACAD_REACTORS
330
19
102
}
330
19
100
AcDbDictionary
281
     1
  0
DICTIONARY
  5
38E
102
{ACAD_REACTORS
330
19
102
}
330
19
100
AcDbDictionary
281
     1
  3
Layout1
350
390
  3
Model
350
38F
  0
DICTIONARY
  5
3A2
102
{ACAD_REACTORS
330
19
102
}
330
19
100
AcDbDictionary
281
     1
  3
ByBlock
350
3A4
  3
ByLayer
350
3A3
  3
Global
350
3A5
  0
DICTIONARY
  5
3AA
102
{ACAD_REACTORS
330
19
102
}
330
19
100
AcDbDictionary
281
     1
  0
DICTIONARY
  5
1B
102
{ACAD_REACTORS
330
19
102
}
330
19
100
AcDbDictionary
281
     1
  3
STANDARD
350
1C
  0
DICTIONARY
  5
36C
102
{ACAD_REACTORS
330
19
102
}
330
19
100
AcDbDictionary
281
     1
  3
A0
350
36D
  3
A1
350
36E
  3
A2
350
36F
  3
A3
350
370
  3
A4
350
371
  3
A5
350
372
  3
A6
350
373
  3
A7
350
374
  3
A8
350
375
  3
A9
350
376
  3
B0
350
377
  3
B1
350
378
  3
B2
350
379
  3
B3
350
37A
  3
B4
350
37B
  3
B5
350
37C
  3
B6
350
37D
  3
B7
350
37E
  3
B8
350
37F
  3
B9
350
380
  3
C0
350
381
  3
C1
350
382
  3
C2
350
383
  3
C3
350
384
  3
C4
350
385
  3
C5
350
386
  3
C6
350
387
  3
C7
350
388
  3
C8
350
389
  3
C9
350
38A
  3
D0
350
38B
  3
D1
350
38C
  3
D2
350
38D
  0
DICTIONARY
  5
391
102
{ACAD_REACTORS
330
19
102
}
330
19
100
AcDbDictionary
281
     1
  3
2dWireframe
350
396
  3
3D Hidden
350
398
  3
3dWireframe
350
397
  3
Basic
350
399
  3
Brighten
350
39D
  3
ColorChange
350
3A1
  3
Conceptual
350
39B
  3
Dim
350
39C
  3
Facepattern
350
3A0
  3
Flat
350
392
  3
FlatWithEdges
350
393
  3
Gouraud
350
394
  3
GouraudWithEdges
350
395
  3
Linepattern
350
39F
  3
Realistic
350
39A
  3
Thicken
350
39E
  0
XRECORD
  5
3D7
102
{ACAD_REACTORS
330
19
102
}
330
19
100
AcDbXrecord
280
     1
  0
DICTIONARY
  5
3A8
102
{ACAD_REACTORS
330
19
102
}
330
19
100
AcDbDictionary
281
     1
  3
CANNOSCALE
350
3B0
  3
DIMASSOC
350
3AC
  3
HIDETEXT
350
3AD
  3
MSLTSCALE
350
3AB
  0
XRECORD
  5
3AF
102
{ACAD_REACTORS
330
3AE
102
}
330
3AE
100
AcDbXrecord
280
     1
102
VTR_0.000_0.000_1.000_1.000_VISUALSTYLE
340
396
102
VTR_0.000_0.000_1.000_1.000_GRIDDISPLAY
 70
     3
102
VTR_0.000_0.000_1.000_1.000_GRIDMAJOR
 70
     5
102
VTR_0.000_0.000_1.000_1.000_DEFAULTLIGHTING
280
     1
102
VTR_0.000_0.000_1.000_1.000_DEFAULTLIGHTINGTYPE
 70
     1
102
VTR_0.000_0.000_1.000_1.000_BRIGHTNESS
141
0.0
102
VTR_0.000_0.000_1.000_1.000_CONTRAST
142
0.0
  0
LAYOUT
  5
390
102
{ACAD_REACTORS
330
38E
102
}
330
38E
100
AcDbPlotSettings
  1

  2
none_device
  4

  6

 40
0.0
 41
0.0
 42
0.0
 43
0.0
 44
0.0
 45
0.0
 46
0.0
 47
0.0
 48
0.0
 49
0.0
140
0.0
141
0.0
142
1.0
143
1.0
 70
   688
 72
     0
 73
     0
 74
     5
  7

 75
    16
147
1.0
148
0.0
149
0.0
100
AcDbLayout
  1
Layout1
 70
     1
 71
     1
 10
0.0
 20
0.0
 11
12.0
 21
9.0
 12
0.0
 22
0.0
 32
0.0
 14
1.000000000000000E+20
 24
1.000000000000000E+20
 34
1.000000000000000E+20
 15
-1.000000000000000E+20
 25
-1.000000000000000E+20
 35
-1.000000000000000E+20
146
0.0
 13
0.0
 23
0.0
 33
0.0
 16
1.0
 26
0.0
 36
0.0
 17
0.0
 27
1.0
 37
0.0
 76
     0
330
B
  0
LAYOUT
  5
38F
102
{ACAD_REACTORS
330
38E
102
}
330
38E
100
AcDbPlotSettings
  1

  2
none_device
  4

  6

 40
0.0
 41
0.0
 42
0.0
 43
0.0
 44
0.0
 45
0.0
 46
0.0
 47
0.0
 48
0.0
 49
0.0
140
0.0
141
0.0
142
1.0
143
1.0
 70
  1712
 72
     0
 73
     0
 74
     0
  7

 75
     0
147
1.0
148
2667.54428576817
149
0.0
100
AcDbLayout
  1
Model
 70
     1
 71
     0
 10
0.0
 20
0.0
 11
0.0
 21
0.0
 12
0.0
 22
0.0
 32
0.0
 14
0.0
 24
0.0
 34
0.0
 15
210.0
 25
297.0
 35
0.0
146
0.0
 13
0.0
 23
0.0
 33
0.0
 16
1.0
 26
0.0
 36
0.0
 17
0.0
 27
1.0
 37
0.0
 76
     0
330
A
331
15
  0
MATERIAL
  5
3A4
102
{ACAD_REACTORS
330
3A2
102
}
102
{ACAD_XDICTIONARY
360
3D3
102
}
330
3A2
100
AcDbMaterial
  1
ByBlock
  0
MATERIAL
  5
3A3
102
{ACAD_REACTORS
330
3A2
102
}
102
{ACAD_XDICTIONARY
360
3D1
102
}
330
3A2
100
AcDbMaterial
  1
ByLayer
  0
MATERIAL
  5
3A5
102
{ACAD_REACTORS
330
3A2
102
}
102
{ACAD_XDICTIONARY
360
3D5
102
}
330
3A2
100
AcDbMaterial
  1
Global
  0
MLINESTYLE
  5
1C
102
{ACAD_REACTORS
330
1B
102
}
330
1B
100
AcDbMlineStyle
  2
STANDARD
 70
     0
  3

 62
     0
 51
90.0
 52
90.0
 71
     2
 49
0.5
 62
   256
  6
BYLAYER
 49
-0.5
 62
   256
  6
BYLAYER
  0
SCALE
  5
36D
102
{ACAD_REACTORS
330
36C
102
}
330
36C
100
AcDbScale
 70
     0
300
1:1
140
1.0
141
1.0
290
     1
  0
SCALE
  5
36E
102
{ACAD_REACTORS
330
36C
102
}
330
36C
100
AcDbScale
 70
     0
300
1:2
140
1.0
141
2.0
290
     0
  0
SCALE
  5
36F
102
{ACAD_REACTORS
330
36C
102
}
330
36C
100
AcDbScale
 70
     0
300
1:4
140
1.0
141
4.0
290
     0
  0
SCALE
  5
370
102
{ACAD_REACTORS
330
36C
102
}
330
36C
100
AcDbScale
 70
     0
300
1:5
140
1.0
141
5.0
290
     0
  0
SCALE
  5
371
102
{ACAD_REACTORS
330
36C
102
}
330
36C
100
AcDbScale
 70
     0
300
1:8
140
1.0
141
8.0
290
     0
  0
SCALE
  5
372
102
{ACAD_REACTORS
330
36C
102
}
330
36C
100
AcDbScale
 70
     0
300
1:10
140
1.0
141
10.0
290
     0
  0
SCALE
  5
373
102
{ACAD_REACTORS
330
36C
102
}
330
36C
100
AcDbScale
 70
     0
300
1:16
140
1.0
141
16.0
290
     0
  0
SCALE
  5
374
102
{ACAD_REACTORS
330
36C
102
}
330
36C
100
AcDbScale
 70
     0
300
1:20
140
1.0
141
20.0
290
     0
  0
SCALE
  5
375
102
{ACAD_REACTORS
330
36C
102
}
330
36C
100
AcDbScale
 70
     0
300
1:30
140
1.0
141
30.0
290
     0
  0
SCALE
  5
376
102
{ACAD_REACTORS
330
36C
102
}
330
36C
100
AcDbScale
 70
     0
300
1:40
140
1.0
141
40.0
290
     0
  0
SCALE
  5
377
102
{ACAD_REACTORS
330
36C
102
}
330
36C
100
AcDbScale
 70
     0
300
1:50
140
1.0
141
50.0
290
     0
  0
SCALE
  5
378
102
{ACAD_REACTORS
330
36C
102
}
330
36C
100
AcDbScale
 70
     0
300
1:100
140
1.0
141
100.0
290
     0
  0
SCALE
  5
379
102
{ACAD_REACTORS
330
36C
102
}
330
36C
100
AcDbScale
 70
     0
300
2:1
140
2.0
141
1.0
290
     0
  0
SCALE
  5
37A
102
{ACAD_REACTORS
330
36C
102
}
330
36C
100
AcDbScale
 70
     0
300
4:1
140
4.0
141
1.0
290
     0
  0
SCALE
  5
37B
102
{ACAD_REACTORS
330
36C
102
}
330
36C
100
AcDbScale
 70
     0
300
8:1
140
8.0
141
1.0
290
     0
  0
SCALE
  5
37C
102
{ACAD_REACTORS
330
36C
102
}
330
36C
100
AcDbScale
 70
     0
300
10:1
140
10.0
141
1.0
290
     0
  0
SCALE
  5
37D
102
{ACAD_REACTORS
330
36C
102
}
330
36C
100
AcDbScale
 70
     0
300
100:1
140
100.0
141
1.0
290
     0
  0
SCALE
  5
37E
102
{ACAD_REACTORS
330
36C
102
}
330
36C
100
AcDbScale
 70
     0
300
1/128" = 1'-0"
140
0.0078125
141
12.0
290
     0
  0
SCALE
  5
37F
102
{ACAD_REACTORS
330
36C
102
}
330
36C
100
AcDbScale
 70
     0
300
1/64" = 1'-0"
140
0.015625
141
12.0
290
     0
  0
SCALE
  5
380
102
{ACAD_REACTORS
330
36C
102
}
330
36C
100
AcDbScale
 70
     0
300
1/32" = 1'-0"
140
0.03125
141
12.0
290
     0
  0
SCALE
  5
381
102
{ACAD_REACTORS
330
36C
102
}
330
36C
100
AcDbScale
 70
     0
300
1/16" = 1'-0"
140
0.0625
141
12.0
290
     0
  0
SCALE
  5
382
102
{ACAD_REACTORS
330
36C
102
}
330
36C
100
AcDbScale
 70
     0
300
3/32" = 1'-0"
140
0.09375
141
12.0
290
     0
  0
SCALE
  5
383
102
{ACAD_REACTORS
330
36C
102
}
330
36C
100
AcDbScale
 70
     0
300
1/8" = 1'-0"
140
0.125
141
12.0
290
     0
  0
SCALE
  5
384
102
{ACAD_REACTORS
330
36C
102
}
330
36C
100
AcDbScale
 70
     0
300
3/16" = 1'-0"
140
0.1875
141
12.0
290
     0
  0
SCALE
  5
385
102
{ACAD_REACTORS
330
36C
102
}
330
36C
100
AcDbScale
 70
     0
300
1/4" = 1'-0"
140
0.25
141
12.0
290
     0
  0
SCALE
  5
386
102
{ACAD_REACTORS
330
36C
102
}
330
36C
100
AcDbScale
 70
     0
300
3/8" = 1'-0"
140
0.375
141
12.0
290
     0
  0
SCALE
  5
387
102
{ACAD_REACTORS
330
36C
102
}
330
36C
100
AcDbScale
 70
     0
300
1/2" = 1'-0"
140
0.5
141
12.0
290
     0
  0
SCALE
  5
388
102
{ACAD_REACTORS
330
36C
102
}
330
36C
100
AcDbScale
 70
     0
300
3/4" = 1'-0"
140
0.75
141
12.0
290
     0
  0
SCALE
  5
389
102
{ACAD_REACTORS
330
36C
102
}
330
36C
100
AcDbScale
 70
     0
300
1" = 1'-0"
140
1.0
141
12.0
290
     0
  0
SCALE
  5
38A
102
{ACAD_REACTORS
330
36C
102
}
330
36C
100
AcDbScale
 70
     0
300
1-1/2" = 1'-0"
140
1.5
141
12.0
290
     0
  0
SCALE
  5
38B
102
{ACAD_REACTORS
330
36C
102
}
330
36C
100
AcDbScale
 70
     0
300
3" = 1'-0"
140
3.0
141
12.0
290
     0
  0
SCALE
  5
38C
102
{ACAD_REACTORS
330
36C
102
}
330
36C
100
AcDbScale
 70
     0
300
6" = 1'-0"
140
6.0
141
12.0
290
     0
  0
SCALE
  5
38D
102
{ACAD_REACTORS
330
36C
102
}
330
36C
100
AcDbScale
 70
     0
300
1'-0" = 1'-0"
140
12.0
141
12.0
290
     0
  0
VISUALSTYLE
  5
396
102
{ACAD_REACTORS
330
391
102
}
102
{ACAD_XDICTIONARY
360
3B9
102
}
330
391
100
AcDbVisualStyle
  2
2dWireframe
 70
     4
 71
     0
 72
     2
 73
     0
 90
        0
 40
-0.6
 41
-30.0
 62
     5
 63
     7
 74
     1
 91
        4
 64
     7
 65
   257
 75
     1
175
     1
 42
1.0
 92
        0
 66
   257
 43
1.0
 76
     1
 77
     6
 78
     2
 67
     7
 79
     5
170
     0
171
     0
290
     0
174
     0
 93
        1
 44
0.0
173
     0
291
     0
 45
0.0
1001
ACAD
1000
AcDbSavedByObjectVersion
1070
     0
  0
VISUALSTYLE
  5
398
102
{ACAD_REACTORS
330
391
102
}
102
{ACAD_XDICTIONARY
360
3BD
102
}
330
391
100
AcDbVisualStyle
  2
3D Hidden
 70
     6
 71
     1
 72
     2
 73
     2
 90
        0
 40
-0.6
 41
-30.0
 62
     5
 63
     7
 74
     2
 91
        2
 64
     7
 65
   257
 75
     2
175
     1
 42
40.0
 92
        0
 66
   257
 43
1.0
 76
     1
 77
     6
 78
     2
 67
     7
 79
     3
170
     0
171
     0
290
     0
174
     0
 93
        1
 44
0.0
173
     0
291
     0
 45
0.0
1001
ACAD
1000
AcDbSavedByObjectVersion
1070
     0
  0
VISUALSTYLE
  5
397
102
{ACAD_REACTORS
330
391
102
}
102
{ACAD_XDICTIONARY
360
3BB
102
}
330
391
100
AcDbVisualStyle
  2
3dWireframe
 70
     5
 71
     0
 72
     2
 73
     0
 90
        0
 40
-0.6
 41
-30.0
 62
     5
 63
     7
 74
     1
 91
        4
 64
     7
 65
   257
 75
     1
175
     1
 42
1.0
 92
        0
 66
   257
 43
1.0
 76
     1
 77
     6
 78
     2
 67
     7
 79
     5
170
     0
171
     0
290
     0
174
     0
 93
        1
 44
0.0
173
     0
291
     0
 45
0.0
1001
ACAD
1000
AcDbSavedByObjectVersion
1070
     0
  0
VISUALSTYLE
  5
399
102
{ACAD_REACTORS
330
391
102
}
102
{ACAD_XDICTIONARY
360
3BF
102
}
330
391
100
AcDbVisualStyle
  2
Basic
 70
     7
 71
     1
 72
     0
 73
     1
 90
        0
 40
-0.6
 41
-30.0
 62
     5
 63
     7
 74
     0
 91
        4
 64
     7
 65
   257
 75
     1
175
     1
 42
1.0
 92
        8
 66
     7
 43
1.0
 76
     1
 77
     6
 78
     2
 67
     7
 79
     5
170
     0
171
     0
290
     0
174
     0
 93
        1
 44
0.0
173
     0
291
     1
 45
0.0
1001
ACAD
1000
AcDbSavedByObjectVersion
1070
     0
  0
VISUALSTYLE
  5
39D
102
{ACAD_REACTORS
330
391
102
}
102
{ACAD_XDICTIONARY
360
3C7
102
}
330
391
100
AcDbVisualStyle
  2
Brighten
 70
    12
 71
     2
 72
     2
 73
     0
 90
        0
 40
-0.6
 41
-30.0
 62
     5
 63
     7
 74
     1
 91
        4
 64
     7
 65
   257
 75
     1
175
     1
 42
1.0
 92
        8
 66
     7
 43
1.0
 76
     1
 77
     6
 78
     2
 67
     7
 79
     5
170
     0
171
     0
290
     0
174
     0
 93
        1
 44
50.0
173
     0
291
     1
 45
0.0
1001
ACAD
1000
AcDbSavedByObjectVersion
1070
     0
  0
VISUALSTYLE
  5
3A1
102
{ACAD_REACTORS
330
391
102
}
102
{ACAD_XDICTIONARY
360
3CF
102
}
330
391
100
AcDbVisualStyle
  2
ColorChange
 70
    16
 71
     2
 72
     2
 73
     3
 90
        0
 40
-0.6
 41
-30.0
 62
     5
 63
     8
 74
     1
 91
        4
 64
     7
 65
   257
 75
     1
175
     1
 42
1.0
 92
        8
 66
     8
 43
1.0
 76
     1
 77
     6
 78
     2
 67
     7
 79
     5
170
     0
171
     0
290
     0
174
     0
 93
        1
 44
0.0
173
     0
291
     1
 45
0.0
1001
ACAD
1000
AcDbSavedByObjectVersion
1070
     0
  0
VISUALSTYLE
  5
39B
102
{ACAD_REACTORS
330
391
102
}
102
{ACAD_XDICTIONARY
360
3C3
102
}
330
391
100
AcDbVisualStyle
  2
Conceptual
 70
     9
 71
     3
 72
     2
 73
     0
 90
        0
 40
-0.6
 41
-30.0
 62
     5
 63
     7
 74
     2
 91
        2
 64
     7
 65
   257
 75
     1
175
     1
 42
40.0
 92
        8
 66
     7
 43
1.0
 76
     1
 77
     6
 78
     2
 67
     7
 79
     3
170
     0
171
     0
290
     0
174
     0
 93
        1
 44
0.0
173
     0
291
     0
 45
0.0
1001
ACAD
1000
AcDbSavedByObjectVersion
1070
     0
  0
VISUALSTYLE
  5
39C
102
{ACAD_REACTORS
330
391
102
}
102
{ACAD_XDICTIONARY
360
3C5
102
}
330
391
100
AcDbVisualStyle
  2
Dim
 70
    11
 71
     2
 72
     2
 73
     0
 90
        0
 40
-0.6
 41
-30.0
 62
     5
 63
     7
 74
     1
 91
        4
 64
     7
 65
   257
 75
     1
175
     1
 42
1.0
 92
        8
 66
     7
 43
1.0
 76
     1
 77
     6
 78
     2
 67
     7
 79
     5
170
     0
171
     0
290
     0
174
     0
 93
        1
 44
-50.0
173
     0
291
     1
 45
0.0
1001
ACAD
1000
AcDbSavedByObjectVersion
1070
     0
  0
VISUALSTYLE
  5
3A0
102
{ACAD_REACTORS
330
391
102
}
102
{ACAD_XDICTIONARY
360
3CD
102
}
330
391
100
AcDbVisualStyle
  2
Facepattern
 70
    15
 71
     2
 72
     2
 73
     0
 90
        0
 40
-0.6
 41
-30.0
 62
     5
 63
     7
 74
     1
 91
        4
 64
     7
 65
   257
 75
     1
175
     1
 42
1.0
 92
        8
 66
     7
 43
1.0
 76
     1
 77
     6
 78
     2
 67
     7
 79
     5
170
     0
171
     0
290
     0
174
     0
 93
        1
 44
0.0
173
     0
291
     1
 45
0.0
1001
ACAD
1000
AcDbSavedByObjectVersion
1070
     0
  0
VISUALSTYLE
  5
392
102
{ACAD_REACTORS
330
391
102
}
102
{ACAD_XDICTIONARY
360
3B1
102
}
330
391
100
AcDbVisualStyle
  2
Flat
 70
     0
 71
     2
 72
     1
 73
     1
 90
        2
 40
-0.6
 41
30.0
 62
     5
 63
     7
 74
     0
 91
        4
 64
     7
 65
   257
 75
     1
175
     1
 42
1.0
 92
        8
 66
     7
 43
1.0
 76
     1
 77
     6
 78
     2
 67
     7
 79
     5
170
     0
171
     0
290
     0
174
     0
 93
       13
 44
0.0
173
     0
291
     1
 45
0.0
1001
ACAD
1000
AcDbSavedByObjectVersion
1070
     0
  0
VISUALSTYLE
  5
393
102
{ACAD_REACTORS
330
391
102
}
102
{ACAD_XDICTIONARY
360
3B3
102
}
330
391
100
AcDbVisualStyle
  2
FlatWithEdges
 70
     1
 71
     2
 72
     1
 73
     1
 90
        2
 40
-0.6
 41
30.0
 62
     5
 63
     7
 74
     1
 91
        4
 64
     7
 65
   257
 75
     1
175
     1
 42
1.0
 92
        0
 66
   257
 43
1.0
 76
     1
 77
     6
 78
     2
 67
     7
 79
     5
170
     0
171
     0
290
     0
174
     0
 93
       13
 44
0.0
173
     0
291
     1
 45
0.0
1001
ACAD
1000
AcDbSavedByObjectVersion
1070
     0
  0
VISUALSTYLE
  5
394
102
{ACAD_REACTORS
330
391
102
}
102
{ACAD_XDICTIONARY
360
3B5
102
}
330
391
100
AcDbVisualStyle
  2
Gouraud
 70
     2
 71
     2
 72
     2
 73
     1
 90
        2
 40
-0.6
 41
30.0
 62
     5
 63
     7
 74
     0
 91
        4
 64
     7
 65
   257
 75
     1
175
     1
 42
1.0
 92
        0
 66
     7
 43
1.0
 76
     1
 77
     6
 78
     2
 67
     7
 79
     5
170
     0
171
     0
290
     0
174
     0
 93
       13
 44
0.0
173
     0
291
     1
 45
0.0
1001
ACAD
1000
AcDbSavedByObjectVersion
1070
     0
  0
VISUALSTYLE
  5
395
102
{ACAD_REACTORS
330
391
102
}
102
{ACAD_XDICTIONARY
360
3B7
102
}
330
391
100
AcDbVisualStyle
  2
GouraudWithEdges
 70
     3
 71
     2
 72
     2
 73
     1
 90
        2
 40
-0.6
 41
30.0
 62
     5
 63
     7
 74
     1
 91
        4
 64
     7
 65
   257
 75
     1
175
     1
 42
1.0
 92
        0
 66
   257
 43
1.0
 76
     1
 77
     6
 78
     2
 67
     7
 79
     5
170
     0
171
     0
290
     0
174
     0
 93
       13
 44
0.0
173
     0
291
     1
 45
0.0
1001
ACAD
1000
AcDbSavedByObjectVersion
1070
     0
  0
VISUALSTYLE
  5
39F
102
{ACAD_REACTORS
330
391
102
}
102
{ACAD_XDICTIONARY
360
3CB
102
}
330
391
100
AcDbVisualStyle
  2
Linepattern
 70
    14
 71
     2
 72
     2
 73
     0
 90
        0
 40
-0.6
 41
-30.0
 62
     5
 63
     7
 74
     1
 91
        4
 64
     7
 65
   257
 75
     7
175
     7
 42
1.0
 92
        8
 66
     7
 43
1.0
 76
     1
 77
     6
 78
     2
 67
     7
 79
     5
170
     0
171
     0
290
     0
174
     0
 93
        1
 44
0.0
173
     0
291
     1
 45
0.0
1001
ACAD
1000
AcDbSavedByObjectVersion
1070
     0
  0
VISUALSTYLE
  5
39A
102
{ACAD_REACTORS
330
391
102
}
102
{ACAD_XDICTIONARY
360
3C1
102
}
330
391
100
AcDbVisualStyle
  2
Realistic
 70
     8
 71
     2
 72
     2
 73
     0
 90
        0
 40
-0.6
 41
-30.0
 62
     5
 63
     7
 74
     1
 91
        0
 64
     7
 65
   257
 75
     1
175
     1
 42
1.0
 92
        8
 66
     8
 43
1.0
 76
     1
 77
     6
 78
     2
 67
     7
 79
     5
170
     0
171
     0
290
     0
174
     0
 93
       13
 44
0.0
173
     0
291
     0
 45
0.0
1001
ACAD
1000
AcDbSavedByObjectVersion
1070
     0
  0
VISUALSTYLE
  5
39E
102
{ACAD_REACTORS
330
391
102
}
102
{ACAD_XDICTIONARY
360
3C9
102
}
330
391
100
AcDbVisualStyle
  2
Thicken
 70
    13
 71
     2
 72
     2
 73
     0
 90
        0
 40
-0.6
 41
-30.0
 62
     5
 63
     7
 74
     1
 91
        4
 64
     7
 65
   257
 75
     1
175
     1
 42
1.0
 92
       12
 66
     7
 43
1.0
 76
     1
 77
     6
 78
     2
 67
     7
 79
     5
170
     0
171
     0
290
     0
174
     0
 93
        1
 44
0.0
173
     0
291
     1
 45
0.0
1001
ACAD
1000
AcDbSavedByObjectVersion
1070
     0
  0
DICTIONARYVAR
  5
3B0
102
{ACAD_REACTORS
330
3A8
102
}
330
3A8
100
DictionaryVariables
280
     0
  1
1:1
  0
DICTIONARYVAR
  5
3AC
102
{ACAD_REACTORS
330
3A8
102
}
330
3A8
100
DictionaryVariables
280
     0
  1
2
  0
DICTIONARYVAR
  5
3AD
102
{ACAD_REACTORS
330
3A8
102
}
330
3A8
100
DictionaryVariables
280
     0
  1
1
  0
DICTIONARYVAR
  5
3AB
102
{ACAD_REACTORS
330
3A8
102
}
330
3A8
100
DictionaryVariables
280
     0
  1
0
  0
DICTIONARY
  5
3D3
330
3A4
100
AcDbDictionary
280
     1
281
     1
  3
ACAD_XREC_ROUNDTRIP
360
3D4
  0
DICTIONARY
  5
3D1
330
3A3
100
AcDbDictionary
280
     1
281
     1
  3
ACAD_XREC_ROUNDTRIP
360
3D2
  0
DICTIONARY
  5
3D5
330
3A5
100
AcDbDictionary
280
     1
281
     1
  3
ACAD_XREC_ROUNDTRIP
360
3D6
  0
DICTIONARY
  5
3B9
330
396
100
AcDbDictionary
280
     1
281
     1
  3
ACAD_XREC_ROUNDTRIP
360
3BA
  0
DICTIONARY
  5
3BD
330
398
100
AcDbDictionary
280
     1
281
     1
  3
ACAD_XREC_ROUNDTRIP
360
3BE
  0
DICTIONARY
  5
3BB
330
397
100
AcDbDictionary
280
     1
281
     1
  3
ACAD_XREC_ROUNDTRIP
360
3BC
  0
DICTIONARY
  5
3BF
330
399
100
AcDbDictionary
280
     1
281
     1
  3
ACAD_XREC_ROUNDTRIP
360
3C0
  0
DICTIONARY
  5
3C7
330
39D
100
AcDbDictionary
280
     1
281
     1
  3
ACAD_XREC_ROUNDTRIP
360
3C8
  0
DICTIONARY
  5
3CF
330
3A1
100
AcDbDictionary
280
     1
281
     1
  3
ACAD_XREC_ROUNDTRIP
360
3D0
  0
DICTIONARY
  5
3C3
330
39B
100
AcDbDictionary
280
     1
281
     1
  3
ACAD_XREC_ROUNDTRIP
360
3C4
  0
DICTIONARY
  5
3C5
330
39C
100
AcDbDictionary
280
     1
281
     1
  3
ACAD_XREC_ROUNDTRIP
360
3C6
  0
DICTIONARY
  5
3CD
330
3A0
100
AcDbDictionary
280
     1
281
     1
  3
ACAD_XREC_ROUNDTRIP
360
3CE
  0
DICTIONARY
  5
3B1
330
392
100
AcDbDictionary
280
     1
281
     1
  3
ACAD_XREC_ROUNDTRIP
360
3B2
  0
DICTIONARY
  5
3B3
330
393
100
AcDbDictionary
280
     1
281
     1
  3
ACAD_XREC_ROUNDTRIP
360
3B4
  0
DICTIONARY
  5
3B5
330
394
100
AcDbDictionary
280
     1
281
     1
  3
ACAD_XREC_ROUNDTRIP
360
3B6
  0
DICTIONARY
  5
3B7
330
395
100
AcDbDictionary
280
     1
281
     1
  3
ACAD_XREC_ROUNDTRIP
360
3B8
  0
DICTIONARY
  5
3CB
330
39F
100
AcDbDictionary
280
     1
281
     1
  3
ACAD_XREC_ROUNDTRIP
360
3CC
  0
DICTIONARY
  5
3C1
330
39A
100
AcDbDictionary
280
     1
281
     1
  3
ACAD_XREC_ROUNDTRIP
360
3C2
  0
DICTIONARY
  5
3C9
330
39E
100
AcDbDictionary
280
     1
281
     1
  3
ACAD_XREC_ROUNDTRIP
360
3CA
  0
XRECORD
  5
3D4
102
{ACAD_REACTORS
330
3D3
102
}
330
3D3
100
AcDbXrecord
280
     1
102
MATERIAL
148
0.0
149
0.0
149
0.0
 93
        0
 94
      127
282
     0
 72
     1
 77
     1
171
     1
175
     1
179
     1
273
     0
  0
XRECORD
  5
3D2
102
{ACAD_REACTORS
330
3D1
102
}
330
3D1
100
AcDbXrecord
280
     1
102
MATERIAL
148
0.0
149
0.0
149
0.0
 93
        0
 94
      127
282
     0
 72
     1
 77
     1
171
     1
175
     1
179
     1
273
     0
  0
XRECORD
  5
3D6
102
{ACAD_REACTORS
330
3D5
102
}
330
3D5
100
AcDbXrecord
280
     1
102
MATERIAL
148
0.0
149
0.0
149
0.0
 93
        0
 94
      127
282
     0
 72
     1
 77
     1
171
     1
175
     1
179
     1
273
     0
  0
XRECORD
  5
3BA
102
{ACAD_REACTORS
330
3B9
102
}
330
3B9
100
AcDbXrecord
280
     1
102
RTVSPropertyOp0
 70
     1
102
RTVSPropertyOp1
 70
     1
102
RTVSPropertyOp2
 70
     1
102
RTVSPropertyOp3
 70
     1
102
RTVSPropertyOp4
 70
     1
102
RTVSPropertyOp5
 70
     1
102
RTVSPropertyOp6
 70
     1
102
RTVSPropertyOp7
 70
     1
102
RTVSPropertyOp8
 70
     1
102
RTVSPropertyOp9
 70
     1
102
RTVSPropertyOp10
 70
     1
102
RTVSPropertyOp11
 70
     1
102
RTVSPropertyOp12
 70
     1
102
RTVSPropertyOp13
 70
     1
102
RTVSPropertyOp14
 70
     1
102
RTVSPropertyOp15
 70
     1
102
RTVSPropertyOp16
 70
     1
102
RTVSPropertyOp17
 70
     1
102
RTVSPropertyOp18
 70
     1
102
RTVSPropertyOp19
 70
     1
102
RTVSPropertyOp20
 70
     1
102
RTVSPropertyOp21
 70
     1
102
RTVSPropertyOp22
 70
     1
102
RTVSPropertyOp23
 70
     1
102
RTVSPropertyOp24
 70
     1
102
RTVSPropertyOp25
 70
     1
102
RTVSPropertyOp26
 70
     1
102
RTVSPropertyOp27
 70
     1
102
RTVSPropertyOp28
 70
     1
102
RTVSPropertyOp29
 70
     1
102
RTVSPropertyOp30
 70
     1
102
RTVSPropertyOp31
 70
     1
102
RTVSPropertyOp32
 70
     1
  0
XRECORD
  5
3BE
102
{ACAD_REACTORS
330
3BD
102
}
330
3BD
100
AcDbXrecord
280
     1
102
RTVSPropertyOp0
 70
     1
102
RTVSPropertyOp1
 70
     1
102
RTVSPropertyOp2
 70
     1
102
RTVSPropertyOp3
 70
     1
102
RTVSPropertyOp4
 70
     1
102
RTVSPropertyOp5
 70
     1
102
RTVSPropertyOp6
 70
     1
102
RTVSPropertyOp7
 70
     1
102
RTVSPropertyOp8
 70
     1
102
RTVSPropertyOp9
 70
     1
102
RTVSPropertyOp10
 70
     1
102
RTVSPropertyOp11
 70
     1
102
RTVSPropertyOp12
 70
     1
102
RTVSPropertyOp13
 70
     1
102
RTVSPropertyOp14
 70
     1
102
RTVSPropertyOp15
 70
     1
102
RTVSPropertyOp16
 70
     1
102
RTVSPropertyOp17
 70
     1
102
RTVSPropertyOp18
 70
     1
102
RTVSPropertyOp19
 70
     1
102
RTVSPropertyOp20
 70
     1
102
RTVSPropertyOp21
 70
     1
102
RTVSPropertyOp22
 70
     1
102
RTVSPropertyOp23
 70
     1
102
RTVSPropertyOp24
 70
     1
102
RTVSPropertyOp25
 70
     1
102
RTVSPropertyOp26
 70
     1
102
RTVSPropertyOp27
 70
     1
102
RTVSPropertyOp28
 70
     1
102
RTVSPropertyOp29
 70
     1
102
RTVSPropertyOp30
 70
     1
102
RTVSPropertyOp31
 70
     1
102
RTVSPropertyOp32
 70
     1
  0
XRECORD
  5
3BC
102
{ACAD_REACTORS
330
3BB
102
}
330
3BB
100
AcDbXrecord
280
     1
102
RTVSPropertyOp0
 70
     1
102
RTVSPropertyOp1
 70
     1
102
RTVSPropertyOp2
 70
     1
102
RTVSPropertyOp3
 70
     1
102
RTVSPropertyOp4
 70
     1
102
RTVSPropertyOp5
 70
     1
102
RTVSPropertyOp6
 70
     1
102
RTVSPropertyOp7
 70
     1
102
RTVSPropertyOp8
 70
     1
102
RTVSPropertyOp9
 70
     1
102
RTVSPropertyOp10
 70
     1
102
RTVSPropertyOp11
 70
     1
102
RTVSPropertyOp12
 70
     1
102
RTVSPropertyOp13
 70
     1
102
RTVSPropertyOp14
 70
     1
102
RTVSPropertyOp15
 70
     1
102
RTVSPropertyOp16
 70
     1
102
RTVSPropertyOp17
 70
     1
102
RTVSPropertyOp18
 70
     1
102
RTVSPropertyOp19
 70
     1
102
RTVSPropertyOp20
 70
     1
102
RTVSPropertyOp21
 70
     1
102
RTVSPropertyOp22
 70
     1
102
RTVSPropertyOp23
 70
     1
102
RTVSPropertyOp24
 70
     1
102
RTVSPropertyOp25
 70
     1
102
RTVSPropertyOp26
 70
     1
102
RTVSPropertyOp27
 70
     1
102
RTVSPropertyOp28
 70
     1
102
RTVSPropertyOp29
 70
     1
102
RTVSPropertyOp30
 70
     1
102
RTVSPropertyOp31
 70
     1
102
RTVSPropertyOp32
 70
     1
  0
XRECORD
  5
3C0
102
{ACAD_REACTORS
330
3BF
102
}
330
3BF
100
AcDbXrecord
280
     1
102
RTVSPropertyOp0
 70
     1
102
RTVSPropertyOp1
 70
     1
102
RTVSPropertyOp2
 70
     1
102
RTVSPropertyOp3
 70
     1
102
RTVSPropertyOp4
 70
     1
102
RTVSPropertyOp5
 70
     1
102
RTVSPropertyOp6
 70
     1
102
RTVSPropertyOp7
 70
     1
102
RTVSPropertyOp8
 70
     1
102
RTVSPropertyOp9
 70
     1
102
RTVSPropertyOp10
 70
     1
102
RTVSPropertyOp11
 70
     1
102
RTVSPropertyOp12
 70
     1
102
RTVSPropertyOp13
 70
     1
102
RTVSPropertyOp14
 70
     1
102
RTVSPropertyOp15
 70
     1
102
RTVSPropertyOp16
 70
     1
102
RTVSPropertyOp17
 70
     1
102
RTVSPropertyOp18
 70
     1
102
RTVSPropertyOp19
 70
     1
102
RTVSPropertyOp20
 70
     1
102
RTVSPropertyOp21
 70
     1
102
RTVSPropertyOp22
 70
     1
102
RTVSPropertyOp23
 70
     1
102
RTVSPropertyOp24
 70
     1
102
RTVSPropertyOp25
 70
     1
102
RTVSPropertyOp26
 70
     1
102
RTVSPropertyOp27
 70
     1
102
RTVSPropertyOp28
 70
     1
102
RTVSPropertyOp29
 70
     1
102
RTVSPropertyOp30
 70
     1
102
RTVSPropertyOp31
 70
     1
102
RTVSPropertyOp32
 70
     1
  0
XRECORD
  5
3C8
102
{ACAD_REACTORS
330
3C7
102
}
330
3C7
100
AcDbXrecord
280
     1
102
RTVSPropertyOp0
 70
     1
102
RTVSPropertyOp1
 70
     1
102
RTVSPropertyOp2
 70
     1
102
RTVSPropertyOp3
 70
     1
102
RTVSPropertyOp4
 70
     1
102
RTVSPropertyOp5
 70
     1
102
RTVSPropertyOp6
 70
     1
102
RTVSPropertyOp7
 70
     1
102
RTVSPropertyOp8
 70
     1
102
RTVSPropertyOp9
 70
     1
102
RTVSPropertyOp10
 70
     1
102
RTVSPropertyOp11
 70
     1
102
RTVSPropertyOp12
 70
     1
102
RTVSPropertyOp13
 70
     1
102
RTVSPropertyOp14
 70
     1
102
RTVSPropertyOp15
 70
     1
102
RTVSPropertyOp16
 70
     1
102
RTVSPropertyOp17
 70
     1
102
RTVSPropertyOp18
 70
     1
102
RTVSPropertyOp19
 70
     1
102
RTVSPropertyOp20
 70
     1
102
RTVSPropertyOp21
 70
     1
102
RTVSPropertyOp22
 70
     1
102
RTVSPropertyOp23
 70
     1
102
RTVSPropertyOp24
 70
     1
102
RTVSPropertyOp25
 70
     1
102
RTVSPropertyOp26
 70
     1
102
RTVSPropertyOp27
 70
     1
102
RTVSPropertyOp28
 70
     1
102
RTVSPropertyOp29
 70
     1
102
RTVSPropertyOp30
 70
     1
102
RTVSPropertyOp31
 70
     1
102
RTVSPropertyOp32
 70
     1
  0
XRECORD
  5
3D0
102
{ACAD_REACTORS
330
3CF
102
}
330
3CF
100
AcDbXrecord
280
     1
102
RTVSPropertyOp0
 70
     1
102
RTVSPropertyOp1
 70
     1
102
RTVSPropertyOp2
 70
     1
102
RTVSPropertyOp3
 70
     1
102
RTVSPropertyOp4
 70
     1
102
RTVSPropertyOp5
 70
     1
102
RTVSPropertyOp6
 70
     1
102
RTVSPropertyOp7
 70
     1
102
RTVSPropertyOp8
 70
     1
102
RTVSPropertyOp9
 70
     1
102
RTVSPropertyOp10
 70
     1
102
RTVSPropertyOp11
 70
     1
102
RTVSPropertyOp12
 70
     1
102
RTVSPropertyOp13
 70
     1
102
RTVSPropertyOp14
 70
     1
102
RTVSPropertyOp15
 70
     1
102
RTVSPropertyOp16
 70
     1
102
RTVSPropertyOp17
 70
     1
102
RTVSPropertyOp18
 70
     1
102
RTVSPropertyOp19
 70
     1
102
RTVSPropertyOp20
 70
     1
102
RTVSPropertyOp21
 70
     1
102
RTVSPropertyOp22
 70
     1
102
RTVSPropertyOp23
 70
     1
102
RTVSPropertyOp24
 70
     1
102
RTVSPropertyOp25
 70
     1
102
RTVSPropertyOp26
 70
     1
102
RTVSPropertyOp27
 70
     1
102
RTVSPropertyOp28
 70
     1
102
RTVSPropertyOp29
 70
     1
102
RTVSPropertyOp30
 70
     1
102
RTVSPropertyOp31
 70
     1
102
RTVSPropertyOp32
 70
     1
  0
XRECORD
  5
3C4
102
{ACAD_REACTORS
330
3C3
102
}
330
3C3
100
AcDbXrecord
280
     1
102
RTVSPropertyOp0
 70
     1
102
RTVSPropertyOp1
 70
     1
102
RTVSPropertyOp2
 70
     1
102
RTVSPropertyOp3
 70
     1
102
RTVSPropertyOp4
 70
     1
102
RTVSPropertyOp5
 70
     1
102
RTVSPropertyOp6
 70
     1
102
RTVSPropertyOp7
 70
     1
102
RTVSPropertyOp8
 70
     1
102
RTVSPropertyOp9
 70
     1
102
RTVSPropertyOp10
 70
     1
102
RTVSPropertyOp11
 70
     1
102
RTVSPropertyOp12
 70
     1
102
RTVSPropertyOp13
 70
     1
102
RTVSPropertyOp14
 70
     1
102
RTVSPropertyOp15
 70
     1
102
RTVSPropertyOp16
 70
     1
102
RTVSPropertyOp17
 70
     1
102
RTVSPropertyOp18
 70
     1
102
RTVSPropertyOp19
 70
     1
102
RTVSPropertyOp20
 70
     1
102
RTVSPropertyOp21
 70
     1
102
RTVSPropertyOp22
 70
     1
102
RTVSPropertyOp23
 70
     1
102
RTVSPropertyOp24
 70
     1
102
RTVSPropertyOp25
 70
     1
102
RTVSPropertyOp26
 70
     1
102
RTVSPropertyOp27
 70
     1
102
RTVSPropertyOp28
 70
     1
102
RTVSPropertyOp29
 70
     1
102
RTVSPropertyOp30
 70
     1
102
RTVSPropertyOp31
 70
     1
102
RTVSPropertyOp32
 70
     1
  0
XRECORD
  5
3C6
102
{ACAD_REACTORS
330
3C5
102
}
330
3C5
100
AcDbXrecord
280
     1
102
RTVSPropertyOp0
 70
     1
102
RTVSPropertyOp1
 70
     1
102
RTVSPropertyOp2
 70
     1
102
RTVSPropertyOp3
 70
     1
102
RTVSPropertyOp4
 70
     1
102
RTVSPropertyOp5
 70
     1
102
RTVSPropertyOp6
 70
     1
102
RTVSPropertyOp7
 70
     1
102
RTVSPropertyOp8
 70
     1
102
RTVSPropertyOp9
 70
     1
102
RTVSPropertyOp10
 70
     1
102
RTVSPropertyOp11
 70
     1
102
RTVSPropertyOp12
 70
     1
102
RTVSPropertyOp13
 70
     1
102
RTVSPropertyOp14
 70
     1
102
RTVSPropertyOp15
 70
     1
102
RTVSPropertyOp16
 70
     1
102
RTVSPropertyOp17
 70
     1
102
RTVSPropertyOp18
 70
     1
102
RTVSPropertyOp19
 70
     1
102
RTVSPropertyOp20
 70
     1
102
RTVSPropertyOp21
 70
     1
102
RTVSPropertyOp22
 70
     1
102
RTVSPropertyOp23
 70
     1
102
RTVSPropertyOp24
 70
     1
102
RTVSPropertyOp25
 70
     1
102
RTVSPropertyOp26
 70
     1
102
RTVSPropertyOp27
 70
     1
102
RTVSPropertyOp28
 70
     1
102
RTVSPropertyOp29
 70
     1
102
RTVSPropertyOp30
 70
     1
102
RTVSPropertyOp31
 70
     1
102
RTVSPropertyOp32
 70
     1
  0
XRECORD
  5
3CE
102
{ACAD_REACTORS
330
3CD
102
}
330
3CD
100
AcDbXrecord
280
     1
102
RTVSPropertyOp0
 70
     1
102
RTVSPropertyOp1
 70
     1
102
RTVSPropertyOp2
 70
     1
102
RTVSPropertyOp3
 70
     1
102
RTVSPropertyOp4
 70
     1
102
RTVSPropertyOp5
 70
     1
102
RTVSPropertyOp6
 70
     1
102
RTVSPropertyOp7
 70
     1
102
RTVSPropertyOp8
 70
     1
102
RTVSPropertyOp9
 70
     1
102
RTVSPropertyOp10
 70
     1
102
RTVSPropertyOp11
 70
     1
102
RTVSPropertyOp12
 70
     1
102
RTVSPropertyOp13
 70
     1
102
RTVSPropertyOp14
 70
     1
102
RTVSPropertyOp15
 70
     1
102
RTVSPropertyOp16
 70
     1
102
RTVSPropertyOp17
 70
     1
102
RTVSPropertyOp18
 70
     1
102
RTVSPropertyOp19
 70
     1
102
RTVSPropertyOp20
 70
     1
102
RTVSPropertyOp21
 70
     1
102
RTVSPropertyOp22
 70
     1
102
RTVSPropertyOp23
 70
     1
102
RTVSPropertyOp24
 70
     1
102
RTVSPropertyOp25
 70
     1
102
RTVSPropertyOp26
 70
     1
102
RTVSPropertyOp27
 70
     1
102
RTVSPropertyOp28
 70
     1
102
RTVSPropertyOp29
 70
     1
102
RTVSPropertyOp30
 70
     1
102
RTVSPropertyOp31
 70
     1
102
RTVSPropertyOp32
 70
     1
  0
XRECORD
  5
3B2
102
{ACAD_REACTORS
330
3B1
102
}
330
3B1
100
AcDbXrecord
280
     1
102
RTVSPropertyOp0
 70
     1
102
RTVSPropertyOp1
 70
     1
102
RTVSPropertyOp2
 70
     1
102
RTVSPropertyOp3
 70
     1
102
RTVSPropertyOp4
 70
     1
102
RTVSPropertyOp5
 70
     1
102
RTVSPropertyOp6
 70
     1
102
RTVSPropertyOp7
 70
     1
102
RTVSPropertyOp8
 70
     1
102
RTVSPropertyOp9
 70
     1
102
RTVSPropertyOp10
 70
     1
102
RTVSPropertyOp11
 70
     1
102
RTVSPropertyOp12
 70
     1
102
RTVSPropertyOp13
 70
     1
102
RTVSPropertyOp14
 70
     1
102
RTVSPropertyOp15
 70
     1
102
RTVSPropertyOp16
 70
     1
102
RTVSPropertyOp17
 70
     1
102
RTVSPropertyOp18
 70
     1
102
RTVSPropertyOp19
 70
     1
102
RTVSPropertyOp20
 70
     1
102
RTVSPropertyOp21
 70
     1
102
RTVSPropertyOp22
 70
     1
102
RTVSPropertyOp23
 70
     1
102
RTVSPropertyOp24
 70
     1
102
RTVSPropertyOp25
 70
     1
102
RTVSPropertyOp26
 70
     1
102
RTVSPropertyOp27
 70
     1
102
RTVSPropertyOp28
 70
     1
102
RTVSPropertyOp29
 70
     1
102
RTVSPropertyOp30
 70
     1
102
RTVSPropertyOp31
 70
     1
102
RTVSPropertyOp32
 70
     1
  0
XRECORD
  5
3B4
102
{ACAD_REACTORS
330
3B3
102
}
330
3B3
100
AcDbXrecord
280
     1
102
RTVSPropertyOp0
 70
     1
102
RTVSPropertyOp1
 70
     1
102
RTVSPropertyOp2
 70
     1
102
RTVSPropertyOp3
 70
     1
102
RTVSPropertyOp4
 70
     1
102
RTVSPropertyOp5
 70
     1
102
RTVSPropertyOp6
 70
     1
102
RTVSPropertyOp7
 70
     1
102
RTVSPropertyOp8
 70
     1
102
RTVSPropertyOp9
 70
     1
102
RTVSPropertyOp10
 70
     1
102
RTVSPropertyOp11
 70
     1
102
RTVSPropertyOp12
 70
     1
102
RTVSPropertyOp13
 70
     1
102
RTVSPropertyOp14
 70
     1
102
RTVSPropertyOp15
 70
     1
102
RTVSPropertyOp16
 70
     1
102
RTVSPropertyOp17
 70
     1
102
RTVSPropertyOp18
 70
     1
102
RTVSPropertyOp19
 70
     1
102
RTVSPropertyOp20
 70
     1
102
RTVSPropertyOp21
 70
     1
102
RTVSPropertyOp22
 70
     1
102
RTVSPropertyOp23
 70
     1
102
RTVSPropertyOp24
 70
     1
102
RTVSPropertyOp25
 70
     1
102
RTVSPropertyOp26
 70
     1
102
RTVSPropertyOp27
 70
     1
102
RTVSPropertyOp28
 70
     1
102
RTVSPropertyOp29
 70
     1
102
RTVSPropertyOp30
 70
     1
102
RTVSPropertyOp31
 70
     1
102
RTVSPropertyOp32
 70
     1
  0
XRECORD
  5
3B6
102
{ACAD_REACTORS
330
3B5
102
}
330
3B5
100
AcDbXrecord
280
     1
102
RTVSPropertyOp0
 70
     1
102
RTVSPropertyOp1
 70
     1
102
RTVSPropertyOp2
 70
     1
102
RTVSPropertyOp3
 70
     1
102
RTVSPropertyOp4
 70
     1
102
RTVSPropertyOp5
 70
     1
102
RTVSPropertyOp6
 70
     1
102
RTVSPropertyOp7
 70
     1
102
RTVSPropertyOp8
 70
     1
102
RTVSPropertyOp9
 70
     1
102
RTVSPropertyOp10
 70
     1
102
RTVSPropertyOp11
 70
     1
102
RTVSPropertyOp12
 70
     1
102
RTVSPropertyOp13
 70
     1
102
RTVSPropertyOp14
 70
     1
102
RTVSPropertyOp15
 70
     1
102
RTVSPropertyOp16
 70
     1
102
RTVSPropertyOp17
 70
     1
102
RTVSPropertyOp18
 70
     1
102
RTVSPropertyOp19
 70
     1
102
RTVSPropertyOp20
 70
     1
102
RTVSPropertyOp21
 70
     1
102
RTVSPropertyOp22
 70
     1
102
RTVSPropertyOp23
 70
     1
102
RTVSPropertyOp24
 70
     1
102
RTVSPropertyOp25
 70
     1
102
RTVSPropertyOp26
 70
     1
102
RTVSPropertyOp27
 70
     1
102
RTVSPropertyOp28
 70
     1
102
RTVSPropertyOp29
 70
     1
102
RTVSPropertyOp30
 70
     1
102
RTVSPropertyOp31
 70
     1
102
RTVSPropertyOp32
 70
     1
  0
XRECORD
  5
3B8
102
{ACAD_REACTORS
330
3B7
102
}
330
3B7
100
AcDbXrecord
280
     1
102
RTVSPropertyOp0
 70
     1
102
RTVSPropertyOp1
 70
     1
102
RTVSPropertyOp2
 70
     1
102
RTVSPropertyOp3
 70
     1
102
RTVSPropertyOp4
 70
     1
102
RTVSPropertyOp5
 70
     1
102
RTVSPropertyOp6
 70
     1
102
RTVSPropertyOp7
 70
     1
102
RTVSPropertyOp8
 70
     1
102
RTVSPropertyOp9
 70
     1
102
RTVSPropertyOp10
 70
     1
102
RTVSPropertyOp11
 70
     1
102
RTVSPropertyOp12
 70
     1
102
RTVSPropertyOp13
 70
     1
102
RTVSPropertyOp14
 70
     1
102
RTVSPropertyOp15
 70
     1
102
RTVSPropertyOp16
 70
     1
102
RTVSPropertyOp17
 70
     1
102
RTVSPropertyOp18
 70
     1
102
RTVSPropertyOp19
 70
     1
102
RTVSPropertyOp20
 70
     1
102
RTVSPropertyOp21
 70
     1
102
RTVSPropertyOp22
 70
     1
102
RTVSPropertyOp23
 70
     1
102
RTVSPropertyOp24
 70
     1
102
RTVSPropertyOp25
 70
     1
102
RTVSPropertyOp26
 70
     1
102
RTVSPropertyOp27
 70
     1
102
RTVSPropertyOp28
 70
     1
102
RTVSPropertyOp29
 70
     1
102
RTVSPropertyOp30
 70
     1
102
RTVSPropertyOp31
 70
     1
102
RTVSPropertyOp32
 70
     1
  0
XRECORD
  5
3CC
102
{ACAD_REACTORS
330
3CB
102
}
330
3CB
100
AcDbXrecord
280
     1
102
RTVSPropertyOp0
 70
     1
102
RTVSPropertyOp1
 70
     1
102
RTVSPropertyOp2
 70
     1
102
RTVSPropertyOp3
 70
     1
102
RTVSPropertyOp4
 70
     1
102
RTVSPropertyOp5
 70
     1
102
RTVSPropertyOp6
 70
     1
102
RTVSPropertyOp7
 70
     1
102
RTVSPropertyOp8
 70
     1
102
RTVSPropertyOp9
 70
     1
102
RTVSPropertyOp10
 70
     1
102
RTVSPropertyOp11
 70
     1
102
RTVSPropertyOp12
 70
     1
102
RTVSPropertyOp13
 70
     1
102
RTVSPropertyOp14
 70
     1
102
RTVSPropertyOp15
 70
     1
102
RTVSPropertyOp16
 70
     1
102
RTVSPropertyOp17
 70
     1
102
RTVSPropertyOp18
 70
     1
102
RTVSPropertyOp19
 70
     1
102
RTVSPropertyOp20
 70
     1
102
RTVSPropertyOp21
 70
     1
102
RTVSPropertyOp22
 70
     1
102
RTVSPropertyOp23
 70
     1
102
RTVSPropertyOp24
 70
     1
102
RTVSPropertyOp25
 70
     1
102
RTVSPropertyOp26
 70
     1
102
RTVSPropertyOp27
 70
     1
102
RTVSPropertyOp28
 70
     1
102
RTVSPropertyOp29
 70
     1
102
RTVSPropertyOp30
 70
     1
102
RTVSPropertyOp31
 70
     1
102
RTVSPropertyOp32
 70
     1
  0
XRECORD
  5
3C2
102
{ACAD_REACTORS
330
3C1
102
}
330
3C1
100
AcDbXrecord
280
     1
102
RTVSPropertyOp0
 70
     1
102
RTVSPropertyOp1
 70
     1
102
RTVSPropertyOp2
 70
     1
102
RTVSPropertyOp3
 70
     1
102
RTVSPropertyOp4
 70
     1
102
RTVSPropertyOp5
 70
     1
102
RTVSPropertyOp6
 70
     1
102
RTVSPropertyOp7
 70
     1
102
RTVSPropertyOp8
 70
     1
102
RTVSPropertyOp9
 70
     1
102
RTVSPropertyOp10
 70
     1
102
RTVSPropertyOp11
 70
     1
102
RTVSPropertyOp12
 70
     1
102
RTVSPropertyOp13
 70
     1
102
RTVSPropertyOp14
 70
     1
102
RTVSPropertyOp15
 70
     1
102
RTVSPropertyOp16
 70
     1
102
RTVSPropertyOp17
 70
     1
102
RTVSPropertyOp18
 70
     1
102
RTVSPropertyOp19
 70
     1
102
RTVSPropertyOp20
 70
     1
102
RTVSPropertyOp21
 70
     1
102
RTVSPropertyOp22
 70
     1
102
RTVSPropertyOp23
 70
     1
102
RTVSPropertyOp24
 70
     1
102
RTVSPropertyOp25
 70
     1
102
RTVSPropertyOp26
 70
     1
102
RTVSPropertyOp27
 70
     1
102
RTVSPropertyOp28
 70
     1
102
RTVSPropertyOp29
 70
     1
102
RTVSPropertyOp30
 70
     1
102
RTVSPropertyOp31
 70
     1
102
RTVSPropertyOp32
 70
     1
  0
XRECORD
  5
3CA
102
{ACAD_REACTORS
330
3C9
102
}
330
3C9
100
AcDbXrecord
280
     1
102
RTVSPropertyOp0
 70
     1
102
RTVSPropertyOp1
 70
     1
102
RTVSPropertyOp2
 70
     1
102
RTVSPropertyOp3
 70
     1
102
RTVSPropertyOp4
 70
     1
102
RTVSPropertyOp5
 70
     1
102
RTVSPropertyOp6
 70
     1
102
RTVSPropertyOp7
 70
     1
102
RTVSPropertyOp8
 70
     1
102
RTVSPropertyOp9
 70
     1
102
RTVSPropertyOp10
 70
     1
102
RTVSPropertyOp11
 70
     1
102
RTVSPropertyOp12
 70
     1
102
RTVSPropertyOp13
 70
     1
102
RTVSPropertyOp14
 70
     1
102
RTVSPropertyOp15
 70
     1
102
RTVSPropertyOp16
 70
     1
102
RTVSPropertyOp17
 70
     1
102
RTVSPropertyOp18
 70
     1
102
RTVSPropertyOp19
 70
     1
102
RTVSPropertyOp20
 70
     1
102
RTVSPropertyOp21
 70
     1
102
RTVSPropertyOp22
 70
     1
102
RTVSPropertyOp23
 70
     1
102
RTVSPropertyOp24
 70
     1
102
RTVSPropertyOp25
 70
     1
102
RTVSPropertyOp26
 70
     1
102
RTVSPropertyOp27
 70
     1
102
RTVSPropertyOp28
 70
     1
102
RTVSPropertyOp29
 70
     1
102
RTVSPropertyOp30
 70
     1
102
RTVSPropertyOp31
 70
     1
102
RTVSPropertyOp32
 70
     1
  0
ENDSEC
  0
EOF
