  0
SECTION
  2
HEADER
  9
$ACADVER
  1
AC1015
  9
$ACADMAINTVER
 70
     6
  9
$DWGCODEPAGE
  3
ANSI_1252
  9
$INSBASE
 10
0.0
 20
0.0
 30
0.0
  9
$EXTMIN
 10
0.0
 20
0.0
 30
0.0
  9
$EXTMAX
 10
210.0
 20
297.0
 30
0.0
  9
$LIMMIN
 10
0.0
 20
0.0
  9
$LIMMAX
 10
0.0
 20
0.0
  9
$ORTHOMODE
 70
     0
  9
$REGENMODE
 70
     1
  9
$FILLMODE
 70
     1
  9
$QTEXTMODE
 70
     0
  9
$MIRRTEXT
 70
     1
  9
$LTSCALE
 40
1.0
  9
$ATTMODE
 70
     1
  9
$TEXTSIZE
 40
0.0
  9
$TRACEWID
 40
0.05
  9
$TEXTSTYLE
  7
STANDARD
  9
$CLAYER
  8
0
  9
$CELTYPE
  6
CONTINUOUS
  9
$CECOLOR
 62
   256
  9
$CELTSCALE
 40
1.0
  9
$DISPSILH
 70
     0
  9
$DIMSCALE
 40
1.0
  9
$DIMASZ
 40
0.0
  9
$DIMEXO
 40
0.0
  9
$DIMDLI
 40
0.38
  9
$DIMRND
 40
0.0
  9
$DIMDLE
 40
1000.0
  9
$DIMEXE
 40
0.18
  9
$DIMTP
 40
0.0
  9
$DIMTM
 40
0.0
  9
$DIMTXT
 40
3.5
  9
$DIMCEN
 40
0.09
  9
$DIMTSZ
 40
0.0
  9
$DIMTOL
 70
     0
  9
$DIMLIM
 70
     0
  9
$DIMTIH
 70
     1
  9
$DIMTOH
 70
     1
  9
$DIMSE1
 70
     0
  9
$DIMSE2
 70
     0
  9
$DIMTAD
 70
     1
  9
$DIMZIN
 70
     0
  9
$DIMBLK
  1

  9
$DIMASO
 70
     1
  9
$DIMSHO
 70
     1
  9
$DIMPOST
  1

  9
$DIMAPOST
  1

  9
$DIMALT
 70
     0
  9
$DIMALTD
 70
     2
  9
$DIMALTF
 40
0.0394
  9
$DIMLFAC
 40
1.0
  9
$DIMTOFL
 70
     0
  9
$DIMTVP
 40
0.0
  9
$DIMTIX
 70
     0
  9
$DIMSOXD
 70
     0
  9
$DIMSAH
 70
     0
  9
$DIMBLK1
  1

  9
$DIMBLK2
  1

  9
$DIMSTYLE
  2
STANDARD
  9
$DIMCLRD
 70
     0
  9
$DIMCLRE
 70
     0
  9
$DIMCLRT
 70
     0
  9
$DIMTFAC
 40
1.0
  9
$DIMGAP
 40
0.0
  9
$DIMJUST
 70
     0
  9
$DIMSD1
 70
     0
  9
$DIMSD2
 70
     0
  9
$DIMTOLJ
 70
     1
  9
$DIMTZIN
 70
     0
  9
$DIMALTZ
 70
     0
  9
$DIMALTTZ
 70
     0
  9
$DIMUPT
 70
     0
  9
$DIMDEC
 70
     4
  9
$DIMTDEC
 70
     4
  9
$DIMALTU
 70
     2
  9
$DIMALTTD
 70
     2
  9
$DIMTXSTY
  7
STANDARD
  9
$DIMAUNIT
 70
     0
  9
$DIMADEC
 70
     0
  9
$DIMALTRND
 40
0.0
  9
$DIMAZIN
 70
     0
  9
$DIMDSEP
 70
    46
  9
$DIMATFIT
 70
     3
  9
$DIMFRAC
 70
     0
  9
$DIMLDRBLK
  1

  9
$DIMLUNIT
 70
     2
  9
$DIMLWD
 70
    -2
  9
$DIMLWE
 70
    -2
  9
$DIMTMOVE
 70
     2
  9
$LUNITS
 70
     2
  9
$LUPREC
 70
     2
  9
$SKETCHINC
 40
0.1
  9
$FILLETRAD
 40
0.0
  9
$AUNITS
 70
     0
  9
$AUPREC
 70
     2
  9
$MENU
  1
acad
  9
$ELEVATION
 40
0.0
  9
$PELEVATION
 40
0.0
  9
$THICKNESS
 40
0.0
  9
$LIMCHECK
 70
     0
  9
$CHAMFERA
 40
0.0
  9
$CHAMFERB
 40
0.0
  9
$CHAMFERC
 40
0.0
  9
$CHAMFERD
 40
0.0
  9
$SKPOLY
 70
     0
  9
$TDCREATE
 40
2447893.0
  9
$TDUCREATE
 40
2447892.916666667
  9
$TDUPDATE
 40
2458327.548787928
  9
$TDUUPDATE
 40
2458327.465454595
  9
$TDINDWG
 40
0.0
  9
$TDUSRTIMER
 40
0.0
  9
$USRTIMER
 70
     1
  9
$ANGBASE
 50
0.0
  9
$ANGDIR
 70
     0
  9
$PDMODE
 70
     0
  9
$PDSIZE
 40
-1.0
  9
$PLINEWID
 40
0.0
  9
$SPLFRAME
 70
     0
  9
$SPLINETYPE
 70
     6
  9
$SPLINESEGS
 70
     8
  9
$HANDSEED
  5
3E3
  9
$SURFTAB1
 70
     6
  9
$SURFTAB2
 70
     6
  9
$SURFTYPE
 70
     6
  9
$SURFU
 70
     6
  9
$SURFV
 70
     6
  9
$UCSBASE
  2

  9
$UCSNAME
  2

  9
$UCSORG
 10
0.0
 20
0.0
 30
0.0
  9
$UCSXDIR
 10
1.0
 20
0.0
 30
0.0
  9
$UCSYDIR
 10
0.0
 20
1.0
 30
0.0
  9
$UCSORTHOREF
  2

  9
$UCSORTHOVIEW
 70
     0
  9
$UCSORGTOP
 10
0.0
 20
0.0
 30
0.0
  9
$UCSORGBOTTOM
 10
0.0
 20
0.0
 30
0.0
  9
$UCSORGLEFT
 10
0.0
 20
0.0
 30
0.0
  9
$UCSORGRIGHT
 10
0.0
 20
0.0
 30
0.0
  9
$UCSORGFRONT
 10
0.0
 20
0.0
 30
0.0
  9
$UCSORGBACK
 10
0.0
 20
0.0
 30
0.0
  9
$PUCSBASE
  2

  9
$PUCSNAME
  2

  9
$PUCSORG
 10
0.0
 20
0.0
 30
0.0
  9
$PUCSXDIR
 10
1.0
 20
0.0
 30
0.0
  9
$PUCSYDIR
 10
0.0
 20
1.0
 30
0.0
  9
$PUCSORTHOREF
  2

  9
$PUCSORTHOVIEW
 70
     0
  9
$PUCSORGTOP
 10
0.0
 20
0.0
 30
0.0
  9
$PUCSORGBOTTOM
 10
0.0
 20
0.0
 30
0.0
  9
$PUCSORGLEFT
 10
0.0
 20
0.0
 30
0.0
  9
$PUCSORGRIGHT
 10
0.0
 20
0.0
 30
0.0
  9
$PUCSORGFRONT
 10
0.0
 20
0.0
 30
0.0
  9
$PUCSORGBACK
 10
0.0
 20
0.0
 30
0.0
  9
$USERI1
 70
     0
  9
$USERI2
 70
     0
  9
$USERI3
 70
     0
  9
$USERI4
 70
     0
  9
$USERI5
 70
     0
  9
$USERR1
 40
0.0
  9
$USERR2
 40
0.0
  9
$USERR3
 40
0.0
  9
$USERR4
 40
0.0
  9
$USERR5
 40
0.0
  9
$WORLDVIEW
 70
     1
  9
$SHADEDGE
 70
     3
  9
$SHADEDIF
 70
    70
  9
$TILEMODE
 70
     1
  9
$MAXACTVP
 70
    16
  9
$PINSBASE
 10
0.0
 20
0.0
 30
0.0
  9
$PLIMCHECK
 70
     0
  9
$PEXTMIN
 10
1.000000000000000E+20
 20
1.000000000000000E+20
 30
1.000000000000000E+20
  9
$PEXTMAX
 10
-1.000000000000000E+20
 20
-1.000000000000000E+20
 30
-1.000000000000000E+20
  9
$PLIMMIN
 10
0.0
 20
0.0
  9
$PLIMMAX
 10
12.0
 20
9.0
  9
$UNITMODE
 70
     0
  9
$VISRETAIN
 70
     0
  9
$PLINEGEN
 70
     1
  9
$PSLTSCALE
 70
     1
  9
$TREEDEPTH
 70
  3020
  9
$CMLSTYLE
  2
STANDARD
  9
$CMLJUST
 70
     0
  9
$CMLSCALE
 40
1.0
  9
$PROXYGRAPHICS
 70
     1
  9
$MEASUREMENT
 70
     0
  9
$CELWEIGHT
370
    -1
  9
$ENDCAPS
280
     0
  9
$JOINSTYLE
280
     0
  9
$LWDISPLAY
290
     0
  9
$INSUNITS
 70
     0
  9
$HYPERLINKBASE
  1

  9
$STYLESHEET
  1

  9
$XEDIT
290
     1
  9
$CEPSNTYPE
380
     0
  9
$PSTYLEMODE
290
     1
  9
$FINGERPRINTGUID
  2
{77718791-5E18-440A-A94C-914805791C04}
  9
$VERSIONGUID
  2
{FAEB1C32-E019-11D5-929B-00C0DF256EC4}
  9
$EXTNAMES
290
     1
  9
$PSVPSCALE
 40
0.0
  9
$OLESTARTUP
290
     0
  0
ENDSEC
  0
SECTION
  2
CLASSES
  0
CLASS
  1
LWPOLYLINE
  2
AcDbPolyline
  3
ObjectDBX Classes
 90
        0
280
     0
281
     1
  0
CLASS
  1
IMAGE
  2
AcDbRasterImage
  3
ISM
 90
      127
280
     0
281
     1
  0
CLASS
  1
OLE2FRAME
  2
AcDbOle2Frame
  3
ObjectDBX Classes
 90
        0
280
     0
281
     1
  0
CLASS
  1
HATCH
  2
AcDbHatch
  3
ObjectDBX Classes
 90
        0
280
     0
281
     1
  0
CLASS
  1
DICTIONARYVAR
  2
AcDbDictionaryVar
  3
ObjectDBX Classes
 90
        0
280
     0
281
     0
  0
CLASS
  1
RASTERVARIABLES
  2
AcDbRasterVariables
  3
ISM
 90
        0
280
     0
281
     0
  0
CLASS
  1
IMAGEDEF
  2
AcDbRasterImageDef
  3
ISM
 90
        0
280
     0
281
     0
  0
CLASS
  1
IMAGEDEF_REACTOR
  2
AcDbRasterImageDefReactor
  3
ISM
 90
        1
280
     0
281
     0
  0
CLASS
  1
IDBUFFER
  2
AcDbIdBuffer
  3
ObjectDBX Classes
 90
        0
280
     0
281
     0
  0
CLASS
  1
SPATIAL_FILTER
  2
AcDbSpatialFilter
  3
ObjectDBX Classes
 90
        0
280
     0
281
     0
  0
CLASS
  1
XRECORD
  2
AcDbXrecord
  3
ObjectDBX Classes
 90
        0
280
     0
281
     0
  0
CLASS
  1
SORTENTSTABLE
  2
AcDbSortentsTable
  3
ObjectDBX Classes
 90
        0
280
     0
281
     0
  0
CLASS
  1
LAYER_INDEX
  2
AcDbLayerIndex
  3
ObjectDBX Classes
 90
        0
280
     0
281
     0
  0
CLASS
  1
SPATIAL_INDEX
  2
AcDbSpatialIndex
  3
AutoCAD 2000
 90
        0
280
     0
281
     0
  0
CLASS
  1
OBJECT_PTR
  2
CAseDLPNTableRecord
  3
ASE-LPNTableRecord
 90
        1
280
     0
281
     0
  0
CLASS
  1
LAYOUT
  2
AcDbLayout
  3
ObjectDBX Classes
 90
        0
280
     0
281
     0
  0
CLASS
  1
PLOTSETTINGS
  2
AcDbPlotSettings
  3
ObjectDBX Classes
 90
        0
280
     0
281
     0
  0
CLASS
  1
ACDBDICTIONARYWDFLT
  2
AcDbDictionaryWithDefault
  3
ObjectDBX Classes
 90
        0
280
     0
281
     0
  0
CLASS
  1
ACDBPLACEHOLDER
  2
AcDbPlaceHolder
  3
ObjectDBX Classes
 90
        0
280
     0
281
     0
  0
CLASS
  1
VBA_PROJECT
  2
AcDbVbaProject
  3
ObjectDBX Classes
 90
        0
280
     0
281
     0
  0
CLASS
  1
WIPEOUT
  2
AcDbWipeout
  3
WipeOut|AutoCAD Express Tool|expresstools@autodesk.com
 90
      127
280
     0
281
     1
  0
CLASS
  1
WIPEOUTVARIABLES
  2
AcDbWipeoutVariables
  3
WipeOut|AutoCAD Express Tool|expresstools@autodesk.com
 90
        0
280
     0
281
     0
  0
CLASS
  1
RTEXT
  2
RText
  3
RText|AutoCAD Express Tool|expresstools@autodesk.com
 90
        0
280
     0
281
     1
  0
CLASS
  1
ARCALIGNEDTEXT
  2
AcDbArcAlignedText
  3
ATEXT|AutoCAD Express Tool|expresstools@autodesk.com
 90
        0
280
     0
281
     1
  0
CLASS
  1
SCALE
  2
AcDbScale
  3
ObjectDBX Classes
 90
     1153
280
     0
281
     0
  0
CLASS
  1
VISUALSTYLE
  2
AcDbVisualStyle
  3
ObjectDBX Classes
 90
     4095
280
     0
281
     0
  0
CLASS
  1
MATERIAL
  2
AcDbMaterial
  3
ObjectDBX Classes
 90
     1153
280
     0
281
     0
  0
ENDSEC
  0
SECTION
  2
TABLES
  0
TABLE
  2
VPORT
  5
7
102
{ACAD_XDICTIONARY
360
3A8
102
}
330
0
100
AcDbSymbolTable
 70
     1
  0
VPORT
  5
15
330
7
100
AcDbSymbolTableRecord
100
AcDbViewportTableRecord
  2
*ACTIVE
 70
     0
 10
0.0
 20
0.0
 11
1.0
 21
1.0
 12
105.0
 22
148.5
 13
0.0
 23
0.0
 14
1.0
 24
1.0
 15
0.0
 25
0.0
 16
0.0
 26
0.0
 36
1.0
 17
0.0
 27
0.0
 37
0.0
 40
297.0
 41
1.4142857143
 42
50.0
 43
0.0
 44
0.0
 50
0.0
 51
0.0
 71
     0
 72
  2000
 73
     1
 74
     1
 75
     0
 76
     0
 77
     0
 78
     0
281
     0
 65
     1
110
0.0
120
0.0
130
0.0
111
1.0
121
0.0
131
0.0
112
0.0
122
1.0
132
0.0
 79
     0
146
0.0
  0
ENDTAB
  0
TABLE
  2
LTYPE
  5
4
330
0
100
AcDbSymbolTable
 70
     6
  0
LTYPE
  5
11
330
4
100
AcDbSymbolTableRecord
100
AcDbLinetypeTableRecord
  2
BYBLOCK
 70
     0
  3

 72
    65
 73
     0
 40
0.0
  0
LTYPE
  5
12
330
4
100
AcDbSymbolTableRecord
100
AcDbLinetypeTableRecord
  2
BYLAYER
 70
     0
  3

 72
    65
 73
     0
 40
0.0
  0
LTYPE
  5
13
330
4
100
AcDbSymbolTableRecord
100
AcDbLinetypeTableRecord
  2
CONTINUOUS
 70
     0
  3
Solid line
 72
    65
 73
     0
 40
0.0
  0
LTYPE
  5
1D
330
4
100
AcDbSymbolTableRecord
100
AcDbLinetypeTableRecord
  2
HIDDEN
 70
     0
  3
Hidden __ __ __ __ __ __ __ __ __ __ __ __ __ __
 72
    65
 73
     2
 40
1.905
 49
1.27
 74
     0
 49
-0.635
 74
     0
  0
LTYPE
  5
1E
330
4
100
AcDbSymbolTableRecord
100
AcDbLinetypeTableRecord
  2
PHANTOM
 70
     0
  3
Phantom ______  __  __  ______  __  __  ______
 72
    65
 73
     6
 40
12.7
 49
6.35
 74
     0
 49
-1.27
 74
     0
 49
1.27
 74
     0
 49
-1.27
 74
     0
 49
1.27
 74
     0
 49
-1.27
 74
     0
  0
LTYPE
  5
1F
330
4
100
AcDbSymbolTableRecord
100
AcDbLinetypeTableRecord
  2
CENTER
 70
     0
  3
Center ____ _ ____ _ ____ _ ____ _ ____ _ ____
 72
    65
 73
     4
 40
10.16
 49
6.35
 74
     0
 49
-1.27
 74
     0
 49
1.27
 74
     0
 49
-1.27
 74
     0
  0
LTYPE
  5
20
330
4
100
AcDbSymbolTableRecord
100
AcDbLinetypeTableRecord
  2
CENTERX2
 70
     0
  3
Center (2x) ________  __  ________  __  _____
 72
    65
 73
     4
 40
20.32
 49
12.7
 74
     0
 49
-2.54
 74
     0
 49
2.54
 74
     0
 49
-2.54
 74
     0
  0
LTYPE
  5
21
330
4
100
AcDbSymbolTableRecord
100
AcDbLinetypeTableRecord
  2
DOT2
 70
     0
  3
Dot (.5x) ........................................
 72
    65
 73
     2
 40
0.635
 49
0.0
 74
     0
 49
-0.635
 74
     0
  0
LTYPE
  5
3D2
330
5
100
AcDbSymbolTableRecord
100
AcDbLinetypeTableRecord
  2
DASH
 70
     0
  3
DASH _ _ _ _ _
 72
    65
 73
     2
 40
0.75
 49
0.40
 74
     0
 49
-0.35
 74
     0
  0
LTYPE
  5
3D3
330
5
100
AcDbSymbolTableRecord
100
AcDbLinetypeTableRecord
  2
LONGDASH_DASH
 70
     0
  3
LONGDASH_DASH __ . __ . __
 72
    65
 73
     4
 40
0.85
 49
0.40
 74
     0
 49
-0.20
 74
     0
 49
0.05
 74
     0
 49
-0.20
 74
     0
  0
LTYPE
  5
3D4
330
5
100
AcDbSymbolTableRecord
100
AcDbLinetypeTableRecord
  2
LONGDASH_DASH_DASH
 70
     0
  3
LONGDASH_DASH_DASH __ . . __ . . __
 72
    65
 73
     6
 40
1.10
 49
0.40
 74
     0
 49
-0.20
 74
     0
 49
0.05
 74
     0
 49
-0.20
 74
     0
 49
0.05
 74
     0
 49
-0.20
 74
     0
  0
ENDTAB
  0
TABLE
  2
LAYER
  5
2
330
0
100
AcDbSymbolTable
 70
     8
  0
LAYER
  5
23
330
2
100
AcDbSymbolTableRecord
100
AcDbLayerTableRecord
  2
DEFPOINTS
 70
     0
 62
     7
  6
CONTINUOUS
290
     0
370
    -3
390
0
  0
LAYER
  5
3D5
330
2
100
AcDbSymbolTableRecord
100
AcDbLayerTableRecord
  2
0
 70
     0
 62
     -1
  6
CONTINUOUS
370
    -3
390
F
  0
LAYER
  5
3D6
330
2
100
AcDbSymbolTableRecord
100
AcDbLayerTableRecord
  2
1
 70
     0
 62
     4
  6
CONTINUOUS
370
    50
390
F
  0
LAYER
  5
3D7
330
2
100
AcDbSymbolTableRecord
100
AcDbLayerTableRecord
  2
2
 70
     0
 62
     7
  6
CONTINUOUS
370
    25
390
F
  0
LAYER
  5
3D8
330
2
100
AcDbSymbolTableRecord
100
AcDbLayerTableRecord
  2
3
 70
     0
 62
     1
  6
DASH
370
    35
390
F
  0
LAYER
  5
3D9
330
2
100
AcDbSymbolTableRecord
100
AcDbLayerTableRecord
  2
4
 70
     0
 62
     2
  6
LONGDASH_DASH
370
    25
390
F
  0
LAYER
  5
3DA
330
2
100
AcDbSymbolTableRecord
100
AcDbLayerTableRecord
  2
6
 70
     0
 62
     5
  6
CONTINUOUS
370
    -3
390
F
  0
LAYER
  5
3DB
330
2
100
AcDbSymbolTableRecord
100
AcDbLayerTableRecord
  2
CUT
 70
     0
 62
     1
  6
CONTINUOUS
370
    25
390
F
  0
LAYER
  5
3DC
330
2
100
AcDbSymbolTableRecord
100
AcDbLayerTableRecord
  2
NOCUT
 70
     0
 62
     7
  6
CONTINUOUS
370
    25
390
F
  0
LAYER
  5
3DD
330
2
100
AcDbSymbolTableRecord
100
AcDbLayerTableRecord
  2
SK1
 70
     0
 62
     4
  6
CONTINUOUS
370
    50
390
F
  0
LAYER
  5
3DE
330
2
100
AcDbSymbolTableRecord
100
AcDbLayerTableRecord
  2
SK2
 70
     0
 62
     7
  6
CONTINUOUS
370
    25
390
F
  0
LAYER
  5
3DF
330
2
100
AcDbSymbolTableRecord
100
AcDbLayerTableRecord
  2
SK3
 70
     0
 62
     1
  6
DASH
370
    35
390
F
  0
LAYER
  5
3E0
330
2
100
AcDbSymbolTableRecord
100
AcDbLayerTableRecord
  2
SK4
 70
     0
 62
     2
  6
LONGDASH_DASH
370
    25
390
F
  0
LAYER
  5
3E1
330
2
100
AcDbSymbolTableRecord
100
AcDbLayerTableRecord
  2
SK6
 70
     0
 62
     5
  6
CONTINUOUS
370
    -3
390
F
  0
LAYER
  5
3E2
330
2
100
AcDbSymbolTableRecord
100
AcDbLayerTableRecord
  2
INFTOTAL
 70
     0
 62
     9
  6
CONTINUOUS
370
    18
390
F
  0
ENDTAB
  0
TABLE
  2
STYLE
  5
3
330
0
100
AcDbSymbolTable
 70
     2
  0
STYLE
  5
17
330
3
100
AcDbSymbolTableRecord
100
AcDbTextStyleTableRecord
  2
STANDARD
 70
     0
 40
0.0
 41
1.0
 50
0.0
 71
     0
 42
0.2
  3
txt
  4

  0
STYLE
  5
3A0
330
3
100
AcDbSymbolTableRecord
100
AcDbTextStyleTableRecord
  2
BMG_Text
 70
     0
 40
3.5
 41
1.0
 50
0.0
 71
     0
 42
0.0
  3
monos.ttf
  4

1001
ACAD
1000
Monospac821 BT
1071
       49
  0
ENDTAB
  0
TABLE
  2
VIEW
  5
5
330
0
100
AcDbSymbolTable
 70
     0
  0
ENDTAB
  0
TABLE
  2
UCS
  5
6
330
0
100
AcDbSymbolTable
 70
     0
  0
ENDTAB
  0
TABLE
  2
APPID
  5
8
330
0
100
AcDbSymbolTable
 70
     1
  0
APPID
  5
16
330
8
100
AcDbSymbolTableRecord
100
AcDbRegAppTableRecord
  2
ACAD
 70
     0
  0
ENDTAB
  0
TABLE
  2
DIMSTYLE
  5
9
330
0
100
AcDbSymbolTable
 70
     1
100
AcDbDimStyleTable
  0
DIMSTYLE
105
18
330
9
100
AcDbSymbolTableRecord
100
AcDbDimStyleTableRecord
  2
STANDARD
 70
     0
178
     0
340
17
  0
ENDTAB
  0
TABLE
  2
BLOCK_RECORD
  5
1
330
0
100
AcDbSymbolTable
 70
     0
  0
BLOCK_RECORD
  5
A
330
1
100
AcDbSymbolTableRecord
100
AcDbBlockTableRecord
  2
*MODEL_SPACE
340
389
  0
BLOCK_RECORD
  5
B
330
1
100
AcDbSymbolTableRecord
100
AcDbBlockTableRecord
  2
*PAPER_SPACE
340
38A
  0
ENDTAB
  0
ENDSEC
  0
SECTION
  2
BLOCKS
  0
BLOCK
  5
D
330
A
100
AcDbEntity
  8
0
100
AcDbBlockBegin
  2
*MODEL_SPACE
 70
     0
 10
0.0
 20
0.0
 30
0.0
  3
*MODEL_SPACE
  1

  0
ENDBLK
  5
E
330
A
100
AcDbEntity
  8
0
100
AcDbBlockEnd
  0
BLOCK
  5
F
330
B
100
AcDbEntity
 67
     1
  8
0
100
AcDbBlockBegin
  2
*PAPER_SPACE
 70
     0
 10
0.0
 20
0.0
 30
0.0
  3
*PAPER_SPACE
  1

  0
ENDBLK
  5
10
330
B
100
AcDbEntity
 67
     1
  8
0
100
AcDbBlockEnd
  0
ENDSEC
  0
SECTION
  2
ENTITIES
  0
ARC
  5
29
330
A
100
AcDbEntity
  8
1
  6
CONTINUOUS
370
    50
100
AcDbCircle
 10
116.492432616
 20
134.8905329167
 30
0.0
 40
0.5
100
AcDbArc
 50
66.4218215218
 51
90.0
  0
ARC
  5
2A
330
A
100
AcDbEntity
  8
1
  6
CONTINUOUS
370
    50
100
AcDbCircle
 10
116.492432616
 20
205.1405329167
 30
0.0
 40
0.5
100
AcDbArc
 50
270.0
 51
293.5781784782001
  0
LINE
  5
2B
330
A
100
AcDbEntity
  8
1
  6
CONTINUOUS
370
    50
100
AcDbLine
 10
115.192432616
 20
204.9405329167
 30
0.0
 11
15.4457726801
 21
190.3941450094
 31
0.0
  0
LINE
  5
2C
330
A
100
AcDbEntity
  8
1
  6
CONTINUOUS
370
    50
100
AcDbLine
 10
15.4457726801
 20
149.636920824
 30
0.0
 11
115.192432616
 21
135.0905329167
 31
0.0
  0
LINE
  5
2D
330
A
100
AcDbEntity
  8
1
  6
CONTINUOUS
370
    50
100
AcDbLine
 10
115.192432616
 20
135.0905329167
 30
0.0
 11
115.7353228926
 21
135.3436868102
 31
0.0
  0
LINE
  5
2E
330
A
100
AcDbEntity
  8
1
  6
CONTINUOUS
370
    50
100
AcDbLine
 10
115.7353228926
 20
204.6873790232
 30
0.0
 11
115.192432616
 21
204.9405329167
 31
0.0
  0
ARC
  5
2F
330
A
100
AcDbEntity
  8
1
  6
CONTINUOUS
370
    50
100
AcDbCircle
 10
115.9466320235
 20
134.8905329167
 30
0.0
 40
0.5
100
AcDbArc
 50
90.0
 51
115.0
  0
ARC
  5
30
330
A
100
AcDbEntity
  8
1
  6
CONTINUOUS
370
    50
100
AcDbCircle
 10
115.9466320235
 20
205.1405329167
 30
0.0
 40
0.5
100
AcDbArc
 50
245.0
 51
270.0
  0
LINE
  5
31
330
A
100
AcDbEntity
  8
1
  6
CONTINUOUS
370
    50
100
AcDbLine
 10
115.9466320235
 20
135.3905329167
 30
0.0
 11
116.492432616
 21
135.3905329167
 31
0.0
  0
LINE
  5
32
330
A
100
AcDbEntity
  8
1
  6
CONTINUOUS
370
    50
100
AcDbLine
 10
116.492432616
 20
204.6405329167
 30
0.0
 11
115.9466320235
 21
204.6405329167
 31
0.0
  0
ARC
  5
33
330
A
100
AcDbEntity
  8
1
  6
CONTINUOUS
370
    50
100
AcDbCircle
 10
139.242432616
 20
148.0655329167
 30
0.0
 40
5.0
100
AcDbArc
 50
81.890385544
 51
180.0
  0
ARC
  5
34
330
A
100
AcDbEntity
  8
1
  6
CONTINUOUS
370
    50
100
AcDbCircle
 10
139.242432616
 20
191.9655329167
 30
0.0
 40
5.0
100
AcDbArc
 50
180.0
 51
278.109614456
  0
ARC
  5
35
330
A
100
AcDbEntity
  8
1
  6
CONTINUOUS
370
    50
100
AcDbCircle
 10
15.842432616
 20
151.8528744903
 30
0.0
 40
2.25
100
AcDbArc
 50
180.0
 51
258.0
  0
ARC
  5
36
330
A
100
AcDbEntity
  8
1
  6
CONTINUOUS
370
    50
100
AcDbCircle
 10
15.842432616
 20
188.1781913431
 30
0.0
 40
2.25
100
AcDbArc
 50
102.0
 51
180.0
  0
LINE
  5
37
330
A
100
AcDbEntity
  8
1
  6
CONTINUOUS
370
    50
100
AcDbLine
 10
150.7207160394
 20
153.0155329167
 30
0.0
 11
194.159304512
 21
156.4342239715
 31
0.0
  0
LINE
  5
38
330
A
100
AcDbEntity
  8
1
  6
CONTINUOUS
370
    50
100
AcDbLine
 10
194.159304512
 20
183.5968418618
 30
0.0
 11
150.7207160394
 21
187.0155329167
 31
0.0
  0
LINE
  5
39
330
A
100
AcDbEntity
  8
1
  6
CONTINUOUS
370
    50
100
AcDbLine
 10
139.947769415
 20
153.0155329167
 30
0.0
 11
150.7207160394
 21
153.0155329167
 31
0.0
  0
LINE
  5
3A
330
A
100
AcDbEntity
  8
1
  6
CONTINUOUS
370
    50
100
AcDbLine
 10
150.7207160394
 20
187.0155329167
 30
0.0
 11
139.947769415
 21
187.0155329167
 31
0.0
  0
ARC
  5
3B
330
A
100
AcDbEntity
  8
1
  6
CONTINUOUS
370
    50
100
AcDbCircle
 10
193.192432616
 20
158.1849834458
 30
0.0
 40
2.0
100
AcDbArc
 50
298.9100507073
 51
0.0
  0
ARC
  5
3C
330
A
100
AcDbEntity
  8
1
  6
CONTINUOUS
370
    50
100
AcDbCircle
 10
193.192432616
 20
181.8460823876
 30
0.0
 40
2.0
100
AcDbArc
 50
0.0
 51
61.08994929269999
  0
LINE
  5
3D
330
A
100
AcDbEntity
  8
1
  6
CONTINUOUS
370
    50
100
AcDbLine
 10
116.692432616
 20
124.1990716282
 30
0.0
 11
116.692432616
 21
199.8655329167
 31
0.0
  0
LINE
  5
3E
330
A
100
AcDbEntity
  8
1
  6
CONTINUOUS
370
    50
100
AcDbLine
 10
116.692432616
 20
199.8655329167
 30
0.0
 11
117.192432616
 21
199.8655329167
 31
0.0
  0
LINE
  5
3F
330
A
100
AcDbEntity
  8
1
  6
CONTINUOUS
370
    50
100
AcDbLine
 10
117.192432616
 20
199.8655329167
 30
0.0
 11
117.192432616
 21
123.5136713948
 31
0.0
  0
LINE
  5
40
330
A
100
AcDbEntity
  8
1
  6
CONTINUOUS
370
    50
100
AcDbLine
 10
117.192432616
 20
123.5136713948
 30
0.0
 11
116.692432616
 21
124.1990716282
 31
0.0
  0
LINE
  5
41
330
A
100
AcDbEntity
  8
1
  6
CONTINUOUS
370
    50
100
AcDbLine
 10
128.217432616
 20
199.8655329167
 30
0.0
 11
128.217432616
 21
125.368757438
 31
0.0
  0
LINE
  5
42
330
A
100
AcDbEntity
  8
1
  6
CONTINUOUS
370
    50
100
AcDbLine
 10
129.5255941234
 20
199.8655329167
 30
0.0
 11
128.217432616
 21
199.8655329167
 31
0.0
  0
LINE
  5
43
330
A
100
AcDbEntity
  8
1
  6
CONTINUOUS
370
    50
100
AcDbLine
 10
129.5255941234
 20
199.8655329167
 30
0.0
 11
129.5255941234
 21
123.2561956145
 31
0.0
  0
LINE
  5
44
330
A
100
AcDbEntity
  8
1
  6
CONTINUOUS
370
    50
100
AcDbLine
 10
128.9186747094
 20
124.1061956167
 30
0.0
 11
129.5255941234
 21
123.2561956145
 31
0.0
  0
LINE
  5
45
330
A
100
AcDbEntity
  8
1
  6
CONTINUOUS
370
    50
100
AcDbLine
 10
128.217432616
 20
125.368757438
 30
0.0
 11
128.9186747094
 21
124.1061956167
 31
0.0
  0
LINE
  5
46
330
A
100
AcDbEntity
  8
1
  6
CONTINUOUS
370
    50
100
AcDbLine
 10
133.742432616
 20
123.2561956145
 30
0.0
 11
133.742432616
 21
199.8655329167
 31
0.0
  0
LINE
  5
47
330
A
100
AcDbEntity
  8
1
  6
CONTINUOUS
370
    50
100
AcDbLine
 10
133.742432616
 20
199.8655329167
 30
0.0
 11
134.242432616
 21
199.8655329167
 31
0.0
  0
LINE
  5
48
330
A
100
AcDbEntity
  8
1
  6
CONTINUOUS
370
    50
100
AcDbLine
 10
134.242432616
 20
199.8655329167
 30
0.0
 11
134.242432616
 21
123.6597789248
 31
0.0
  0
LINE
  5
49
330
A
100
AcDbEntity
  8
1
  6
CONTINUOUS
370
    50
100
AcDbLine
 10
134.242432616
 20
123.6597789248
 30
0.0
 11
133.742432616
 21
123.2561956145
 31
0.0
  0
LINE
  5
4A
330
A
100
AcDbEntity
  8
1
  6
CONTINUOUS
370
    50
100
AcDbLine
 10
124.367432616
 20
199.8655329167
 30
0.0
 11
123.0592711085
 21
199.8655329167
 31
0.0
  0
LINE
  5
4B
330
A
100
AcDbEntity
  8
1
  6
CONTINUOUS
370
    50
100
AcDbLine
 10
124.367432616
 20
125.368757438
 30
0.0
 11
124.367432616
 21
199.8655329167
 31
0.0
  0
LWPOLYLINE
  5
4C
330
A
100
AcDbEntity
  8
1
  6
CONTINUOUS
370
    50
100
AcDbPolyline
 90
        3
 70
   128
 43
0.0
 10
123.6661905225
 20
124.1061956167
 10
123.7135026869
 20
124.1912979262
 10
124.367432616
 20
125.368757438
  0
LINE
  5
51
330
A
100
AcDbEntity
  8
1
  6
CONTINUOUS
370
    50
100
AcDbLine
 10
123.0592711085
 20
123.2561956145
 30
0.0
 11
123.6661905225
 21
124.1061956167
 31
0.0
  0
LINE
  5
52
330
A
100
AcDbEntity
  8
1
  6
CONTINUOUS
370
    50
100
AcDbLine
 10
123.0592711085
 20
123.2561956145
 30
0.0
 11
123.0592711085
 21
199.8655329167
 31
0.0
  0
LINE
  5
53
330
A
100
AcDbEntity
  8
1
  6
CONTINUOUS
370
    50
100
AcDbLine
 10
133.742432616
 20
199.8655329167
 30
0.0
 11
129.5255941234
 21
199.8655329167
 31
0.0
  0
LINE
  5
54
330
A
100
AcDbEntity
  8
1
  6
CONTINUOUS
370
    50
100
AcDbLine
 10
129.5255941234
 20
123.2561956145
 30
0.0
 11
133.742432616
 21
123.2561956145
 31
0.0
  0
LINE
  5
55
330
A
100
AcDbEntity
  8
1
  6
CONTINUOUS
370
    50
100
AcDbLine
 10
118.0424326138
 20
123.2561956145
 30
0.0
 11
123.0592711085
 21
123.2561956145
 31
0.0
  0
LINE
  5
56
330
A
100
AcDbEntity
  8
1
  6
CONTINUOUS
370
    50
100
AcDbLine
 10
117.192432616
 20
123.5136713948
 30
0.0
 11
118.0424326138
 21
123.2561956145
 31
0.0
  0
LINE
  5
57
330
A
100
AcDbEntity
  8
1
  6
CONTINUOUS
370
    50
100
AcDbLine
 10
123.0592711085
 20
199.8655329167
 30
0.0
 11
117.192432616
 21
199.8655329167
 31
0.0
  0
ARC
  5
58
330
A
100
AcDbEntity
  8
1
  6
CONTINUOUS
370
    50
100
AcDbCircle
 10
127.7075396901
 20
125.857849836
 30
0.0
 40
0.5100127724
100
AcDbArc
 50
358.7578664209
 51
88.8885406707
  0
LINE
  5
59
330
A
100
AcDbEntity
  8
1
  6
CONTINUOUS
370
    50
100
AcDbLine
 10
127.717432616
 20
199.8655329167
 30
0.0
 11
127.717432616
 21
126.3677666508
 31
0.0
  0
LINE
  5
5A
330
A
100
AcDbEntity
  8
1
  6
CONTINUOUS
370
    50
100
AcDbLine
 10
127.717432616
 20
199.8655329167
 30
0.0
 11
128.217432616
 21
199.8655329167
 31
0.0
  0
ARC
  5
5B
330
A
100
AcDbEntity
  8
1
  6
CONTINUOUS
370
    50
100
AcDbCircle
 10
124.8789141333
 20
125.8563251961
 30
0.0
 40
0.5115703146
100
AcDbArc
 50
91.28603577269999
 51
181.0675571357
  0
LINE
  5
5C
330
A
100
AcDbEntity
  8
1
  6
CONTINUOUS
370
    50
100
AcDbLine
 10
124.367432616
 20
199.8655329167
 30
0.0
 11
124.867432616
 21
199.8655329167
 31
0.0
  0
LINE
  5
5D
330
A
100
AcDbEntity
  8
1
  6
CONTINUOUS
370
    50
100
AcDbLine
 10
124.867432616
 20
199.8655329167
 30
0.0
 11
124.867432616
 21
126.3677666508
 31
0.0
  0
LINE
  5
5E
330
A
100
AcDbEntity
  8
1
  6
CONTINUOUS
370
    50
100
AcDbLine
 10
127.717432616
 20
126.3677666508
 30
0.0
 11
124.867432616
 21
126.3677666508
 31
0.0
  0
LINE
  5
5F
330
A
100
AcDbEntity
  8
1
  6
CONTINUOUS
370
    50
100
AcDbLine
 10
124.867432616
 20
199.8655329167
 30
0.0
 11
127.717432616
 21
199.8655329167
 31
0.0
  0
LINE
  5
60
330
A
100
AcDbEntity
  8
1
  6
CONTINUOUS
370
    50
100
AcDbLine
 10
15.4457726801
 20
190.3941450094
 30
0.0
 11
15.4457726801
 21
149.636920824
 31
0.0
  0
LINE
  5
61
330
A
100
AcDbEntity
  8
1
  6
CONTINUOUS
370
    50
100
AcDbLine
 10
115.192432616
 20
135.0905329167
 30
0.0
 11
115.192432616
 21
204.9405329167
 31
0.0
  0
LINE
  5
62
330
A
100
AcDbEntity
  8
1
  6
CONTINUOUS
370
    50
100
AcDbLine
 10
123.0592711085
 20
208.5266108684
 30
0.0
 11
124.367432616
 21
205.6165801013
 31
0.0
  0
LINE
  5
63
330
A
100
AcDbEntity
  8
1
  6
CONTINUOUS
370
    50
100
AcDbLine
 10
124.367432616
 20
205.0152114866
 30
0.0
 11
124.367432616
 21
205.6165801013
 31
0.0
  0
ARC
  5
64
330
A
100
AcDbEntity
  8
1
  6
CONTINUOUS
370
    50
100
AcDbCircle
 10
124.9641781614
 20
204.9480802681
 30
0.0
 40
0.6005096556
100
AcDbArc
 50
173.5814650334
 51
260.7289175414999
  0
LINE
  5
65
330
A
100
AcDbEntity
  8
1
  6
CONTINUOUS
370
    50
100
AcDbLine
 10
127.717432616
 20
204.3554149782
 30
0.0
 11
124.867432616
 21
204.3554149782
 31
0.0
  0
ARC
  5
66
330
A
100
AcDbEntity
  8
1
  6
CONTINUOUS
370
    50
100
AcDbCircle
 10
127.6523586934
 20
204.9240792145
 30
0.0
 40
0.5723754266
100
AcDbArc
 50
276.5281284849
 51
9.1614889402
  0
LINE
  5
67
330
A
100
AcDbEntity
  8
1
  6
CONTINUOUS
370
    50
100
AcDbLine
 10
128.217432616
 20
205.6165801013
 30
0.0
 11
128.217432616
 21
205.0152114866
 31
0.0
  0
LWPOLYLINE
  5
68
330
A
100
AcDbEntity
  8
1
  6
CONTINUOUS
370
    50
100
AcDbPolyline
 90
        3
 70
   128
 43
0.0
 10
128.217432616
 20
205.6165801013
 10
128.3057321663
 20
205.8159355143
 10
129.5255941234
 20
208.5266108684
  0
LINE
  5
6D
330
A
100
AcDbEntity
  8
1
  6
CONTINUOUS
370
    50
100
AcDbLine
 10
129.5255941234
 20
208.5266108684
 30
0.0
 11
133.742432616
 21
208.5266108684
 31
0.0
  0
LINE
  5
6E
330
A
100
AcDbEntity
  8
1
  6
CONTINUOUS
370
    50
100
AcDbLine
 10
134.242432616
 20
207.8920180361
 30
0.0
 11
133.742432616
 21
208.5266108684
 31
0.0
  0
LINE
  5
6F
330
A
100
AcDbEntity
  8
1
  6
CONTINUOUS
370
    50
100
AcDbLine
 10
117.192432616
 20
208.5266108684
 30
0.0
 11
116.692432616
 21
207.8920180361
 31
0.0
  0
LINE
  5
70
330
A
100
AcDbEntity
  8
1
  6
CONTINUOUS
370
    50
100
AcDbLine
 10
117.192432616
 20
208.5266108684
 30
0.0
 11
123.0592711085
 21
208.5266108684
 31
0.0
  0
LINE
  5
71
330
A
100
AcDbEntity
  8
1
  6
CONTINUOUS
370
    50
100
AcDbLine
 10
116.692432616
 20
207.8920180361
 30
0.0
 11
116.692432616
 21
199.8655329167
 31
0.0
  0
LINE
  5
72
330
A
100
AcDbEntity
  8
1
  6
CONTINUOUS
370
    50
100
AcDbLine
 10
134.242432616
 20
207.8920180361
 30
0.0
 11
134.242432616
 21
199.8655329167
 31
0.0
  0
LINE
  5
73
330
A
100
AcDbEntity
  8
1
  6
CONTINUOUS
370
    50
100
AcDbLine
 10
127.717432616
 20
213.6632991826
 30
0.0
 11
127.717432616
 21
204.3554149782
 31
0.0
  0
LINE
  5
74
330
A
100
AcDbEntity
  8
1
  6
CONTINUOUS
370
    50
100
AcDbLine
 10
124.867432616
 20
213.6632991826
 30
0.0
 11
124.867432616
 21
204.3554149782
 31
0.0
  0
LINE
  5
75
330
A
100
AcDbEntity
  8
1
  6
CONTINUOUS
370
    50
100
AcDbLine
 10
127.717432616
 20
213.6632991826
 30
0.0
 11
124.867432616
 21
213.6632991826
 31
0.0
  0
ARC
  5
76
330
A
100
AcDbEntity
  8
1
  6
CONTINUOUS
370
    50
100
AcDbCircle
 10
127.7098734043
 20
214.170976231
 30
0.0
 40
0.5077333229
100
AcDbArc
 50
270.8530598848
 51
1.5005330236
  0
ARC
  5
77
330
A
100
AcDbEntity
  8
1
  6
CONTINUOUS
370
    50
100
AcDbCircle
 10
124.8766697893
 20
214.1725866433
 30
0.0
 40
0.5093712232
100
AcDbArc
 50
178.6854922074
 51
268.9609148842
  0
LINE
  5
78
330
A
100
AcDbEntity
  8
1
  6
CONTINUOUS
370
    50
100
AcDbLine
 10
123.0592711085
 20
208.5266108684
 30
0.0
 11
123.0592711085
 21
216.7748702189
 31
0.0
  0
LINE
  5
79
330
A
100
AcDbEntity
  8
1
  6
CONTINUOUS
370
    50
100
AcDbLine
 10
123.6661905225
 20
215.9248702167
 30
0.0
 11
123.0592711085
 21
216.7748702189
 31
0.0
  0
LINE
  5
7A
330
A
100
AcDbEntity
  8
1
  6
CONTINUOUS
370
    50
100
AcDbLine
 10
123.6661905225
 20
215.9248702167
 30
0.0
 11
124.367432616
 21
214.6623083954
 31
0.0
  0
LINE
  5
7B
330
A
100
AcDbEntity
  8
1
  6
CONTINUOUS
370
    50
100
AcDbLine
 10
124.367432616
 20
205.6165801013
 30
0.0
 11
124.367432616
 21
214.6623083954
 31
0.0
  0
LINE
  5
7C
330
A
100
AcDbEntity
  8
1
  6
CONTINUOUS
370
    50
100
AcDbLine
 10
128.217432616
 20
214.6623083954
 30
0.0
 11
128.9186747094
 21
215.9248702167
 31
0.0
  0
LINE
  5
7D
330
A
100
AcDbEntity
  8
1
  6
CONTINUOUS
370
    50
100
AcDbLine
 10
129.5255941234
 20
216.7748702189
 30
0.0
 11
128.9186747094
 21
215.9248702167
 31
0.0
  0
LINE
  5
7E
330
A
100
AcDbEntity
  8
1
  6
CONTINUOUS
370
    50
100
AcDbLine
 10
129.5255941234
 20
216.7748702189
 30
0.0
 11
129.5255941234
 21
208.5266108684
 31
0.0
  0
LINE
  5
7F
330
A
100
AcDbEntity
  8
1
  6
CONTINUOUS
370
    50
100
AcDbLine
 10
128.217432616
 20
214.6623083954
 30
0.0
 11
128.217432616
 21
205.6165801013
 31
0.0
  0
LINE
  5
80
330
A
100
AcDbEntity
  8
1
  6
CONTINUOUS
370
    50
100
AcDbLine
 10
116.692432616
 20
215.8319942052
 30
0.0
 11
117.192432616
 21
216.5173944386
 31
0.0
  0
LINE
  5
81
330
A
100
AcDbEntity
  8
1
  6
CONTINUOUS
370
    50
100
AcDbLine
 10
117.192432616
 20
216.5173944386
 30
0.0
 11
117.192432616
 21
208.5266108684
 31
0.0
  0
LINE
  5
82
330
A
100
AcDbEntity
  8
1
  6
CONTINUOUS
370
    50
100
AcDbLine
 10
116.692432616
 20
207.8920180361
 30
0.0
 11
116.692432616
 21
215.8319942052
 31
0.0
  0
LINE
  5
83
330
A
100
AcDbEntity
  8
1
  6
CONTINUOUS
370
    50
100
AcDbLine
 10
133.742432616
 20
208.5266108684
 30
0.0
 11
133.742432616
 21
216.7748702189
 31
0.0
  0
LINE
  5
84
330
A
100
AcDbEntity
  8
1
  6
CONTINUOUS
370
    50
100
AcDbLine
 10
133.742432616
 20
216.7748702189
 30
0.0
 11
134.242432616
 21
216.3712869086
 31
0.0
  0
LINE
  5
85
330
A
100
AcDbEntity
  8
1
  6
CONTINUOUS
370
    50
100
AcDbLine
 10
134.242432616
 20
216.3712869086
 30
0.0
 11
134.242432616
 21
207.8920180361
 31
0.0
  0
LINE
  5
86
330
A
100
AcDbEntity
  8
1
  6
CONTINUOUS
370
    50
100
AcDbLine
 10
133.742432616
 20
216.7748702189
 30
0.0
 11
129.5255941234
 21
216.7748702189
 31
0.0
  0
LINE
  5
87
330
A
100
AcDbEntity
  8
1
  6
CONTINUOUS
370
    50
100
AcDbLine
 10
123.0592711085
 20
216.7748702189
 30
0.0
 11
118.0424326138
 21
216.7748702189
 31
0.0
  0
LINE
  5
88
330
A
100
AcDbEntity
  8
1
  6
CONTINUOUS
370
    50
100
AcDbLine
 10
117.192432616
 20
216.5173944386
 30
0.0
 11
118.0424326138
 21
216.7748702189
 31
0.0
  0
LINE
  5
89
330
A
100
AcDbEntity
  8
1
  6
CONTINUOUS
370
    50
100
AcDbLine
 10
139.947769415
 20
153.0155329167
 30
0.0
 11
139.947769415
 21
187.0155329167
 31
0.0
  0
LINE
  5
8A
330
A
100
AcDbEntity
  8
1
  6
CONTINUOUS
370
    50
100
AcDbLine
 10
13.592432616
 20
151.8528744919
 30
0.0
 11
13.592432616
 21
188.1781913431
 31
0.0
  0
LINE
  5
8B
330
A
100
AcDbEntity
  8
1
  6
CONTINUOUS
370
    50
100
AcDbLine
 10
194.159304512
 20
183.5968418618
 30
0.0
 11
194.159304512
 21
156.4342239715
 31
0.0
  0
LINE
  5
8C
330
A
100
AcDbEntity
  8
1
  6
CONTINUOUS
370
    50
100
AcDbLine
 10
150.7207160394
 20
153.0155329167
 30
0.0
 11
150.7207160394
 21
187.0155329167
 31
0.0
  0
LINE
  5
8D
330
A
100
AcDbEntity
  8
1
  6
CONTINUOUS
370
    50
100
AcDbLine
 10
195.192432616
 20
158.1849834959
 30
0.0
 11
195.192432616
 21
181.8460823876
 31
0.0
  0
LINE
  5
8E
330
A
100
AcDbEntity
  8
1
  6
CONTINUOUS
370
    50
100
AcDbLine
 10
116.492432616
 20
135.3905329167
 30
0.0
 11
116.492432616
 21
204.6405329167
 31
0.0
  0
LINE
  5
8F
330
A
100
AcDbEntity
  8
1
  6
CONTINUOUS
370
    50
100
AcDbLine
 10
115.7353228926
 20
135.3436868102
 30
0.0
 11
115.7353228926
 21
204.6873790232
 31
0.0
  0
LINE
  5
90
330
A
100
AcDbEntity
  8
1
  6
CONTINUOUS
370
    50
100
AcDbLine
 10
115.9466320235
 20
135.3905329167
 30
0.0
 11
115.9466320235
 21
204.6405329167
 31
0.0
  0
LINE
  5
91
330
A
100
AcDbEntity
  8
1
  6
CONTINUOUS
370
    50
100
AcDbLine
 10
15.3746313116
 20
149.6520423887
 30
0.0
 11
15.3746313116
 21
190.3790234447
 31
0.0
  0
LWPOLYLINE
  5
92
330
A
100
AcDbEntity
  8
1
  6
CONTINUOUS
370
    50
100
AcDbPolyline
 90
       26
 70
   128
 43
0.0
 10
133.4149852255
 20
156.3501628981
 10
133.2527838592
 20
155.7193884169
 10
132.9996217295
 20
155.1282478161
 10
132.6714059441
 20
154.6138846338
 10
132.2887595079
 20
154.2086182004
 10
131.8757255038
 20
153.9379128965
 10
131.4582563772
 20
153.8187781318
 10
131.0625832487
 20
153.8586995817
 10
130.7135677162
 20
154.0551688348
 10
130.4331397092
 20
154.3958410053
 10
130.2389195507
 20
154.8593104078
 10
130.1431108075
 20
155.4164555552
 10
130.1517334954
 20
156.0322689689
 10
130.2642458191
 20
156.6680568273
 10
130.4735782155
 20
157.2838702411
 10
130.7665775604
 20
157.8410153885
 10
131.1248336273
 20
158.304484791
 10
131.52583587
 20
158.6451569614
 10
131.9443878427
 20
158.8416262145
 10
132.3541903856
 20
158.8815476644
 10
132.729494098
 20
158.7624128997
 10
133.0467172672
 20
158.4917075958
 10
133.2859275948
 20
158.0864411624
 10
133.4320946163
 20
157.5720779802
 10
133.4760341201
 20
156.9809373794
 10
133.4149852255
 20
156.3501628981
  0
LWPOLYLINE
  5
AE
330
A
100
AcDbEntity
  8
1
  6
CONTINUOUS
370
    50
100
AcDbPolyline
 90
       26
 70
   128
 43
0.0
 10
125.306519959
 20
157.7852139764
 10
125.3118596
 20
157.2707118065
 10
125.3062729877
 20
156.817106347
 10
125.2887560007
 20
156.4687206489
 10
125.249039482
 20
156.2171762858
 10
125.1430929152
 20
156.100611139
 10
125.021741573
 20
156.1143110855
 10
124.8537148222
 20
156.1603755532
 10
124.6124904336
 20
156.229650077
 10
124.20335408
 20
156.3548768123
 10
123.3630126105
 20
156.7224678018
 10
122.7644571954
 20
157.1882960408
 10
122.4711210597
 20
157.6168111989
 10
122.3598524189
 20
158.0307537246
 10
122.4046624828
 20
158.4543681569
 10
122.5835987887
 20
158.8254143468
 10
123.0189816436
 20
159.2696258879
 10
123.8293531814
 20
159.6748301698
 10
124.3582219714
 20
159.782323405
 10
124.6742381407
 20
159.7758705927
 10
124.8875720789
 20
159.7082068556
 10
125.0349609339
 20
159.5843473188
 10
125.1781307414
 20
159.266482227
 10
125.2691808651
 20
158.630864649
 10
125.299930618
 20
158.0352133694
 10
125.306519959
 20
157.7852139764
  0
LWPOLYLINE
  5
CA
330
A
100
AcDbEntity
  8
1
  6
CONTINUOUS
370
    50
100
AcDbPolyline
 90
       24
 70
   128
 43
0.0
 10
132.7223774582
 20
156.4600860533
 10
132.5763495756
 20
155.9073743196
 10
132.3447176296
 20
155.3956546867
 10
132.044660702
 20
154.9628790589
 10
131.6984326425
 20
154.6411444245
 10
131.3317116023
 20
154.4543123696
 10
130.9716956033
 20
154.4162393731
 10
130.6450853853
 20
154.5297491348
 10
130.376104134
 20
154.7864231551
 10
130.1847009582
 20
155.1672250961
 10
130.0850713559
 20
155.6439126198
 10
130.084604399
 20
156.1811319933
 10
130.1833347194
 20
156.7390401133
 10
130.3739399411
 20
157.2762594868
 10
130.6422837466
 20
157.7529470106
 10
130.9684643034
 20
158.1337489515
 10
131.328290292
 20
158.3904229718
 10
131.6950750647
 20
158.5039327335
 10
132.041615873
 20
158.465859737
 10
132.3422113703
 20
158.2790276821
 10
132.5745677639
 20
157.9572930478
 10
132.7214522429
 20
157.5245174199
 10
132.7719710574
 20
157.012797787
 10
132.7223774582
 20
156.4600860533
  0
LWPOLYLINE
  5
E4
330
A
100
AcDbEntity
  8
1
  6
CONTINUOUS
370
    50
100
AcDbPolyline
 90
       24
 70
   128
 43
0.0
 10
123.5375045852
 20
159.0960433149
 10
123.3914767026
 20
158.5433315812
 10
123.1598447566
 20
158.0316119483
 10
122.859787829
 20
157.5988363205
 10
122.5135597695
 20
157.2771016861
 10
122.1468387293
 20
157.0902696312
 10
121.7868227303
 20
157.0521966347
 10
121.4602125123
 20
157.1657063964
 10
121.191231261
 20
157.4223804167
 10
120.9998280852
 20
157.8031823577
 10
120.9001984829
 20
158.2798698814
 10
120.899731526
 20
158.8170892549
 10
120.9984618465
 20
159.3749973749
 10
121.1890670681
 20
159.9122167485
 10
121.4574108736
 20
160.3889042722
 10
121.7835914305
 20
160.7697062131
 10
122.143417419
 20
161.0263802334
 10
122.5102021917
 20
161.1398899952
 10
122.856743
 20
161.1018169986
 10
123.1573384973
 20
160.9149849437
 10
123.3896948909
 20
160.5932503094
 10
123.5365793699
 20
160.1604746815
 10
123.5870981844
 20
159.6487550486
 10
123.5375045852
 20
159.0960433149
  0
LINE
  5
FE
330
A
100
AcDbEntity
  8
1
  6
CONTINUOUS
370
    50
100
AcDbLine
 10
116.9455865095
 20
134.7155329167
 30
0.0
 11
116.9455865095
 21
206.2387805149
 31
0.0
  0
LINE
  5
FF
330
A
100
AcDbEntity
  8
1
  6
CONTINUOUS
370
    50
100
AcDbLine
 10
116.992432616
 20
134.7155329167
 30
0.0
 11
116.992432616
 21
206.0468828172
 31
0.0
  0
LWPOLYLINE
  5
100
330
A
100
AcDbEntity
  8
1
  6
CONTINUOUS
370
    50
100
AcDbPolyline
 90
       26
 70
   128
 43
0.0
 10
123.7775125774
 20
159.098241778
 10
123.6215497252
 20
158.4917278537
 10
123.3781246005
 20
157.9233234299
 10
123.0625324991
 20
157.4287434469
 10
122.6946032336
 20
157.0390641841
 10
122.2974551526
 20
156.7787706226
 10
121.8960425309
 20
156.6642179642
 10
121.5155875997
 20
156.7026039738
 10
121.1799957415
 20
156.8915167171
 10
120.9103534271
 20
157.2190861118
 10
120.7236032747
 20
157.6647297681
 10
120.6314794831
 20
158.200446256
 10
120.6397705292
 20
158.7925745384
 10
120.7479554558
 20
159.4039090177
 10
120.9492366062
 20
159.9960373001
 10
121.2309667456
 20
160.531753788
 10
121.575443733
 20
160.9773974442
 10
121.9610228124
 20
161.3049668389
 10
122.3634766323
 20
161.4938795823
 10
122.757517539
 20
161.5322655918
 10
123.1183864932
 20
161.4177129334
 10
123.4234087713
 20
161.1574193719
 10
123.6534187017
 20
160.7677401091
 10
123.7939639147
 20
160.2731601261
 10
123.8362134375
 20
159.7047557023
 10
123.7775125774
 20
159.098241778
  0
LWPOLYLINE
  5
11C
330
A
100
AcDbEntity
  8
1
  6
CONTINUOUS
370
    50
100
AcDbPolyline
 90
       26
 70
   128
 43
0.0
 10
123.7851730218
 20
159.0960433149
 10
123.6292101696
 20
158.4895293906
 10
123.3857850449
 20
157.9211249668
 10
123.0701929436
 20
157.4265449838
 10
122.702263678
 20
157.036865721
 10
122.3051155971
 20
156.7765721595
 10
121.9037029753
 20
156.6620195011
 10
121.5232480441
 20
156.7004055107
 10
121.187656186
 20
156.889318254
 10
120.9180138715
 20
157.2168876487
 10
120.7312637191
 20
157.662531305
 10
120.6391399276
 20
158.1982477929
 10
120.6474309736
 20
158.7903760753
 10
120.7556159002
 20
159.4017105546
 10
120.9568970507
 20
159.993838837
 10
121.23862719
 20
160.5295553249
 10
121.5831041774
 20
160.9751989811
 10
121.9686832568
 20
161.3027683758
 10
122.3711370767
 20
161.4916811191
 10
122.7651779835
 20
161.5300671287
 10
123.1260469376
 20
161.4155144703
 10
123.4310692157
 20
161.1552209088
 10
123.6610791462
 20
160.765541646
 10
123.8016243591
 20
160.270961663
 10
123.843873882
 20
159.7025572392
 10
123.7851730218
 20
159.0960433149
  0
LWPOLYLINE
  5
138
330
A
100
AcDbEntity
  8
1
  6
CONTINUOUS
370
    50
100
AcDbPolyline
 90
       24
 70
   128
 43
0.0
 10
123.5298441408
 20
159.098241778
 10
123.3838162582
 20
158.5455300443
 10
123.1521843122
 20
158.0338104114
 10
122.8521273846
 20
157.6010347836
 10
122.505899325
 20
157.2793001492
 10
122.1391782848
 20
157.0924680943
 10
121.7791622859
 20
157.0543950978
 10
121.4525520679
 20
157.1679048595
 10
121.1835708166
 20
157.4245788798
 10
120.9921676408
 20
157.8053808208
 10
120.8925380385
 20
158.2820683445
 10
120.8920710816
 20
158.819287718
 10
120.990801402
 20
159.377195838
 10
121.1814066237
 20
159.9144152116
 10
121.4497504291
 20
160.3911027353
 10
121.775930986
 20
160.7719046762
 10
122.1357569746
 20
161.0285786965
 10
122.5025417473
 20
161.1420884583
 10
122.8490825556
 20
161.1040154617
 10
123.1496780529
 20
160.9171834069
 10
123.3820344465
 20
160.5954487725
 10
123.5289189254
 20
160.1626731446
 10
123.57943774
 20
159.6509535117
 10
123.5298441408
 20
159.098241778
  0
LWPOLYLINE
  5
152
330
A
100
AcDbEntity
  8
1
  6
CONTINUOUS
370
    50
100
AcDbPolyline
 90
       22
 70
   128
 43
0.0
 10
99.8311163123
 20
165.8995154129
 10
99.3846258161
 20
165.3844428329
 10
98.5029170607
 20
164.8925747755
 10
96.918054722
 20
164.542012853
 10
96.0894770157
 20
164.5348411845
 10
95.2466353443
 20
164.6605160791
 10
94.3865847849
 20
164.9923320488
 10
93.8290053809
 20
165.4340650615
 10
93.5330387951
 20
165.9098558113
 10
93.4357425768
 20
166.4643423202
 10
93.5403052765
 20
166.9676296558
 10
93.804901047
 20
167.422405766
 10
94.3536153032
 20
167.9154669671
 10
95.2867086899
 20
168.323208447
 10
96.7427253772
 20
168.461789159
 10
98.223893806
 20
168.1602212086
 10
99.1466321858
 20
167.6912624034
 10
99.6542500151
 20
167.2278037976
 10
99.8940967712
 20
166.8194991559
 10
99.9690723003
 20
166.4414709071
 10
99.9058519728
 20
166.0661382345
 10
99.8311163123
 20
165.8995154129
  0
LINE
  5
16A
330
A
100
AcDbEntity
  8
1
  6
CONTINUOUS
370
    50
100
AcDbLine
 10
116.692432616
 20
133.9655329167
 30
0.0
 11
118.892432616
 21
133.9655329167
 31
0.0
  0
LINE
  5
16B
330
A
100
AcDbEntity
  8
1
  6
CONTINUOUS
370
    50
100
AcDbLine
 10
118.892432616
 20
208.2655329167
 30
0.0
 11
116.692432616
 21
208.2655329167
 31
0.0
  0
LINE
  5
16C
330
A
100
AcDbEntity
  8
1
  6
CONTINUOUS
370
    50
100
AcDbLine
 10
14.3529041087
 20
157.0851089995
 30
0.0
 11
14.3529041087
 21
182.9459568339
 31
0.0
  0
LINE
  5
16D
330
A
100
AcDbEntity
  8
1
  6
CONTINUOUS
370
    50
100
AcDbLine
 10
118.5817724442
 20
134.7155329167
 30
0.0
 11
116.692432616
 21
134.7155329167
 31
0.0
  0
LINE
  5
16E
330
A
100
AcDbEntity
  8
1
  6
CONTINUOUS
370
    50
100
AcDbLine
 10
116.692432616
 20
207.5155329167
 30
0.0
 11
118.5817724442
 21
207.5155329167
 31
0.0
  0
LINE
  5
16F
330
A
100
AcDbEntity
  8
1
  6
CONTINUOUS
370
    50
100
AcDbLine
 10
118.0424326138
 20
123.2561956145
 30
0.0
 11
118.892432616
 21
124.1061956167
 31
0.0
  0
LINE
  5
170
330
A
100
AcDbEntity
  8
1
  6
CONTINUOUS
370
    50
100
AcDbLine
 10
118.0424326138
 20
216.7748702189
 30
0.0
 11
118.892432616
 21
215.9248702167
 31
0.0
  0
LINE
  5
171
330
A
100
AcDbEntity
  8
1
  6
CONTINUOUS
370
    50
100
AcDbLine
 10
14.8529041087
 20
157.3737841341
 30
0.0
 11
14.8529041087
 21
182.6572816993
 31
0.0
  0
LINE
  5
172
330
A
100
AcDbEntity
  8
1
  6
CONTINUOUS
370
    50
100
AcDbLine
 10
128.9186747094
 20
124.1061956167
 30
0.0
 11
134.242432616
 21
124.1061956167
 31
0.0
  0
LINE
  5
173
330
A
100
AcDbEntity
  8
1
  6
CONTINUOUS
370
    50
100
AcDbLine
 10
118.892432616
 20
124.1061956167
 30
0.0
 11
123.6661905225
 21
124.1061956167
 31
0.0
  0
LINE
  5
174
330
A
100
AcDbEntity
  8
1
  6
CONTINUOUS
370
    50
100
AcDbLine
 10
118.892432616
 20
124.1061956167
 30
0.0
 11
118.892432616
 21
133.9655329167
 31
0.0
  0
LINE
  5
175
330
A
100
AcDbEntity
  8
1
  6
CONTINUOUS
370
    50
100
AcDbLine
 10
118.892432616
 20
133.9655329167
 30
0.0
 11
134.242432616
 21
133.9655329167
 31
0.0
  0
LINE
  5
176
330
A
100
AcDbEntity
  8
1
  6
CONTINUOUS
370
    50
100
AcDbLine
 10
134.242432616
 20
134.7155329167
 30
0.0
 11
118.5817724442
 21
134.7155329167
 31
0.0
  0
LINE
  5
177
330
A
100
AcDbEntity
  8
1
  6
CONTINUOUS
370
    50
100
AcDbLine
 10
118.892432616
 20
133.9655329167
 30
0.0
 11
118.5817724442
 21
134.7155329167
 31
0.0
  0
LINE
  5
178
330
A
100
AcDbEntity
  8
1
  6
CONTINUOUS
370
    50
100
AcDbLine
 10
118.5817724442
 20
207.5155329167
 30
0.0
 11
134.242432616
 21
207.5155329167
 31
0.0
  0
LINE
  5
179
330
A
100
AcDbEntity
  8
1
  6
CONTINUOUS
370
    50
100
AcDbLine
 10
118.892432616
 20
208.2655329167
 30
0.0
 11
118.5817724442
 21
207.5155329167
 31
0.0
  0
LINE
  5
17A
330
A
100
AcDbEntity
  8
1
  6
CONTINUOUS
370
    50
100
AcDbLine
 10
134.242432616
 20
208.2655329167
 30
0.0
 11
118.892432616
 21
208.2655329167
 31
0.0
  0
LINE
  5
17B
330
A
100
AcDbEntity
  8
1
  6
CONTINUOUS
370
    50
100
AcDbLine
 10
128.9186747094
 20
215.9248702167
 30
0.0
 11
134.242432616
 21
215.9248702167
 31
0.0
  0
LINE
  5
17C
330
A
100
AcDbEntity
  8
1
  6
CONTINUOUS
370
    50
100
AcDbLine
 10
118.892432616
 20
215.9248702167
 30
0.0
 11
123.6661905225
 21
215.9248702167
 31
0.0
  0
LINE
  5
17D
330
A
100
AcDbEntity
  8
1
  6
CONTINUOUS
370
    50
100
AcDbLine
 10
118.892432616
 20
215.9248702167
 30
0.0
 11
118.892432616
 21
208.2655329167
 31
0.0
  0
LINE
  5
17E
330
A
100
AcDbEntity
  8
1
  6
CONTINUOUS
370
    50
100
AcDbLine
 10
25.292432616
 20
182.6655329167
 30
0.0
 11
25.292432616
 21
157.3655329167
 31
0.0
  0
LINE
  5
17F
330
A
100
AcDbEntity
  8
1
  6
CONTINUOUS
370
    50
100
AcDbLine
 10
22.5821440477
 20
182.6655329167
 30
0.0
 11
22.5821440477
 21
157.3655329167
 31
0.0
  0
LINE
  5
180
330
A
100
AcDbEntity
  8
1
  6
CONTINUOUS
370
    50
100
AcDbLine
 10
22.3223364266
 20
182.5155329167
 30
0.0
 11
22.3223364266
 21
157.5155329167
 31
0.0
  0
LINE
  5
181
330
A
100
AcDbEntity
  8
1
  6
CONTINUOUS
370
    50
100
AcDbLine
 10
26.4976513029
 20
180.5780329167
 30
0.0
 11
26.4976513029
 21
159.4530329167
 31
0.0
  0
LINE
  5
182
330
A
100
AcDbEntity
  8
1
  6
CONTINUOUS
370
    50
100
AcDbLine
 10
15.592432616
 20
182.5155329167
 30
0.0
 11
15.592432616
 21
157.5155329167
 31
0.0
  0
LINE
  5
183
330
A
100
AcDbEntity
  8
1
  6
CONTINUOUS
370
    50
100
AcDbLine
 10
62.592432616
 20
182.0155329167
 30
0.0
 11
62.592432616
 21
158.0155329167
 31
0.0
  0
LINE
  5
184
330
A
100
AcDbEntity
  8
1
  6
CONTINUOUS
370
    50
100
AcDbLine
 10
62.602432616
 20
182.0155329167
 30
0.0
 11
62.602432616
 21
158.0155329167
 31
0.0
  0
LINE
  5
185
330
A
100
AcDbEntity
  8
1
  6
CONTINUOUS
370
    50
100
AcDbLine
 10
77.592432616
 20
180.5780329167
 30
0.0
 11
77.592432616
 21
159.4530329167
 31
0.0
  0
LINE
  5
186
330
A
100
AcDbEntity
  8
1
  6
CONTINUOUS
370
    50
100
AcDbLine
 10
77.6151807556
 20
180.5155329167
 30
0.0
 11
77.6151807556
 21
159.5155329167
 31
0.0
  0
LWPOLYLINE
  5
187
330
A
100
AcDbEntity
  8
1
  6
CONTINUOUS
370
    50
100
AcDbPolyline
 90
       22
 70
   128
 43
0.0
 10
99.8311163123
 20
174.1315504205
 10
99.3846258161
 20
174.6466230005
 10
98.5029170607
 20
175.1384910578
 10
96.918054722
 20
175.4890529804
 10
96.075194556
 20
175.4956180375
 10
95.2466353443
 20
175.3705497543
 10
94.3865847849
 20
175.0387337846
 10
93.8290053809
 20
174.5970007719
 10
93.5330387951
 20
174.1212100221
 10
93.4357425768
 20
173.5667235132
 10
93.5403052765
 20
173.0634361775
 10
93.804901047
 20
172.6086600673
 10
94.3536153032
 20
172.1155988662
 10
95.2867086899
 20
171.7078573863
 10
96.7427253772
 20
171.5692766744
 10
98.223893806
 20
171.8708446248
 10
99.1466321858
 20
172.33980343
 10
99.6542500151
 20
172.8032620358
 10
99.8940967712
 20
173.2115666775
 10
99.9690723003
 20
173.5895949262
 10
99.9058519728
 20
173.9649275988
 10
99.8311163123
 20
174.1315504205
  0
LINE
  5
19F
330
A
100
AcDbEntity
  8
1
  6
CONTINUOUS
370
    50
100
AcDbLine
 10
123.592432616
 20
180.5155329167
 30
0.0
 11
123.592432616
 21
159.5155329167
 31
0.0
  0
LINE
  5
1A0
330
A
100
AcDbEntity
  8
1
  6
CONTINUOUS
370
    50
100
AcDbLine
 10
126.4791839619
 20
164.5155329167
 30
0.0
 11
126.4791839619
 21
175.5155329167
 31
0.0
  0
LINE
  5
1A1
330
A
100
AcDbEntity
  8
1
  6
CONTINUOUS
370
    50
100
AcDbLine
 10
194.1292105916
 20
162.0155329167
 30
0.0
 11
194.1292105916
 21
178.0155329167
 31
0.0
  0
LINE
  5
1A2
330
A
100
AcDbEntity
  8
1
  6
CONTINUOUS
370
    50
100
AcDbLine
 10
145.692432616
 20
178.2155329167
 30
0.0
 11
145.692432616
 21
161.8355077046
 31
0.0
  0
LINE
  5
1A3
330
A
100
AcDbEntity
  8
1
  6
CONTINUOUS
370
    50
100
AcDbLine
 10
145.192432616
 20
162.3155329711
 30
0.0
 11
145.192432616
 21
177.7155329167
 31
0.0
  0
LINE
  5
1A4
330
A
100
AcDbEntity
  8
1
  6
CONTINUOUS
370
    50
100
AcDbLine
 10
155.076962566
 20
161.8155329167
 30
0.0
 11
155.076962566
 21
178.2155329167
 31
0.0
  0
LINE
  5
1A5
330
A
100
AcDbEntity
  8
1
  6
CONTINUOUS
370
    50
100
AcDbLine
 10
155.1924326198
 20
178.0155329167
 30
0.0
 11
155.1924326198
 21
162.0155329167
 31
0.0
  0
LINE
  5
1A6
330
A
100
AcDbEntity
  8
1
  6
CONTINUOUS
370
    50
100
AcDbLine
 10
121.292432616
 20
207.3155329167
 30
0.0
 11
131.292432616
 21
207.3155329167
 31
0.0
  0
LINE
  5
1A7
330
A
100
AcDbEntity
  8
1
  6
CONTINUOUS
370
    50
100
AcDbLine
 10
131.292432616
 20
203.1155329167
 30
0.0
 11
121.312561146
 21
203.1155329167
 31
0.0
  0
LINE
  5
1A8
330
A
100
AcDbEntity
  8
1
  6
CONTINUOUS
370
    50
100
AcDbLine
 10
121.5924327968
 20
202.8155329167
 30
0.0
 11
130.992432616
 21
202.8155329167
 31
0.0
  0
LINE
  5
1A9
330
A
100
AcDbEntity
  8
1
  6
CONTINUOUS
370
    50
100
AcDbLine
 10
125.192432616
 20
202.4155329167
 30
0.0
 11
127.392432616
 21
202.4155329167
 31
0.0
  0
LINE
  5
1AA
330
A
100
AcDbEntity
  8
1
  6
CONTINUOUS
370
    50
100
AcDbLine
 10
125.042432616
 20
199.0055329167
 30
0.0
 11
127.542432616
 21
199.0055329167
 31
0.0
  0
LINE
  5
1AB
330
A
100
AcDbEntity
  8
1
  6
CONTINUOUS
370
    50
100
AcDbLine
 10
125.042432616
 20
199.0155329167
 30
0.0
 11
127.542432616
 21
199.0155329167
 31
0.0
  0
LINE
  5
1AC
330
A
100
AcDbEntity
  8
1
  6
CONTINUOUS
370
    50
100
AcDbLine
 10
125.192432616
 20
196.4155329167
 30
0.0
 11
127.392432616
 21
196.4155329167
 31
0.0
  0
LWPOLYLINE
  5
1AD
330
A
100
AcDbEntity
  8
1
  6
CONTINUOUS
370
    50
100
AcDbPolyline
 90
       24
 70
   128
 43
0.0
 10
123.5298441408
 20
180.9328240553
 10
123.3838162582
 20
181.485535789
 10
123.1521843122
 20
181.9972554219
 10
122.8521273846
 20
182.4300310498
 10
122.505899325
 20
182.7517656842
 10
122.1391782848
 20
182.938597739
 10
121.7791622859
 20
182.9766707356
 10
121.4525520679
 20
182.8631609738
 10
121.1835708166
 20
182.6064869535
 10
120.9921676408
 20
182.2256850126
 10
120.8925380385
 20
181.7489974889
 10
120.8920710816
 20
181.2117781154
 10
120.990801402
 20
180.6538699953
 10
121.1814066237
 20
180.1166506218
 10
121.4497504291
 20
179.6399630981
 10
121.775930986
 20
179.2591611572
 10
122.1357569746
 20
179.0024871369
 10
122.5025417473
 20
178.8889773751
 10
122.8490825556
 20
178.9270503717
 10
123.1496780529
 20
179.1138824265
 10
123.3820344465
 20
179.4356170609
 10
123.5289189254
 20
179.8683926888
 10
123.57943774
 20
180.3801123217
 10
123.5298441408
 20
180.9328240553
  0
LINE
  5
1C7
330
A
100
AcDbEntity
  8
1
  6
CONTINUOUS
370
    50
100
AcDbLine
 10
127.717432616
 20
126.3677666508
 30
0.0
 11
127.717432616
 21
213.6632991826
 31
0.0
  0
LINE
  5
1C8
330
A
100
AcDbEntity
  8
1
  6
CONTINUOUS
370
    50
100
AcDbLine
 10
128.217432616
 20
199.8655329167
 30
0.0
 11
128.217432616
 21
205.0152114866
 31
0.0
  0
LINE
  5
1C9
330
A
100
AcDbEntity
  8
1
  6
CONTINUOUS
370
    50
100
AcDbLine
 10
124.867432616
 20
126.3677666508
 30
0.0
 11
124.867432616
 21
213.6632991826
 31
0.0
  0
LINE
  5
1CA
330
A
100
AcDbEntity
  8
1
  6
CONTINUOUS
370
    50
100
AcDbLine
 10
124.367432616
 20
199.8655329167
 30
0.0
 11
124.367432616
 21
205.0152114866
 31
0.0
  0
LINE
  5
1CB
330
A
100
AcDbEntity
  8
1
  6
CONTINUOUS
370
    50
100
AcDbLine
 10
123.0592711085
 20
208.5266108684
 30
0.0
 11
123.0592711085
 21
199.8655329167
 31
0.0
  0
LINE
  5
1CC
330
A
100
AcDbEntity
  8
1
  6
CONTINUOUS
370
    50
100
AcDbLine
 10
133.742432616
 20
208.5266108684
 30
0.0
 11
133.742432616
 21
199.8655329167
 31
0.0
  0
LINE
  5
1CD
330
A
100
AcDbEntity
  8
1
  6
CONTINUOUS
370
    50
100
AcDbLine
 10
129.5255941234
 20
199.8655329167
 30
0.0
 11
129.5255941234
 21
208.5266108684
 31
0.0
  0
LINE
  5
1CE
330
A
100
AcDbEntity
  8
1
  6
CONTINUOUS
370
    50
100
AcDbLine
 10
117.192432616
 20
199.8655329167
 30
0.0
 11
117.192432616
 21
208.5266108684
 31
0.0
  0
LINE
  5
1CF
330
A
100
AcDbEntity
  8
1
  6
CONTINUOUS
370
    50
100
AcDbLine
 10
130.642432616
 20
178.6680087592
 30
0.0
 11
130.642432616
 21
185.6680087592
 31
0.0
  0
LINE
  5
1D0
330
A
100
AcDbEntity
  8
1
  6
CONTINUOUS
370
    50
100
AcDbLine
 10
130.642432616
 20
171.6680087592
 30
0.0
 11
130.642432616
 21
178.6680087592
 31
0.0
  0
LWPOLYLINE
  5
1D1
330
A
100
AcDbEntity
  8
1
  6
CONTINUOUS
370
    50
100
AcDbPolyline
 90
       26
 70
   128
 43
0.0
 10
123.7851730218
 20
180.9350225185
 10
123.6292101696
 20
181.5415364427
 10
123.3857850449
 20
182.1099408666
 10
123.0701929436
 20
182.6045208495
 10
122.702263678
 20
182.9942001124
 10
122.3051155971
 20
183.2544936739
 10
121.9037029753
 20
183.3690463322
 10
121.5232480441
 20
183.3306603227
 10
121.187656186
 20
183.1417475793
 10
120.9180138715
 20
182.8141781847
 10
120.7312637191
 20
182.3685345284
 10
120.6391399276
 20
181.8328180405
 10
120.6474309736
 20
181.2406897581
 10
120.7556159002
 20
180.6293552788
 10
120.9568970507
 20
180.0372269964
 10
121.23862719
 20
179.5015105085
 10
121.5831041774
 20
179.0558668522
 10
121.9686832568
 20
178.7282974576
 10
122.3711370767
 20
178.5393847142
 10
122.7651779835
 20
178.5009987047
 10
123.1260469376
 20
178.615551363
 10
123.4310692157
 20
178.8758449245
 10
123.6610791462
 20
179.2655241874
 10
123.8016243591
 20
179.7601041703
 10
123.843873882
 20
180.3285085942
 10
123.7851730218
 20
180.9350225185
  0
LWPOLYLINE
  5
1ED
330
A
100
AcDbEntity
  8
1
  6
CONTINUOUS
370
    50
100
AcDbPolyline
 90
       26
 70
   128
 43
0.0
 10
123.7775125774
 20
180.9328240553
 10
123.6215497252
 20
181.5393379796
 10
123.3781246005
 20
182.1077424035
 10
123.0625324991
 20
182.6023223864
 10
122.6946032336
 20
182.9920016493
 10
122.2974551526
 20
183.2522952108
 10
121.8960425309
 20
183.3668478691
 10
121.5155875997
 20
183.3284618596
 10
121.1799957415
 20
183.1395491162
 10
120.9103534271
 20
182.8119797216
 10
120.7236032747
 20
182.3663360653
 10
120.6314794831
 20
181.8306195774
 10
120.6397705292
 20
181.238491295
 10
120.7479554558
 20
180.6271568157
 10
120.9492366062
 20
180.0350285333
 10
121.2309667456
 20
179.4993120454
 10
121.575443733
 20
179.0536683891
 10
121.9610228124
 20
178.7260989945
 10
122.3634766323
 20
178.5371862511
 10
122.757517539
 20
178.4988002416
 10
123.1183864932
 20
178.6133528999
 10
123.4234087713
 20
178.8736464614
 10
123.6534187017
 20
179.2633257243
 10
123.7939639147
 20
179.7579057072
 10
123.8362134375
 20
180.3263101311
 10
123.7775125774
 20
180.9328240553
  0
LWPOLYLINE
  5
209
330
A
100
AcDbEntity
  8
1
  6
CONTINUOUS
370
    50
100
AcDbPolyline
 90
       24
 70
   128
 43
0.0
 10
123.5375045852
 20
180.9350225185
 10
123.3914767026
 20
181.4877342521
 10
123.1598447566
 20
181.999453885
 10
122.859787829
 20
182.4322295129
 10
122.5135597695
 20
182.7539641473
 10
122.1468387293
 20
182.9407962021
 10
121.7868227303
 20
182.9788691987
 10
121.4602125123
 20
182.8653594369
 10
121.191231261
 20
182.6086854166
 10
120.9998280852
 20
182.2278834757
 10
120.9001984829
 20
181.751195952
 10
120.899731526
 20
181.2139765785
 10
120.9984618465
 20
180.6560684584
 10
121.1890670681
 20
180.1188490849
 10
121.4574108736
 20
179.6421615612
 10
121.7835914305
 20
179.2613596203
 10
122.143417419
 20
179.0046856
 10
122.5102021917
 20
178.8911758382
 10
122.856743
 20
178.9292488348
 10
123.1573384973
 20
179.1160808896
 10
123.3896948909
 20
179.437815524
 10
123.5365793699
 20
179.8705911519
 10
123.5870981844
 20
180.3823107848
 10
123.5375045852
 20
180.9350225185
  0
LWPOLYLINE
  5
223
330
A
100
AcDbEntity
  8
1
  6
CONTINUOUS
370
    50
100
AcDbPolyline
 90
       25
 70
   128
 43
0.0
 10
125.306519959
 20
182.245851857
 10
125.2837142243
 20
181.6202719845
 10
125.2345646575
 20
181.0640822261
 10
125.0974762992
 20
180.5445080531
 10
124.9615799901
 20
180.3721671013
 10
124.7763728805
 20
180.2776661882
 10
124.5363610237
 20
180.2431963508
 10
124.0442913396
 20
180.2984056404
 10
123.14387101
 20
180.674713877
 10
122.6661109212
 20
181.0949701158
 10
122.424750935
 20
181.5152837988
 10
122.3594241577
 20
181.9949770079
 10
122.4643309589
 20
182.3992829691
 10
122.7647371005
 20
182.8430707732
 10
123.3736028685
 20
183.3147238134
 10
124.2908284968
 20
183.704670409
 10
124.6180391709
 20
183.8030166467
 10
124.8481367103
 20
183.8690892828
 10
125.0126205249
 20
183.9145415029
 10
125.1589173809
 20
183.9272787146
 10
125.2612109388
 20
183.7666447392
 10
125.2973573591
 20
183.4371305329
 10
125.3101615263
 20
183.0204845848
 10
125.3105388622
 20
182.5043890444
 10
125.306519959
 20
182.245851857
  0
LWPOLYLINE
  5
23E
330
A
100
AcDbEntity
  8
1
  6
CONTINUOUS
370
    50
100
AcDbPolyline
 90
       24
 70
   128
 43
0.0
 10
132.7223774582
 20
183.5709797801
 10
132.5763495756
 20
184.1236915138
 10
132.3447176296
 20
184.6354111466
 10
132.044660702
 20
185.0681867745
 10
131.6984326425
 20
185.3899214089
 10
131.3317116023
 20
185.5767534637
 10
130.9716956033
 20
185.6148264603
 10
130.6450853853
 20
185.5013166985
 10
130.376104134
 20
185.2446426783
 10
130.1847009582
 20
184.8638407373
 10
130.0850713559
 20
184.3871532136
 10
130.084604399
 20
183.8499338401
 10
130.1833347194
 20
183.2920257201
 10
130.3739399411
 20
182.7548063465
 10
130.6422837466
 20
182.2781188228
 10
130.9684643034
 20
181.8973168819
 10
131.328290292
 20
181.6406428616
 10
131.6950750647
 20
181.5271330998
 10
132.041615873
 20
181.5652060964
 10
132.3422113703
 20
181.7520381512
 10
132.5745677639
 20
182.0737727856
 10
132.7214522429
 20
182.5065484135
 10
132.7719710574
 20
183.0182680464
 10
132.7223774582
 20
183.5709797801
  0
LWPOLYLINE
  5
258
330
A
100
AcDbEntity
  8
1
  6
CONTINUOUS
370
    50
100
AcDbPolyline
 90
       26
 70
   128
 43
0.0
 10
133.4149852255
 20
183.6809029353
 10
133.2527838592
 20
184.3116774165
 10
132.9996217295
 20
184.9028180173
 10
132.6714059441
 20
185.4171811996
 10
132.2887595079
 20
185.8224476329
 10
131.8757255038
 20
186.0931529369
 10
131.4582563772
 20
186.2122877016
 10
131.0625832487
 20
186.1723662517
 10
130.7135677162
 20
185.9758969986
 10
130.4331397092
 20
185.6352248281
 10
130.2389195507
 20
185.1717554256
 10
130.1431108075
 20
184.6146102782
 10
130.1517334954
 20
183.9987968645
 10
130.2642458191
 20
183.363009006
 10
130.4735782155
 20
182.7471955923
 10
130.7665775604
 20
182.1900504449
 10
131.1248336273
 20
181.7265810424
 10
131.52583587
 20
181.3859088719
 10
131.9443878427
 20
181.1894396189
 10
132.3541903856
 20
181.1495181689
 10
132.729494098
 20
181.2686529336
 10
133.0467172672
 20
181.5393582376
 10
133.2859275948
 20
181.9446246709
 10
133.4320946163
 20
182.4589878532
 10
133.4760341201
 20
183.050128454
 10
133.4149852255
 20
183.6809029353
  0
LINE
  5
274
330
A
100
AcDbEntity
  8
1
  6
CONTINUOUS
370
    50
100
AcDbLine
 10
118.492432616
 20
150.0155329167
 30
0.0
 11
122.492432616
 21
150.0155329167
 31
0.0
  0
LINE
  5
275
330
A
100
AcDbEntity
  8
1
  6
CONTINUOUS
370
    50
100
AcDbLine
 10
118.492432616
 20
190.0155329167
 30
0.0
 11
118.492432616
 21
150.0155329167
 31
0.0
  0
LINE
  5
276
330
A
100
AcDbEntity
  8
1
  6
CONTINUOUS
370
    50
100
AcDbLine
 10
122.492432616
 20
150.0155329167
 30
0.0
 11
122.492432616
 21
157.5662771236
 31
0.0
  0
LINE
  5
277
330
A
100
AcDbEntity
  8
1
  6
CONTINUOUS
370
    50
100
AcDbLine
 10
122.492432616
 20
158.6193375152
 30
0.0
 11
122.492432616
 21
181.4055878949
 31
0.0
  0
LINE
  5
278
330
A
100
AcDbEntity
  8
1
  6
CONTINUOUS
370
    50
100
AcDbLine
 10
122.492432616
 20
182.4446931001
 30
0.0
 11
122.492432616
 21
190.0155329167
 31
0.0
  0
LINE
  5
279
330
A
100
AcDbEntity
  8
1
  6
CONTINUOUS
370
    50
100
AcDbLine
 10
133.292432616
 20
150.0155329167
 30
0.0
 11
133.292432616
 21
190.0155329167
 31
0.0
  0
LINE
  5
27A
330
A
100
AcDbEntity
  8
1
  6
CONTINUOUS
370
    50
100
AcDbLine
 10
131.292432616
 20
150.0155329167
 30
0.0
 11
133.292432616
 21
150.0155329167
 31
0.0
  0
LINE
  5
27B
330
A
100
AcDbEntity
  8
1
  6
CONTINUOUS
370
    50
100
AcDbLine
 10
131.292432616
 20
190.0155329167
 30
0.0
 11
131.292432616
 21
150.0155329167
 31
0.0
  0
LINE
  5
27C
330
A
100
AcDbEntity
  8
1
  6
CONTINUOUS
370
    50
100
AcDbLine
 10
133.292432616
 20
190.0155329167
 30
0.0
 11
131.292432616
 21
190.0155329167
 31
0.0
  0
LINE
  5
27D
330
A
100
AcDbEntity
  8
1
  6
CONTINUOUS
370
    50
100
AcDbLine
 10
122.492432616
 20
190.0155329167
 30
0.0
 11
118.492432616
 21
190.0155329167
 31
0.0
  0
LINE
  5
27E
330
A
100
AcDbEntity
  8
1
  6
CONTINUOUS
370
    50
100
AcDbLine
 10
131.0879207706
 20
153.8510438492
 30
0.0
 11
134.242432616
 21
152.9457337245
 31
0.0
  0
LINE
  5
27F
330
A
100
AcDbEntity
  8
1
  6
CONTINUOUS
370
    50
100
AcDbLine
 10
134.242432616
 20
158.3556400695
 30
0.0
 11
132.5223600047
 21
158.8492819471
 31
0.0
  0
LINE
  5
280
330
A
100
AcDbEntity
  8
1
  6
CONTINUOUS
370
    50
100
AcDbLine
 10
116.692432616
 20
153.6739903479
 30
0.0
 11
125.1584567223
 21
156.1036459379
 31
0.0
  0
LINE
  5
281
330
A
100
AcDbEntity
  8
1
  6
CONTINUOUS
370
    50
100
AcDbLine
 10
123.8889708425
 20
159.6927105834
 30
0.0
 11
116.692432616
 21
157.6273834462
 31
0.0
  0
LINE
  5
282
330
A
100
AcDbEntity
  8
1
  6
CONTINUOUS
370
    50
100
AcDbLine
 10
131.1289603861
 20
158.308845739
 30
0.0
 11
130.8759727803
 21
158.0420991171
 31
0.0
  0
LINE
  5
283
330
A
100
AcDbEntity
  8
1
  6
CONTINUOUS
370
    50
100
AcDbLine
 10
130.1201479051
 20
155.4084618067
 30
0.0
 11
130.1931772073
 21
155.0481519262
 31
0.0
  0
LINE
  5
284
330
A
100
AcDbEntity
  8
1
  6
CONTINUOUS
370
    50
100
AcDbLine
 10
124.7811413726
 20
156.1812033136
 30
0.0
 11
130.8428253985
 21
154.4415668215
 31
0.0
  0
LINE
  5
285
330
A
100
AcDbEntity
  8
1
  6
CONTINUOUS
370
    50
100
AcDbLine
 10
121.6579525255
 20
157.0775240831
 30
0.0
 11
124.7811413726
 21
156.1812033136
 31
0.0
  0
LINE
  5
286
330
A
100
AcDbEntity
  8
1
  6
CONTINUOUS
370
    50
100
AcDbLine
 10
132.0014109337
 20
158.4786052852
 30
0.0
 11
122.8165380608
 21
161.1145625468
 31
0.0
  0
LINE
  5
287
330
A
100
AcDbEntity
  8
1
  6
CONTINUOUS
370
    50
100
AcDbLine
 10
116.9455865095
 20
206.258191948
 30
0.0
 11
116.692432616
 21
206.8010822246
 31
0.0
  0
ARC
  5
288
330
A
100
AcDbEntity
  8
1
  6
CONTINUOUS
370
    50
100
AcDbCircle
 10
116.492432616
 20
206.0468828172
 30
0.0
 40
0.5
100
AcDbArc
 50
0.0
 51
25.0
  0
ARC
  5
289
330
A
100
AcDbEntity
  8
1
  6
CONTINUOUS
370
    50
100
AcDbCircle
 10
116.492432616
 20
134.8905329167
 30
0.0
 40
0.5
100
AcDbArc
 50
0.0
 51
66.4218215218
  0
ARC
  5
28A
330
A
100
AcDbEntity
  8
1
  6
CONTINUOUS
370
    50
100
AcDbCircle
 10
116.492432616
 20
205.1405329167
 30
0.0
 40
0.5
100
AcDbArc
 50
293.5781784782001
 51
0.0
  0
LINE
  5
28B
330
A
100
AcDbEntity
  8
1
  6
CONTINUOUS
370
    50
100
AcDbLine
 10
95.1040137143
 20
164.6982117944
 30
0.0
 11
121.6502920811
 21
157.0797225462
 31
0.0
  0
LINE
  5
28C
330
A
100
AcDbEntity
  8
1
  6
CONTINUOUS
370
    50
100
AcDbLine
 10
122.8088776163
 20
161.1167610099
 30
0.0
 11
97.8942736505
 21
168.2669776925
 31
0.0
  0
ARC
  5
28D
330
A
100
AcDbEntity
  8
1
  6
CONTINUOUS
370
    50
100
AcDbCircle
 10
15.592432616
 20
155.5155329167
 30
0.0
 40
2.0
100
AcDbArc
 50
128.2989210679
 51
180.0
  0
ARC
  5
28E
330
A
100
AcDbEntity
  8
1
  6
CONTINUOUS
370
    50
100
AcDbCircle
 10
15.592432616
 20
184.5155329167
 30
0.0
 40
2.0
100
AcDbArc
 50
180.0
 51
231.7010789321
  0
LINE
  5
28F
330
A
100
AcDbEntity
  8
1
  6
CONTINUOUS
370
    50
100
AcDbLine
 10
14.3529041087
 20
157.0851089995
 30
0.0
 11
14.8529041087
 21
157.3737841341
 31
0.0
  0
LINE
  5
290
330
A
100
AcDbEntity
  8
1
  6
CONTINUOUS
370
    50
100
AcDbLine
 10
14.8529041087
 20
182.6572816993
 30
0.0
 11
14.3529041087
 21
182.9459568339
 31
0.0
  0
LINE
  5
291
330
A
100
AcDbEntity
  8
1
  6
CONTINUOUS
370
    50
100
AcDbLine
 10
25.292432616
 20
182.6655329167
 30
0.0
 11
22.5821440477
 21
182.6655329167
 31
0.0
  0
LINE
  5
292
330
A
100
AcDbEntity
  8
1
  6
CONTINUOUS
370
    50
100
AcDbLine
 10
22.5821440477
 20
157.3655329167
 30
0.0
 11
25.292432616
 21
157.3655329167
 31
0.0
  0
LINE
  5
293
330
A
100
AcDbEntity
  8
1
  6
CONTINUOUS
370
    50
100
AcDbLine
 10
22.5821440477
 20
182.6655329167
 30
0.0
 11
22.3223364266
 21
182.5155329167
 31
0.0
  0
LINE
  5
294
330
A
100
AcDbEntity
  8
1
  6
CONTINUOUS
370
    50
100
AcDbLine
 10
22.3223364266
 20
157.5155329167
 30
0.0
 11
22.5821440477
 21
157.3655329167
 31
0.0
  0
LINE
  5
295
330
A
100
AcDbEntity
  8
1
  6
CONTINUOUS
370
    50
100
AcDbLine
 10
25.292432616
 20
157.3655329167
 30
0.0
 11
26.4976513029
 21
159.4530329167
 31
0.0
  0
LINE
  5
296
330
A
100
AcDbEntity
  8
1
  6
CONTINUOUS
370
    50
100
AcDbLine
 10
26.4976513029
 20
180.5780329167
 30
0.0
 11
25.292432616
 21
182.6655329167
 31
0.0
  0
ARC
  5
297
330
A
100
AcDbEntity
  8
1
  6
CONTINUOUS
370
    50
100
AcDbCircle
 10
15.592432616
 20
155.5155329167
 30
0.0
 40
2.0
100
AcDbArc
 50
90.0
 51
111.7010789321
  0
ARC
  5
298
330
A
100
AcDbEntity
  8
1
  6
CONTINUOUS
370
    50
100
AcDbCircle
 10
15.592432616
 20
184.5155329167
 30
0.0
 40
2.0
100
AcDbArc
 50
248.2989210679
 51
270.0
  0
LINE
  5
299
330
A
100
AcDbEntity
  8
1
  6
CONTINUOUS
370
    50
100
AcDbLine
 10
15.592432616
 20
157.5155329167
 30
0.0
 11
22.3223364266
 21
157.5155329167
 31
0.0
  0
LINE
  5
29A
330
A
100
AcDbEntity
  8
1
  6
CONTINUOUS
370
    50
100
AcDbLine
 10
22.3223364266
 20
182.5155329167
 30
0.0
 11
15.592432616
 21
182.5155329167
 31
0.0
  0
LINE
  5
29B
330
A
100
AcDbEntity
  8
1
  6
CONTINUOUS
370
    50
100
AcDbLine
 10
62.592432616
 20
180.5780329167
 30
0.0
 11
26.4976513029
 21
180.5780329167
 31
0.0
  0
LINE
  5
29C
330
A
100
AcDbEntity
  8
1
  6
CONTINUOUS
370
    50
100
AcDbLine
 10
26.4976513029
 20
159.4530329167
 30
0.0
 11
62.592432616
 21
159.4530329167
 31
0.0
  0
LINE
  5
29D
330
A
100
AcDbEntity
  8
1
  6
CONTINUOUS
370
    50
100
AcDbLine
 10
77.592432616
 20
180.5780329167
 30
0.0
 11
62.602432616
 21
180.5780329167
 31
0.0
  0
LINE
  5
29E
330
A
100
AcDbEntity
  8
1
  6
CONTINUOUS
370
    50
100
AcDbLine
 10
62.602432616
 20
159.4530329167
 30
0.0
 11
77.592432616
 21
159.4530329167
 31
0.0
  0
LINE
  5
29F
330
A
100
AcDbEntity
  8
1
  6
CONTINUOUS
370
    50
100
AcDbLine
 10
123.592432616
 20
180.5155329167
 30
0.0
 11
77.6151807556
 21
180.5155329167
 31
0.0
  0
LINE
  5
2A0
330
A
100
AcDbEntity
  8
1
  6
CONTINUOUS
370
    50
100
AcDbLine
 10
77.6151807556
 20
159.5155329167
 30
0.0
 11
123.592432616
 21
159.5155329167
 31
0.0
  0
LINE
  5
2A1
330
A
100
AcDbEntity
  8
1
  6
CONTINUOUS
370
    50
100
AcDbLine
 10
123.592432616
 20
159.5155329167
 30
0.0
 11
126.4791839619
 21
164.5155329167
 31
0.0
  0
LINE
  5
2A2
330
A
100
AcDbEntity
  8
1
  6
CONTINUOUS
370
    50
100
AcDbLine
 10
126.4791839619
 20
175.5155329167
 30
0.0
 11
123.592432616
 21
180.5155329167
 31
0.0
  0
ARC
  5
2A3
330
A
100
AcDbEntity
  8
1
  6
CONTINUOUS
370
    50
100
AcDbCircle
 10
193.692432616
 20
160.5805329167
 30
0.0
 40
1.5
100
AcDbArc
 50
0.0
 51
73.0710674448
  0
ARC
  5
2A4
330
A
100
AcDbEntity
  8
1
  6
CONTINUOUS
370
    50
100
AcDbCircle
 10
193.692432616
 20
179.4505329167
 30
0.0
 40
1.5
100
AcDbArc
 50
286.9289325552
 51
0.0
  0
ARC
  5
2A5
330
A
100
AcDbEntity
  8
1
  6
CONTINUOUS
370
    50
100
AcDbCircle
 10
145.692432616
 20
162.3155329167
 30
0.0
 40
0.5
100
AcDbArc
 50
180.0
 51
270.0
  0
ARC
  5
2A6
330
A
100
AcDbEntity
  8
1
  6
CONTINUOUS
370
    50
100
AcDbCircle
 10
145.692432616
 20
177.7155329167
 30
0.0
 40
0.5
100
AcDbArc
 50
90.0
 51
180.0
  0
LINE
  5
2A7
330
A
100
AcDbEntity
  8
1
  6
CONTINUOUS
370
    50
100
AcDbLine
 10
145.692432616
 20
161.8155329167
 30
0.0
 11
155.076962566
 21
161.8155329167
 31
0.0
  0
LINE
  5
2A8
330
A
100
AcDbEntity
  8
1
  6
CONTINUOUS
370
    50
100
AcDbLine
 10
155.076962566
 20
178.2155329167
 30
0.0
 11
145.692432616
 21
178.2155329167
 31
0.0
  0
LINE
  5
2A9
330
A
100
AcDbEntity
  8
1
  6
CONTINUOUS
370
    50
100
AcDbLine
 10
155.076962566
 20
161.8155329167
 30
0.0
 11
155.1924326198
 21
162.0155329167
 31
0.0
  0
LINE
  5
2AA
330
A
100
AcDbEntity
  8
1
  6
CONTINUOUS
370
    50
100
AcDbLine
 10
155.1924326198
 20
178.0155329167
 30
0.0
 11
155.076962566
 21
178.2155329167
 31
0.0
  0
LINE
  5
2AB
330
A
100
AcDbEntity
  8
1
  6
CONTINUOUS
370
    50
100
AcDbLine
 10
155.1924326198
 20
162.0155329167
 30
0.0
 11
194.1292105916
 21
162.0155329167
 31
0.0
  0
LINE
  5
2AC
330
A
100
AcDbEntity
  8
1
  6
CONTINUOUS
370
    50
100
AcDbLine
 10
194.1292105916
 20
178.0155329167
 30
0.0
 11
155.1924326198
 21
178.0155329167
 31
0.0
  0
LINE
  5
2AD
330
A
100
AcDbEntity
  8
1
  6
CONTINUOUS
370
    50
100
AcDbLine
 10
126.4791839619
 20
164.5155329167
 30
0.0
 11
145.192432616
 21
164.5155329167
 31
0.0
  0
LINE
  5
2AE
330
A
100
AcDbEntity
  8
1
  6
CONTINUOUS
370
    50
100
AcDbLine
 10
145.192432616
 20
175.5155329167
 30
0.0
 11
126.4791839619
 21
175.5155329167
 31
0.0
  0
LINE
  5
2AF
330
A
100
AcDbEntity
  8
1
  6
CONTINUOUS
370
    50
100
AcDbLine
 10
121.092432616
 20
207.5155329167
 30
0.0
 11
121.292432616
 21
207.3155329167
 31
0.0
  0
LINE
  5
2B0
330
A
100
AcDbEntity
  8
1
  6
CONTINUOUS
370
    50
100
AcDbLine
 10
131.292432616
 20
207.3155329167
 30
0.0
 11
131.492432616
 21
207.5155329167
 31
0.0
  0
LINE
  5
2B1
330
A
100
AcDbEntity
  8
1
  6
CONTINUOUS
370
    50
100
AcDbLine
 10
121.292432616
 20
207.3155329167
 30
0.0
 11
121.292432616
 21
203.1155329167
 31
0.0
  0
LINE
  5
2B2
330
A
100
AcDbEntity
  8
1
  6
CONTINUOUS
370
    50
100
AcDbLine
 10
131.292432616
 20
203.1155329167
 30
0.0
 11
131.292432616
 21
207.3155329167
 31
0.0
  0
ARC
  5
2B3
330
A
100
AcDbEntity
  8
1
  6
CONTINUOUS
370
    50
100
AcDbCircle
 10
121.592432616
 20
203.1155329167
 30
0.0
 40
0.3
100
AcDbArc
 50
180.0
 51
270.0
  0
ARC
  5
2B4
330
A
100
AcDbEntity
  8
1
  6
CONTINUOUS
370
    50
100
AcDbCircle
 10
130.992432616
 20
203.1155329167
 30
0.0
 40
0.3
100
AcDbArc
 50
270.0
 51
0.0
  0
LINE
  5
2B5
330
A
100
AcDbEntity
  8
1
  6
CONTINUOUS
370
    50
100
AcDbLine
 10
124.792432616
 20
202.8155329167
 30
0.0
 11
125.192432616
 21
202.4155329167
 31
0.0
  0
LINE
  5
2B6
330
A
100
AcDbEntity
  8
1
  6
CONTINUOUS
370
    50
100
AcDbLine
 10
127.392432616
 20
202.4155329167
 30
0.0
 11
127.792432616
 21
202.8155329167
 31
0.0
  0
LINE
  5
2B7
330
A
100
AcDbEntity
  8
1
  6
CONTINUOUS
370
    50
100
AcDbLine
 10
125.192432616
 20
196.4155329167
 30
0.0
 11
126.292432616
 21
196.015165659
 31
0.0
  0
LINE
  5
2B8
330
A
100
AcDbEntity
  8
1
  6
CONTINUOUS
370
    50
100
AcDbLine
 10
126.292432616
 20
196.015165659
 30
0.0
 11
127.392432616
 21
196.4155329167
 31
0.0
  0
LINE
  5
2B9
330
A
100
AcDbEntity
  8
1
  6
CONTINUOUS
370
    50
100
AcDbLine
 10
125.192432616
 20
199.0055329167
 30
0.0
 11
125.192432616
 21
196.4155329167
 31
0.0
  0
LINE
  5
2BA
330
A
100
AcDbEntity
  8
1
  6
CONTINUOUS
370
    50
100
AcDbLine
 10
127.392432616
 20
196.4155329167
 30
0.0
 11
127.392432616
 21
199.0055329167
 31
0.0
  0
LINE
  5
2BB
330
A
100
AcDbEntity
  8
1
  6
CONTINUOUS
370
    50
100
AcDbLine
 10
125.192432616
 20
202.4155329167
 30
0.0
 11
125.192432616
 21
199.0155329167
 31
0.0
  0
LINE
  5
2BC
330
A
100
AcDbEntity
  8
1
  6
CONTINUOUS
370
    50
100
AcDbLine
 10
127.392432616
 20
199.0155329167
 30
0.0
 11
127.392432616
 21
202.4155329167
 31
0.0
  0
LINE
  5
2BD
330
A
100
AcDbEntity
  8
1
  6
CONTINUOUS
370
    50
100
AcDbLine
 10
97.8942736505
 20
171.7640881409
 30
0.0
 11
122.8088776163
 21
178.9143048235
 31
0.0
  0
LINE
  5
2BE
330
A
100
AcDbEntity
  8
1
  6
CONTINUOUS
370
    50
100
AcDbLine
 10
121.6502920811
 20
182.9513432872
 30
0.0
 11
95.1040137143
 21
175.3328540389
 31
0.0
  0
LINE
  5
2BF
330
A
100
AcDbEntity
  8
1
  6
CONTINUOUS
370
    50
100
AcDbLine
 10
130.642432616
 20
185.6680087592
 30
0.0
 11
128.0946409761
 21
178.6680087592
 31
0.0
  0
LINE
  5
2C0
330
A
100
AcDbEntity
  8
1
  6
CONTINUOUS
370
    50
100
AcDbLine
 10
128.0946409761
 20
178.6680087592
 30
0.0
 11
130.642432616
 21
171.6680087592
 31
0.0
  0
LINE
  5
2C1
330
A
100
AcDbEntity
  8
1
  6
CONTINUOUS
370
    50
100
AcDbLine
 10
130.642432616
 20
171.6680087592
 30
0.0
 11
134.242432616
 21
171.6680087592
 31
0.0
  0
LINE
  5
2C2
330
A
100
AcDbEntity
  8
1
  6
CONTINUOUS
370
    50
100
AcDbLine
 10
134.242432616
 20
185.6680087592
 30
0.0
 11
130.642432616
 21
185.6680087592
 31
0.0
  0
LINE
  5
2C3
330
A
100
AcDbEntity
  8
1
  6
CONTINUOUS
370
    50
100
AcDbLine
 10
122.8165380608
 20
178.9165032866
 30
0.0
 11
132.0014109337
 21
181.5524605482
 31
0.0
  0
LINE
  5
2C4
330
A
100
AcDbEntity
  8
1
  6
CONTINUOUS
370
    50
100
AcDbLine
 10
124.8339832268
 20
183.8650275494
 30
0.0
 11
121.6579525255
 21
182.9535417503
 31
0.0
  0
LINE
  5
2C5
330
A
100
AcDbEntity
  8
1
  6
CONTINUOUS
370
    50
100
AcDbLine
 10
130.8428253985
 20
185.5894990119
 30
0.0
 11
124.8339832268
 21
183.8650275494
 31
0.0
  0
LINE
  5
2C6
330
A
100
AcDbEntity
  8
1
  6
CONTINUOUS
370
    50
100
AcDbLine
 10
116.692432616
 20
182.4036823872
 30
0.0
 11
123.8915123149
 21
180.3376258754
 31
0.0
  0
LINE
  5
2C7
330
A
100
AcDbEntity
  8
1
  6
CONTINUOUS
370
    50
100
AcDbLine
 10
125.1601349881
 20
183.9269382516
 30
0.0
 11
116.692432616
 21
186.3570754855
 31
0.0
  0
LINE
  5
2C8
330
A
100
AcDbEntity
  8
1
  6
CONTINUOUS
370
    50
100
AcDbLine
 10
132.5223600047
 20
181.1817838863
 30
0.0
 11
134.242432616
 21
181.6754257638
 31
0.0
  0
LINE
  5
2C9
330
A
100
AcDbEntity
  8
1
  6
CONTINUOUS
370
    50
100
AcDbLine
 10
134.242432616
 20
187.0853321089
 30
0.0
 11
131.0879207706
 21
186.1800219842
 31
0.0
  0
LINE
  5
2CA
330
A
100
AcDbEntity
  8
1
  6
CONTINUOUS
370
    50
100
AcDbLine
 10
130.1931772073
 20
184.9829139072
 30
0.0
 11
130.1201479051
 21
184.6226040266
 31
0.0
  0
LINE
  5
2CB
330
A
100
AcDbEntity
  8
1
  6
CONTINUOUS
370
    50
100
AcDbLine
 10
130.8759727803
 20
181.9889667162
 30
0.0
 11
131.1289603861
 21
181.7222200943
 31
0.0
  0
LINE
  5
2CC
330
A
100
AcDbEntity
  8
1
  6
CONTINUOUS
370
    50
100
AcDbLine
 10
116.492432616
 20
204.6405329167
 30
0.0
 11
116.492432616
 21
135.3905329167
 31
0.0
  0
LINE
  5
2CD
330
A
100
AcDbEntity
  8
1
  6
CONTINUOUS
370
    50
100
AcDbLine
 10
115.7353228926
 20
204.6873790232
 30
0.0
 11
115.7353228926
 21
135.3436868102
 31
0.0
  0
LINE
  5
2CE
330
A
100
AcDbEntity
  8
1
  6
CONTINUOUS
370
    50
100
AcDbLine
 10
115.9466320235
 20
204.6405329167
 30
0.0
 11
115.9466320235
 21
135.3905329167
 31
0.0
  0
LINE
  5
2CF
330
A
100
AcDbEntity
  8
1
  6
CONTINUOUS
370
    50
100
AcDbLine
 10
15.3746313116
 20
190.3790234447
 30
0.0
 11
15.3746313116
 21
149.6520423887
 31
0.0
  0
LINE
  5
2D0
330
A
100
AcDbEntity
  8
1
  6
CONTINUOUS
370
    50
100
AcDbLine
 10
62.492432616
 20
182.0155329167
 30
0.0
 11
25.667710291
 21
182.0155329167
 31
0.0
  0
LINE
  5
2D1
330
A
100
AcDbEntity
  8
1
  6
CONTINUOUS
370
    50
100
AcDbLine
 10
25.667710291
 20
158.0155329167
 30
0.0
 11
62.492432616
 21
158.0155329167
 31
0.0
  0
LINE
  5
2D2
330
A
100
AcDbEntity
  8
1
  6
CONTINUOUS
370
    50
100
AcDbLine
 10
62.492432616
 20
182.0155329167
 30
0.0
 11
62.492432616
 21
181.9497956611
 31
0.0
  0
LINE
  5
2D3
330
A
100
AcDbEntity
  8
1
  6
CONTINUOUS
370
    50
100
AcDbLine
 10
62.492432616
 20
181.9497956611
 30
0.0
 11
62.492432616
 21
158.0155329167
 31
0.0
  0
LINE
  5
2D4
330
A
100
AcDbEntity
  8
1
  6
CONTINUOUS
370
    50
100
AcDbLine
 10
120.6893175644
 20
180.9350225185
 30
0.0
 11
120.8984469209
 21
180.1813806552
 31
0.0
  0
LINE
  5
2D5
330
A
100
AcDbEntity
  8
1
  6
CONTINUOUS
370
    50
100
AcDbLine
 10
120.8984469209
 20
180.1813806552
 30
0.0
 11
121.23862719
 21
179.5015105085
 31
0.0
  0
LINE
  5
2D6
330
A
100
AcDbEntity
  8
1
  6
CONTINUOUS
370
    50
100
AcDbLine
 10
121.23862719
 20
179.5015105085
 30
0.0
 11
121.6765591568
 21
178.9619625052
 31
0.0
  0
LINE
  5
2D7
330
A
100
AcDbEntity
  8
1
  6
CONTINUOUS
370
    50
100
AcDbLine
 10
121.6765591568
 20
178.9619625052
 30
0.0
 11
122.1693749892
 21
178.615551363
 31
0.0
  0
LINE
  5
2D8
330
A
100
AcDbEntity
  8
1
  6
CONTINUOUS
370
    50
100
AcDbLine
 10
122.1693749892
 20
178.615551363
 30
0.0
 11
122.6688344398
 21
178.4961862183
 31
0.0
  0
LINE
  5
2D9
330
A
100
AcDbEntity
  8
1
  6
CONTINUOUS
370
    50
100
AcDbLine
 10
122.6688344398
 20
178.4961862183
 30
0.0
 11
123.1260469376
 21
178.615551363
 31
0.0
  0
LINE
  5
2DA
330
A
100
AcDbEntity
  8
1
  6
CONTINUOUS
370
    50
100
AcDbLine
 10
123.1260469376
 20
178.615551363
 30
0.0
 11
123.4962573379
 21
178.9619625052
 31
0.0
  0
LINE
  5
2DB
330
A
100
AcDbEntity
  8
1
  6
CONTINUOUS
370
    50
100
AcDbLine
 10
123.4962573379
 20
178.9619625052
 30
0.0
 11
123.7432268672
 21
179.5015105085
 31
0.0
  0
LINE
  5
2DC
330
A
100
AcDbEntity
  8
1
  6
CONTINUOUS
370
    50
100
AcDbLine
 10
123.7432268672
 20
179.5015105085
 30
0.0
 11
123.8427804272
 21
180.1813806552
 31
0.0
  0
LINE
  5
2DD
330
A
100
AcDbEntity
  8
1
  6
CONTINUOUS
370
    50
100
AcDbLine
 10
123.8427804272
 20
180.1813806552
 30
0.0
 11
123.7851730218
 21
180.9350225185
 31
0.0
  0
LINE
  5
2DE
330
A
100
AcDbEntity
  8
1
  6
CONTINUOUS
370
    50
100
AcDbLine
 10
123.7851730218
 20
180.9350225185
 30
0.0
 11
123.5760436654
 21
181.6886643817
 31
0.0
  0
LINE
  5
2DF
330
A
100
AcDbEntity
  8
1
  6
CONTINUOUS
370
    50
100
AcDbLine
 10
123.5760436654
 20
181.6886643817
 30
0.0
 11
123.2358633963
 21
182.3685345284
 31
0.0
  0
LINE
  5
2E0
330
A
100
AcDbEntity
  8
1
  6
CONTINUOUS
370
    50
100
AcDbLine
 10
123.2358633963
 20
182.3685345284
 30
0.0
 11
122.7979314294
 21
182.9080825317
 31
0.0
  0
LINE
  5
2E1
330
A
100
AcDbEntity
  8
1
  6
CONTINUOUS
370
    50
100
AcDbLine
 10
122.7979314294
 20
182.9080825317
 30
0.0
 11
122.3051155971
 21
183.2544936739
 31
0.0
  0
LINE
  5
2E2
330
A
100
AcDbEntity
  8
1
  6
CONTINUOUS
370
    50
100
AcDbLine
 10
122.3051155971
 20
183.2544936739
 30
0.0
 11
121.8056561465
 21
183.3738588186
 31
0.0
  0
LINE
  5
2E3
330
A
100
AcDbEntity
  8
1
  6
CONTINUOUS
370
    50
100
AcDbLine
 10
121.8056561465
 20
183.3738588186
 30
0.0
 11
121.3484436486
 21
183.2544936739
 31
0.0
  0
LINE
  5
2E4
330
A
100
AcDbEntity
  8
1
  6
CONTINUOUS
370
    50
100
AcDbLine
 10
121.3484436486
 20
183.2544936739
 30
0.0
 11
120.9782332483
 21
182.9080825317
 31
0.0
  0
LINE
  5
2E5
330
A
100
AcDbEntity
  8
1
  6
CONTINUOUS
370
    50
100
AcDbLine
 10
120.9782332483
 20
182.9080825317
 30
0.0
 11
120.7312637191
 21
182.3685345284
 31
0.0
  0
LINE
  5
2E6
330
A
100
AcDbEntity
  8
1
  6
CONTINUOUS
370
    50
100
AcDbLine
 10
120.7312637191
 20
182.3685345284
 30
0.0
 11
120.6317101591
 21
181.6886643817
 31
0.0
  0
LINE
  5
2E7
330
A
100
AcDbEntity
  8
1
  6
CONTINUOUS
370
    50
100
AcDbLine
 10
120.6317101591
 20
181.6886643817
 30
0.0
 11
120.6893175644
 21
180.9350225185
 31
0.0
  0
LINE
  5
2E8
330
A
100
AcDbEntity
  8
1
  6
CONTINUOUS
370
    50
100
AcDbLine
 10
130.1806082147
 20
183.6589183042
 30
0.0
 11
130.1230008093
 21
184.4125601675
 31
0.0
  0
LINE
  5
2E9
330
A
100
AcDbEntity
  8
1
  6
CONTINUOUS
370
    50
100
AcDbLine
 10
130.1230008093
 20
184.4125601675
 30
0.0
 11
130.2225543693
 21
185.0924303142
 31
0.0
  0
LINE
  5
2EA
330
A
100
AcDbEntity
  8
1
  6
CONTINUOUS
370
    50
100
AcDbLine
 10
130.2225543693
 20
185.0924303142
 30
0.0
 11
130.4695238986
 21
185.6319783175
 31
0.0
  0
LINE
  5
2EB
330
A
100
AcDbEntity
  8
1
  6
CONTINUOUS
370
    50
100
AcDbLine
 10
130.4695238986
 20
185.6319783175
 30
0.0
 11
130.8397342988
 21
185.9783894596
 31
0.0
  0
LINE
  5
2EC
330
A
100
AcDbEntity
  8
1
  6
CONTINUOUS
370
    50
100
AcDbLine
 10
130.8397342988
 20
185.9783894596
 30
0.0
 11
131.2969467967
 21
186.0977546043
 31
0.0
  0
LINE
  5
2ED
330
A
100
AcDbEntity
  8
1
  6
CONTINUOUS
370
    50
100
AcDbLine
 10
131.2969467967
 20
186.0977546043
 30
0.0
 11
131.7964062473
 21
185.9783894596
 31
0.0
  0
LINE
  5
2EE
330
A
100
AcDbEntity
  8
1
  6
CONTINUOUS
370
    50
100
AcDbLine
 10
131.7964062473
 20
185.9783894596
 30
0.0
 11
132.2892220797
 21
185.6319783175
 31
0.0
  0
LINE
  5
2EF
330
A
100
AcDbEntity
  8
1
  6
CONTINUOUS
370
    50
100
AcDbLine
 10
132.2892220797
 20
185.6319783175
 30
0.0
 11
132.7271540465
 21
185.0924303142
 31
0.0
  0
LINE
  5
2F0
330
A
100
AcDbEntity
  8
1
  6
CONTINUOUS
370
    50
100
AcDbLine
 10
132.7271540465
 20
185.0924303142
 30
0.0
 11
133.0673343156
 21
184.4125601675
 31
0.0
  0
LINE
  5
2F1
330
A
100
AcDbEntity
  8
1
  6
CONTINUOUS
370
    50
100
AcDbLine
 10
133.0673343156
 20
184.4125601675
 30
0.0
 11
133.2764636721
 21
183.6589183042
 31
0.0
  0
LINE
  5
2F2
330
A
100
AcDbEntity
  8
1
  6
CONTINUOUS
370
    50
100
AcDbLine
 10
133.2764636721
 20
183.6589183042
 30
0.0
 11
133.3340710774
 21
182.905276441
 31
0.0
  0
LINE
  5
2F3
330
A
100
AcDbEntity
  8
1
  6
CONTINUOUS
370
    50
100
AcDbLine
 10
133.3340710774
 20
182.905276441
 30
0.0
 11
133.2345175174
 21
182.2254062943
 31
0.0
  0
LINE
  5
2F4
330
A
100
AcDbEntity
  8
1
  6
CONTINUOUS
370
    50
100
AcDbLine
 10
133.2345175174
 20
182.2254062943
 30
0.0
 11
132.9875479881
 21
181.6858582909
 31
0.0
  0
LINE
  5
2F5
330
A
100
AcDbEntity
  8
1
  6
CONTINUOUS
370
    50
100
AcDbLine
 10
132.9875479881
 20
181.6858582909
 30
0.0
 11
132.6173375879
 21
181.3394471488
 31
0.0
  0
LINE
  5
2F6
330
A
100
AcDbEntity
  8
1
  6
CONTINUOUS
370
    50
100
AcDbLine
 10
132.6173375879
 20
181.3394471488
 30
0.0
 11
132.16012509
 21
181.2200820041
 31
0.0
  0
LINE
  5
2F7
330
A
100
AcDbEntity
  8
1
  6
CONTINUOUS
370
    50
100
AcDbLine
 10
132.16012509
 20
181.2200820041
 30
0.0
 11
131.6606656394
 21
181.3394471488
 31
0.0
  0
LINE
  5
2F8
330
A
100
AcDbEntity
  8
1
  6
CONTINUOUS
370
    50
100
AcDbLine
 10
131.6606656394
 20
181.3394471488
 30
0.0
 11
131.1678498071
 21
181.6858582909
 31
0.0
  0
LINE
  5
2F9
330
A
100
AcDbEntity
  8
1
  6
CONTINUOUS
370
    50
100
AcDbLine
 10
131.1678498071
 20
181.6858582909
 30
0.0
 11
130.7299178402
 21
182.2254062943
 31
0.0
  0
LINE
  5
2FA
330
A
100
AcDbEntity
  8
1
  6
CONTINUOUS
370
    50
100
AcDbLine
 10
130.7299178402
 20
182.2254062943
 30
0.0
 11
130.3897375711
 21
182.905276441
 31
0.0
  0
LINE
  5
2FB
330
A
100
AcDbEntity
  8
1
  6
CONTINUOUS
370
    50
100
AcDbLine
 10
130.3897375711
 20
182.905276441
 30
0.0
 11
130.1806082147
 21
183.6589183042
 31
0.0
  0
LINE
  5
2FC
330
A
100
AcDbEntity
  8
1
  6
CONTINUOUS
370
    50
100
AcDbLine
 10
123.7851730218
 20
159.0960433149
 30
0.0
 11
123.5760436654
 21
158.3424014517
 31
0.0
  0
LINE
  5
2FD
330
A
100
AcDbEntity
  8
1
  6
CONTINUOUS
370
    50
100
AcDbLine
 10
123.5760436654
 20
158.3424014517
 30
0.0
 11
123.2358633963
 21
157.662531305
 31
0.0
  0
LINE
  5
2FE
330
A
100
AcDbEntity
  8
1
  6
CONTINUOUS
370
    50
100
AcDbLine
 10
123.2358633963
 20
157.662531305
 30
0.0
 11
122.7979314294
 21
157.1229833016
 31
0.0
  0
LINE
  5
2FF
330
A
100
AcDbEntity
  8
1
  6
CONTINUOUS
370
    50
100
AcDbLine
 10
122.7979314294
 20
157.1229833016
 30
0.0
 11
122.3051155971
 21
156.7765721595
 31
0.0
  0
LINE
  5
300
330
A
100
AcDbEntity
  8
1
  6
CONTINUOUS
370
    50
100
AcDbLine
 10
122.3051155971
 20
156.7765721595
 30
0.0
 11
121.8056561465
 21
156.6572070148
 31
0.0
  0
LINE
  5
301
330
A
100
AcDbEntity
  8
1
  6
CONTINUOUS
370
    50
100
AcDbLine
 10
121.8056561465
 20
156.6572070148
 30
0.0
 11
121.3484436486
 21
156.7765721595
 31
0.0
  0
LINE
  5
302
330
A
100
AcDbEntity
  8
1
  6
CONTINUOUS
370
    50
100
AcDbLine
 10
121.3484436486
 20
156.7765721595
 30
0.0
 11
120.9782332483
 21
157.1229833016
 31
0.0
  0
LINE
  5
303
330
A
100
AcDbEntity
  8
1
  6
CONTINUOUS
370
    50
100
AcDbLine
 10
120.9782332483
 20
157.1229833016
 30
0.0
 11
120.7312637191
 21
157.662531305
 31
0.0
  0
LINE
  5
304
330
A
100
AcDbEntity
  8
1
  6
CONTINUOUS
370
    50
100
AcDbLine
 10
120.7312637191
 20
157.662531305
 30
0.0
 11
120.6317101591
 21
158.3424014517
 31
0.0
  0
LINE
  5
305
330
A
100
AcDbEntity
  8
1
  6
CONTINUOUS
370
    50
100
AcDbLine
 10
120.6317101591
 20
158.3424014517
 30
0.0
 11
120.6893175644
 21
159.0960433149
 31
0.0
  0
LINE
  5
306
330
A
100
AcDbEntity
  8
1
  6
CONTINUOUS
370
    50
100
AcDbLine
 10
120.6893175644
 20
159.0960433149
 30
0.0
 11
120.8984469209
 21
159.8496851782
 31
0.0
  0
LINE
  5
307
330
A
100
AcDbEntity
  8
1
  6
CONTINUOUS
370
    50
100
AcDbLine
 10
120.8984469209
 20
159.8496851782
 30
0.0
 11
121.23862719
 21
160.5295553249
 31
0.0
  0
LINE
  5
308
330
A
100
AcDbEntity
  8
1
  6
CONTINUOUS
370
    50
100
AcDbLine
 10
121.23862719
 20
160.5295553249
 30
0.0
 11
121.6765591568
 21
161.0691033282
 31
0.0
  0
LINE
  5
309
330
A
100
AcDbEntity
  8
1
  6
CONTINUOUS
370
    50
100
AcDbLine
 10
121.6765591568
 20
161.0691033282
 30
0.0
 11
122.1693749892
 21
161.4155144703
 31
0.0
  0
LINE
  5
30A
330
A
100
AcDbEntity
  8
1
  6
CONTINUOUS
370
    50
100
AcDbLine
 10
122.1693749892
 20
161.4155144703
 30
0.0
 11
122.6688344398
 21
161.534879615
 31
0.0
  0
LINE
  5
30B
330
A
100
AcDbEntity
  8
1
  6
CONTINUOUS
370
    50
100
AcDbLine
 10
122.6688344398
 20
161.534879615
 30
0.0
 11
123.1260469376
 21
161.4155144703
 31
0.0
  0
LINE
  5
30C
330
A
100
AcDbEntity
  8
1
  6
CONTINUOUS
370
    50
100
AcDbLine
 10
123.1260469376
 20
161.4155144703
 30
0.0
 11
123.4962573379
 21
161.0691033282
 31
0.0
  0
LINE
  5
30D
330
A
100
AcDbEntity
  8
1
  6
CONTINUOUS
370
    50
100
AcDbLine
 10
123.4962573379
 20
161.0691033282
 30
0.0
 11
123.7432268672
 21
160.5295553249
 31
0.0
  0
LINE
  5
30E
330
A
100
AcDbEntity
  8
1
  6
CONTINUOUS
370
    50
100
AcDbLine
 10
123.7432268672
 20
160.5295553249
 30
0.0
 11
123.8427804272
 21
159.8496851782
 31
0.0
  0
LINE
  5
30F
330
A
100
AcDbEntity
  8
1
  6
CONTINUOUS
370
    50
100
AcDbLine
 10
123.8427804272
 20
159.8496851782
 30
0.0
 11
123.7851730218
 21
159.0960433149
 31
0.0
  0
LINE
  5
310
330
A
100
AcDbEntity
  8
1
  6
CONTINUOUS
370
    50
100
AcDbLine
 10
133.2764636721
 20
156.3721475292
 30
0.0
 11
133.3340710774
 21
157.1257893924
 31
0.0
  0
LINE
  5
311
330
A
100
AcDbEntity
  8
1
  6
CONTINUOUS
370
    50
100
AcDbLine
 10
133.3340710774
 20
157.1257893924
 30
0.0
 11
133.2345175174
 21
157.8056595391
 31
0.0
  0
LINE
  5
312
330
A
100
AcDbEntity
  8
1
  6
CONTINUOUS
370
    50
100
AcDbLine
 10
133.2345175174
 20
157.8056595391
 30
0.0
 11
132.9875479881
 21
158.3452075425
 31
0.0
  0
LINE
  5
313
330
A
100
AcDbEntity
  8
1
  6
CONTINUOUS
370
    50
100
AcDbLine
 10
132.9875479881
 20
158.3452075425
 30
0.0
 11
132.6173375879
 21
158.6916186846
 31
0.0
  0
LINE
  5
314
330
A
100
AcDbEntity
  8
1
  6
CONTINUOUS
370
    50
100
AcDbLine
 10
132.6173375879
 20
158.6916186846
 30
0.0
 11
132.16012509
 21
158.8109838293
 31
0.0
  0
LINE
  5
315
330
A
100
AcDbEntity
  8
1
  6
CONTINUOUS
370
    50
100
AcDbLine
 10
132.16012509
 20
158.8109838293
 30
0.0
 11
131.6606656394
 21
158.6916186846
 31
0.0
  0
LINE
  5
316
330
A
100
AcDbEntity
  8
1
  6
CONTINUOUS
370
    50
100
AcDbLine
 10
131.6606656394
 20
158.6916186846
 30
0.0
 11
131.1678498071
 21
158.3452075425
 31
0.0
  0
LINE
  5
317
330
A
100
AcDbEntity
  8
1
  6
CONTINUOUS
370
    50
100
AcDbLine
 10
131.1678498071
 20
158.3452075425
 30
0.0
 11
130.7299178402
 21
157.8056595391
 31
0.0
  0
LINE
  5
318
330
A
100
AcDbEntity
  8
1
  6
CONTINUOUS
370
    50
100
AcDbLine
 10
130.7299178402
 20
157.8056595391
 30
0.0
 11
130.3897375711
 21
157.1257893924
 31
0.0
  0
LINE
  5
319
330
A
100
AcDbEntity
  8
1
  6
CONTINUOUS
370
    50
100
AcDbLine
 10
130.3897375711
 20
157.1257893924
 30
0.0
 11
130.1806082147
 21
156.3721475292
 31
0.0
  0
LINE
  5
31A
330
A
100
AcDbEntity
  8
1
  6
CONTINUOUS
370
    50
100
AcDbLine
 10
130.1806082147
 20
156.3721475292
 30
0.0
 11
130.1230008093
 21
155.6185056659
 31
0.0
  0
LINE
  5
31B
330
A
100
AcDbEntity
  8
1
  6
CONTINUOUS
370
    50
100
AcDbLine
 10
130.1230008093
 20
155.6185056659
 30
0.0
 11
130.2225543693
 21
154.9386355192
 31
0.0
  0
LINE
  5
31C
330
A
100
AcDbEntity
  8
1
  6
CONTINUOUS
370
    50
100
AcDbLine
 10
130.2225543693
 20
154.9386355192
 30
0.0
 11
130.4695238986
 21
154.3990875159
 31
0.0
  0
LINE
  5
31D
330
A
100
AcDbEntity
  8
1
  6
CONTINUOUS
370
    50
100
AcDbLine
 10
130.4695238986
 20
154.3990875159
 30
0.0
 11
130.8397342988
 21
154.0526763737
 31
0.0
  0
LINE
  5
31E
330
A
100
AcDbEntity
  8
1
  6
CONTINUOUS
370
    50
100
AcDbLine
 10
130.8397342988
 20
154.0526763737
 30
0.0
 11
131.2969467967
 21
153.933311229
 31
0.0
  0
LINE
  5
31F
330
A
100
AcDbEntity
  8
1
  6
CONTINUOUS
370
    50
100
AcDbLine
 10
131.2969467967
 20
153.933311229
 30
0.0
 11
131.7964062473
 21
154.0526763737
 31
0.0
  0
LINE
  5
320
330
A
100
AcDbEntity
  8
1
  6
CONTINUOUS
370
    50
100
AcDbLine
 10
131.7964062473
 20
154.0526763737
 30
0.0
 11
132.2892220797
 21
154.3990875159
 31
0.0
  0
LINE
  5
321
330
A
100
AcDbEntity
  8
1
  6
CONTINUOUS
370
    50
100
AcDbLine
 10
132.2892220797
 20
154.3990875159
 30
0.0
 11
132.7271540465
 21
154.9386355192
 31
0.0
  0
LINE
  5
322
330
A
100
AcDbEntity
  8
1
  6
CONTINUOUS
370
    50
100
AcDbLine
 10
132.7271540465
 20
154.9386355192
 30
0.0
 11
133.0673343156
 21
155.6185056659
 31
0.0
  0
LINE
  5
323
330
A
100
AcDbEntity
  8
1
  6
CONTINUOUS
370
    50
100
AcDbLine
 10
133.0673343156
 20
155.6185056659
 30
0.0
 11
133.2764636721
 21
156.3721475292
 31
0.0
  0
LINE
  5
324
330
A
100
AcDbEntity
  8
1
  6
CONTINUOUS
370
    50
100
AcDbLine
 10
123.7775125774
 20
159.098241778
 30
0.0
 11
123.5683832209
 21
158.3445999148
 31
0.0
  0
LINE
  5
325
330
A
100
AcDbEntity
  8
1
  6
CONTINUOUS
370
    50
100
AcDbLine
 10
123.5683832209
 20
158.3445999148
 30
0.0
 11
123.2282029518
 21
157.6647297681
 31
0.0
  0
LINE
  5
326
330
A
100
AcDbEntity
  8
1
  6
CONTINUOUS
370
    50
100
AcDbLine
 10
123.2282029518
 20
157.6647297681
 30
0.0
 11
122.790270985
 21
157.1251817647
 31
0.0
  0
LINE
  5
327
330
A
100
AcDbEntity
  8
1
  6
CONTINUOUS
370
    50
100
AcDbLine
 10
122.790270985
 20
157.1251817647
 30
0.0
 11
122.2974551526
 21
156.7787706226
 31
0.0
  0
LINE
  5
328
330
A
100
AcDbEntity
  8
1
  6
CONTINUOUS
370
    50
100
AcDbLine
 10
122.2974551526
 20
156.7787706226
 30
0.0
 11
121.797995702
 21
156.6594054779
 31
0.0
  0
LINE
  5
329
330
A
100
AcDbEntity
  8
1
  6
CONTINUOUS
370
    50
100
AcDbLine
 10
121.797995702
 20
156.6594054779
 30
0.0
 11
121.3407832042
 21
156.7787706226
 31
0.0
  0
LINE
  5
32A
330
A
100
AcDbEntity
  8
1
  6
CONTINUOUS
370
    50
100
AcDbLine
 10
121.3407832042
 20
156.7787706226
 30
0.0
 11
120.9705728039
 21
157.1251817647
 31
0.0
  0
LINE
  5
32B
330
A
100
AcDbEntity
  8
1
  6
CONTINUOUS
370
    50
100
AcDbLine
 10
120.9705728039
 20
157.1251817647
 30
0.0
 11
120.7236032747
 21
157.6647297681
 31
0.0
  0
LINE
  5
32C
330
A
100
AcDbEntity
  8
1
  6
CONTINUOUS
370
    50
100
AcDbLine
 10
120.7236032747
 20
157.6647297681
 30
0.0
 11
120.6240497147
 21
158.3445999148
 31
0.0
  0
LINE
  5
32D
330
A
100
AcDbEntity
  8
1
  6
CONTINUOUS
370
    50
100
AcDbLine
 10
120.6240497147
 20
158.3445999148
 30
0.0
 11
120.68165712
 21
159.098241778
 31
0.0
  0
LINE
  5
32E
330
A
100
AcDbEntity
  8
1
  6
CONTINUOUS
370
    50
100
AcDbLine
 10
120.68165712
 20
159.098241778
 30
0.0
 11
120.8907864765
 21
159.8518836413
 31
0.0
  0
LINE
  5
32F
330
A
100
AcDbEntity
  8
1
  6
CONTINUOUS
370
    50
100
AcDbLine
 10
120.8907864765
 20
159.8518836413
 30
0.0
 11
121.2309667456
 21
160.531753788
 31
0.0
  0
LINE
  5
330
330
A
100
AcDbEntity
  8
1
  6
CONTINUOUS
370
    50
100
AcDbLine
 10
121.2309667456
 20
160.531753788
 30
0.0
 11
121.6688987124
 21
161.0713017913
 31
0.0
  0
LINE
  5
331
330
A
100
AcDbEntity
  8
1
  6
CONTINUOUS
370
    50
100
AcDbLine
 10
121.6688987124
 20
161.0713017913
 30
0.0
 11
122.1617145447
 21
161.4177129334
 31
0.0
  0
LINE
  5
332
330
A
100
AcDbEntity
  8
1
  6
CONTINUOUS
370
    50
100
AcDbLine
 10
122.1617145447
 20
161.4177129334
 30
0.0
 11
122.6611739953
 21
161.5370780781
 31
0.0
  0
LINE
  5
333
330
A
100
AcDbEntity
  8
1
  6
CONTINUOUS
370
    50
100
AcDbLine
 10
122.6611739953
 20
161.5370780781
 30
0.0
 11
123.1183864932
 21
161.4177129334
 31
0.0
  0
LINE
  5
334
330
A
100
AcDbEntity
  8
1
  6
CONTINUOUS
370
    50
100
AcDbLine
 10
123.1183864932
 20
161.4177129334
 30
0.0
 11
123.4885968935
 21
161.0713017913
 31
0.0
  0
LINE
  5
335
330
A
100
AcDbEntity
  8
1
  6
CONTINUOUS
370
    50
100
AcDbLine
 10
123.4885968935
 20
161.0713017913
 30
0.0
 11
123.7355664227
 21
160.531753788
 31
0.0
  0
LINE
  5
336
330
A
100
AcDbEntity
  8
1
  6
CONTINUOUS
370
    50
100
AcDbLine
 10
123.7355664227
 20
160.531753788
 30
0.0
 11
123.8351199827
 21
159.8518836413
 31
0.0
  0
LINE
  5
337
330
A
100
AcDbEntity
  8
1
  6
CONTINUOUS
370
    50
100
AcDbLine
 10
123.8351199827
 20
159.8518836413
 30
0.0
 11
123.7775125774
 21
159.098241778
 31
0.0
  0
LINE
  5
338
330
A
100
AcDbEntity
  8
1
  6
CONTINUOUS
370
    50
100
AcDbLine
 10
133.2764636721
 20
156.3721475292
 30
0.0
 11
133.3340710774
 21
157.1257893924
 31
0.0
  0
LINE
  5
339
330
A
100
AcDbEntity
  8
1
  6
CONTINUOUS
370
    50
100
AcDbLine
 10
133.3340710774
 20
157.1257893924
 30
0.0
 11
133.2345175174
 21
157.8056595391
 31
0.0
  0
LINE
  5
33A
330
A
100
AcDbEntity
  8
1
  6
CONTINUOUS
370
    50
100
AcDbLine
 10
133.2345175174
 20
157.8056595391
 30
0.0
 11
132.9875479881
 21
158.3452075425
 31
0.0
  0
LINE
  5
33B
330
A
100
AcDbEntity
  8
1
  6
CONTINUOUS
370
    50
100
AcDbLine
 10
132.9875479881
 20
158.3452075425
 30
0.0
 11
132.6173375879
 21
158.6916186846
 31
0.0
  0
LINE
  5
33C
330
A
100
AcDbEntity
  8
1
  6
CONTINUOUS
370
    50
100
AcDbLine
 10
132.6173375879
 20
158.6916186846
 30
0.0
 11
132.16012509
 21
158.8109838293
 31
0.0
  0
LINE
  5
33D
330
A
100
AcDbEntity
  8
1
  6
CONTINUOUS
370
    50
100
AcDbLine
 10
132.16012509
 20
158.8109838293
 30
0.0
 11
131.6606656394
 21
158.6916186846
 31
0.0
  0
LINE
  5
33E
330
A
100
AcDbEntity
  8
1
  6
CONTINUOUS
370
    50
100
AcDbLine
 10
131.6606656394
 20
158.6916186846
 30
0.0
 11
131.1678498071
 21
158.3452075425
 31
0.0
  0
LINE
  5
33F
330
A
100
AcDbEntity
  8
1
  6
CONTINUOUS
370
    50
100
AcDbLine
 10
131.1678498071
 20
158.3452075425
 30
0.0
 11
130.7299178402
 21
157.8056595391
 31
0.0
  0
LINE
  5
340
330
A
100
AcDbEntity
  8
1
  6
CONTINUOUS
370
    50
100
AcDbLine
 10
130.7299178402
 20
157.8056595391
 30
0.0
 11
130.3897375711
 21
157.1257893924
 31
0.0
  0
LINE
  5
341
330
A
100
AcDbEntity
  8
1
  6
CONTINUOUS
370
    50
100
AcDbLine
 10
130.3897375711
 20
157.1257893924
 30
0.0
 11
130.1806082147
 21
156.3721475292
 31
0.0
  0
LINE
  5
342
330
A
100
AcDbEntity
  8
1
  6
CONTINUOUS
370
    50
100
AcDbLine
 10
130.1806082147
 20
156.3721475292
 30
0.0
 11
130.1230008093
 21
155.6185056659
 31
0.0
  0
LINE
  5
343
330
A
100
AcDbEntity
  8
1
  6
CONTINUOUS
370
    50
100
AcDbLine
 10
130.1230008093
 20
155.6185056659
 30
0.0
 11
130.2225543693
 21
154.9386355192
 31
0.0
  0
LINE
  5
344
330
A
100
AcDbEntity
  8
1
  6
CONTINUOUS
370
    50
100
AcDbLine
 10
130.2225543693
 20
154.9386355192
 30
0.0
 11
130.4695238986
 21
154.3990875159
 31
0.0
  0
LINE
  5
345
330
A
100
AcDbEntity
  8
1
  6
CONTINUOUS
370
    50
100
AcDbLine
 10
130.4695238986
 20
154.3990875159
 30
0.0
 11
130.8397342988
 21
154.0526763737
 31
0.0
  0
LINE
  5
346
330
A
100
AcDbEntity
  8
1
  6
CONTINUOUS
370
    50
100
AcDbLine
 10
130.8397342988
 20
154.0526763737
 30
0.0
 11
131.2969467967
 21
153.933311229
 31
0.0
  0
LINE
  5
347
330
A
100
AcDbEntity
  8
1
  6
CONTINUOUS
370
    50
100
AcDbLine
 10
131.2969467967
 20
153.933311229
 30
0.0
 11
131.7964062473
 21
154.0526763737
 31
0.0
  0
LINE
  5
348
330
A
100
AcDbEntity
  8
1
  6
CONTINUOUS
370
    50
100
AcDbLine
 10
131.7964062473
 20
154.0526763737
 30
0.0
 11
132.2892220797
 21
154.3990875159
 31
0.0
  0
LINE
  5
349
330
A
100
AcDbEntity
  8
1
  6
CONTINUOUS
370
    50
100
AcDbLine
 10
132.2892220797
 20
154.3990875159
 30
0.0
 11
132.7271540465
 21
154.9386355192
 31
0.0
  0
LINE
  5
34A
330
A
100
AcDbEntity
  8
1
  6
CONTINUOUS
370
    50
100
AcDbLine
 10
132.7271540465
 20
154.9386355192
 30
0.0
 11
133.0673343156
 21
155.6185056659
 31
0.0
  0
LINE
  5
34B
330
A
100
AcDbEntity
  8
1
  6
CONTINUOUS
370
    50
100
AcDbLine
 10
133.0673343156
 20
155.6185056659
 30
0.0
 11
133.2764636721
 21
156.3721475292
 31
0.0
  0
LINE
  5
34C
330
A
100
AcDbEntity
  8
1
  6
CONTINUOUS
370
    50
100
AcDbLine
 10
123.7851730218
 20
159.0960433149
 30
0.0
 11
123.5760436654
 21
158.3424014517
 31
0.0
  0
LINE
  5
34D
330
A
100
AcDbEntity
  8
1
  6
CONTINUOUS
370
    50
100
AcDbLine
 10
123.5760436654
 20
158.3424014517
 30
0.0
 11
123.2358633963
 21
157.662531305
 31
0.0
  0
LINE
  5
34E
330
A
100
AcDbEntity
  8
1
  6
CONTINUOUS
370
    50
100
AcDbLine
 10
123.2358633963
 20
157.662531305
 30
0.0
 11
122.7979314294
 21
157.1229833016
 31
0.0
  0
LINE
  5
34F
330
A
100
AcDbEntity
  8
1
  6
CONTINUOUS
370
    50
100
AcDbLine
 10
122.7979314294
 20
157.1229833016
 30
0.0
 11
122.3051155971
 21
156.7765721595
 31
0.0
  0
LINE
  5
350
330
A
100
AcDbEntity
  8
1
  6
CONTINUOUS
370
    50
100
AcDbLine
 10
122.3051155971
 20
156.7765721595
 30
0.0
 11
121.8056561465
 21
156.6572070148
 31
0.0
  0
LINE
  5
351
330
A
100
AcDbEntity
  8
1
  6
CONTINUOUS
370
    50
100
AcDbLine
 10
121.8056561465
 20
156.6572070148
 30
0.0
 11
121.3484436486
 21
156.7765721595
 31
0.0
  0
LINE
  5
352
330
A
100
AcDbEntity
  8
1
  6
CONTINUOUS
370
    50
100
AcDbLine
 10
121.3484436486
 20
156.7765721595
 30
0.0
 11
120.9782332483
 21
157.1229833016
 31
0.0
  0
LINE
  5
353
330
A
100
AcDbEntity
  8
1
  6
CONTINUOUS
370
    50
100
AcDbLine
 10
120.9782332483
 20
157.1229833016
 30
0.0
 11
120.7312637191
 21
157.662531305
 31
0.0
  0
LINE
  5
354
330
A
100
AcDbEntity
  8
1
  6
CONTINUOUS
370
    50
100
AcDbLine
 10
120.7312637191
 20
157.662531305
 30
0.0
 11
120.6317101591
 21
158.3424014517
 31
0.0
  0
LINE
  5
355
330
A
100
AcDbEntity
  8
1
  6
CONTINUOUS
370
    50
100
AcDbLine
 10
120.6317101591
 20
158.3424014517
 30
0.0
 11
120.6893175644
 21
159.0960433149
 31
0.0
  0
LINE
  5
356
330
A
100
AcDbEntity
  8
1
  6
CONTINUOUS
370
    50
100
AcDbLine
 10
120.6893175644
 20
159.0960433149
 30
0.0
 11
120.8984469209
 21
159.8496851782
 31
0.0
  0
LINE
  5
357
330
A
100
AcDbEntity
  8
1
  6
CONTINUOUS
370
    50
100
AcDbLine
 10
120.8984469209
 20
159.8496851782
 30
0.0
 11
121.23862719
 21
160.5295553249
 31
0.0
  0
LINE
  5
358
330
A
100
AcDbEntity
  8
1
  6
CONTINUOUS
370
    50
100
AcDbLine
 10
121.23862719
 20
160.5295553249
 30
0.0
 11
121.6765591568
 21
161.0691033282
 31
0.0
  0
LINE
  5
359
330
A
100
AcDbEntity
  8
1
  6
CONTINUOUS
370
    50
100
AcDbLine
 10
121.6765591568
 20
161.0691033282
 30
0.0
 11
122.1693749892
 21
161.4155144703
 31
0.0
  0
LINE
  5
35A
330
A
100
AcDbEntity
  8
1
  6
CONTINUOUS
370
    50
100
AcDbLine
 10
122.1693749892
 20
161.4155144703
 30
0.0
 11
122.6688344398
 21
161.534879615
 31
0.0
  0
LINE
  5
35B
330
A
100
AcDbEntity
  8
1
  6
CONTINUOUS
370
    50
100
AcDbLine
 10
122.6688344398
 20
161.534879615
 30
0.0
 11
123.1260469376
 21
161.4155144703
 31
0.0
  0
LINE
  5
35C
330
A
100
AcDbEntity
  8
1
  6
CONTINUOUS
370
    50
100
AcDbLine
 10
123.1260469376
 20
161.4155144703
 30
0.0
 11
123.4962573379
 21
161.0691033282
 31
0.0
  0
LINE
  5
35D
330
A
100
AcDbEntity
  8
1
  6
CONTINUOUS
370
    50
100
AcDbLine
 10
123.4962573379
 20
161.0691033282
 30
0.0
 11
123.7432268672
 21
160.5295553249
 31
0.0
  0
LINE
  5
35E
330
A
100
AcDbEntity
  8
1
  6
CONTINUOUS
370
    50
100
AcDbLine
 10
123.7432268672
 20
160.5295553249
 30
0.0
 11
123.8427804272
 21
159.8496851782
 31
0.0
  0
LINE
  5
35F
330
A
100
AcDbEntity
  8
1
  6
CONTINUOUS
370
    50
100
AcDbLine
 10
123.8427804272
 20
159.8496851782
 30
0.0
 11
123.7851730218
 21
159.0960433149
 31
0.0
  0
LINE
  5
360
330
A
100
AcDbEntity
  8
1
  6
CONTINUOUS
370
    50
100
AcDbLine
 10
145.1891839619
 20
176.0155329167
 30
0.0
 11
126.4791839619
 21
176.0155329167
 31
0.0
  0
LINE
  5
361
330
A
100
AcDbEntity
  8
1
  6
CONTINUOUS
370
    50
100
AcDbLine
 10
126.4791839619
 20
164.0155329167
 30
0.0
 11
145.1891839619
 21
164.0155329167
 31
0.0
  0
LINE
  5
362
330
A
100
AcDbEntity
  8
1
  6
CONTINUOUS
370
    50
100
AcDbLine
 10
145.1891839619
 20
176.0155329167
 30
0.0
 11
145.1891839619
 21
175.9002445991
 31
0.0
  0
LINE
  5
363
330
A
100
AcDbEntity
  8
1
  6
CONTINUOUS
370
    50
100
AcDbLine
 10
145.1891839619
 20
175.9002445991
 30
0.0
 11
145.1891839619
 21
164.0155329167
 31
0.0
  0
ENDSEC
  0
SECTION
  2
OBJECTS
  0
DICTIONARY
  5
19
330
0
100
AcDbDictionary
281
     1
  3
ACAD_GROUP
350
1A
  3
ACAD_LAYOUT
350
388
  3
ACAD_MATERIAL
350
39C
  3
ACAD_MLEADERSTYLE
350
3A4
  3
ACAD_MLINESTYLE
350
1B
  3
ACAD_SCALELIST
350
366
  3
ACAD_VISUALSTYLE
350
38B
  3
ACDB_RECOMPOSE_DATA
350
3D1
  3
AcDbVariableDictionary
350
3A2
  0
DICTIONARY
  5
3A8
330
7
100
AcDbDictionary
280
     1
281
     1
  3
ACAD_XREC_ROUNDTRIP
360
3A9
  0
DICTIONARY
  5
1A
102
{ACAD_REACTORS
330
19
102
}
330
19
100
AcDbDictionary
281
     1
  0
DICTIONARY
  5
388
102
{ACAD_REACTORS
330
19
102
}
330
19
100
AcDbDictionary
281
     1
  3
Layout1
350
38A
  3
Model
350
389
  0
DICTIONARY
  5
39C
102
{ACAD_REACTORS
330
19
102
}
330
19
100
AcDbDictionary
281
     1
  3
ByBlock
350
39E
  3
ByLayer
350
39D
  3
Global
350
39F
  0
DICTIONARY
  5
3A4
102
{ACAD_REACTORS
330
19
102
}
330
19
100
AcDbDictionary
281
     1
  0
DICTIONARY
  5
1B
102
{ACAD_REACTORS
330
19
102
}
330
19
100
AcDbDictionary
281
     1
  3
STANDARD
350
1C
  0
DICTIONARY
  5
366
102
{ACAD_REACTORS
330
19
102
}
330
19
100
AcDbDictionary
281
     1
  3
A0
350
367
  3
A1
350
368
  3
A2
350
369
  3
A3
350
36A
  3
A4
350
36B
  3
A5
350
36C
  3
A6
350
36D
  3
A7
350
36E
  3
A8
350
36F
  3
A9
350
370
  3
B0
350
371
  3
B1
350
372
  3
B2
350
373
  3
B3
350
374
  3
B4
350
375
  3
B5
350
376
  3
B6
350
377
  3
B7
350
378
  3
B8
350
379
  3
B9
350
37A
  3
C0
350
37B
  3
C1
350
37C
  3
C2
350
37D
  3
C3
350
37E
  3
C4
350
37F
  3
C5
350
380
  3
C6
350
381
  3
C7
350
382
  3
C8
350
383
  3
C9
350
384
  3
D0
350
385
  3
D1
350
386
  3
D2
350
387
  0
DICTIONARY
  5
38B
102
{ACAD_REACTORS
330
19
102
}
330
19
100
AcDbDictionary
281
     1
  3
2dWireframe
350
390
  3
3D Hidden
350
392
  3
3dWireframe
350
391
  3
Basic
350
393
  3
Brighten
350
397
  3
ColorChange
350
39B
  3
Conceptual
350
395
  3
Dim
350
396
  3
Facepattern
350
39A
  3
Flat
350
38C
  3
FlatWithEdges
350
38D
  3
Gouraud
350
38E
  3
GouraudWithEdges
350
38F
  3
Linepattern
350
399
  3
Realistic
350
394
  3
Thicken
350
398
  0
XRECORD
  5
3D1
102
{ACAD_REACTORS
330
19
102
}
330
19
100
AcDbXrecord
280
     1
  0
DICTIONARY
  5
3A2
102
{ACAD_REACTORS
330
19
102
}
330
19
100
AcDbDictionary
281
     1
  3
CANNOSCALE
350
3AA
  3
DIMASSOC
350
3A6
  3
HIDETEXT
350
3A7
  3
MSLTSCALE
350
3A5
  0
XRECORD
  5
3A9
102
{ACAD_REACTORS
330
3A8
102
}
330
3A8
100
AcDbXrecord
280
     1
102
VTR_0.000_0.000_1.000_1.000_VISUALSTYLE
340
390
102
VTR_0.000_0.000_1.000_1.000_GRIDDISPLAY
 70
     3
102
VTR_0.000_0.000_1.000_1.000_GRIDMAJOR
 70
     5
102
VTR_0.000_0.000_1.000_1.000_DEFAULTLIGHTING
280
     1
102
VTR_0.000_0.000_1.000_1.000_DEFAULTLIGHTINGTYPE
 70
     1
102
VTR_0.000_0.000_1.000_1.000_BRIGHTNESS
141
0.0
102
VTR_0.000_0.000_1.000_1.000_CONTRAST
142
0.0
  0
LAYOUT
  5
38A
102
{ACAD_REACTORS
330
388
102
}
330
388
100
AcDbPlotSettings
  1

  2
none_device
  4

  6

 40
0.0
 41
0.0
 42
0.0
 43
0.0
 44
0.0
 45
0.0
 46
0.0
 47
0.0
 48
0.0
 49
0.0
140
0.0
141
0.0
142
1.0
143
1.0
 70
   688
 72
     0
 73
     0
 74
     5
  7

 75
    16
147
1.0
148
0.0
149
0.0
100
AcDbLayout
  1
Layout1
 70
     1
 71
     1
 10
0.0
 20
0.0
 11
12.0
 21
9.0
 12
0.0
 22
0.0
 32
0.0
 14
1.000000000000000E+20
 24
1.000000000000000E+20
 34
1.000000000000000E+20
 15
-1.000000000000000E+20
 25
-1.000000000000000E+20
 35
-1.000000000000000E+20
146
0.0
 13
0.0
 23
0.0
 33
0.0
 16
1.0
 26
0.0
 36
0.0
 17
0.0
 27
1.0
 37
0.0
 76
     0
330
B
  0
LAYOUT
  5
389
102
{ACAD_REACTORS
330
388
102
}
330
388
100
AcDbPlotSettings
  1

  2
none_device
  4

  6

 40
0.0
 41
0.0
 42
0.0
 43
0.0
 44
0.0
 45
0.0
 46
0.0
 47
0.0
 48
0.0
 49
0.0
140
0.0
141
0.0
142
1.0
143
1.0
 70
  1712
 72
     0
 73
     0
 74
     0
  7

 75
     0
147
1.0
148
2667.54428576817
149
0.0
100
AcDbLayout
  1
Model
 70
     1
 71
     0
 10
0.0
 20
0.0
 11
0.0
 21
0.0
 12
0.0
 22
0.0
 32
0.0
 14
0.0
 24
0.0
 34
0.0
 15
210.0
 25
297.0
 35
0.0
146
0.0
 13
0.0
 23
0.0
 33
0.0
 16
1.0
 26
0.0
 36
0.0
 17
0.0
 27
1.0
 37
0.0
 76
     0
330
A
331
15
  0
MATERIAL
  5
39E
102
{ACAD_REACTORS
330
39C
102
}
102
{ACAD_XDICTIONARY
360
3CD
102
}
330
39C
100
AcDbMaterial
  1
ByBlock
  0
MATERIAL
  5
39D
102
{ACAD_REACTORS
330
39C
102
}
102
{ACAD_XDICTIONARY
360
3CB
102
}
330
39C
100
AcDbMaterial
  1
ByLayer
  0
MATERIAL
  5
39F
102
{ACAD_REACTORS
330
39C
102
}
102
{ACAD_XDICTIONARY
360
3CF
102
}
330
39C
100
AcDbMaterial
  1
Global
  0
MLINESTYLE
  5
1C
102
{ACAD_REACTORS
330
1B
102
}
330
1B
100
AcDbMlineStyle
  2
STANDARD
 70
     0
  3

 62
     0
 51
90.0
 52
90.0
 71
     2
 49
0.5
 62
   256
  6
BYLAYER
 49
-0.5
 62
   256
  6
BYLAYER
  0
SCALE
  5
367
102
{ACAD_REACTORS
330
366
102
}
330
366
100
AcDbScale
 70
     0
300
1:1
140
1.0
141
1.0
290
     1
  0
SCALE
  5
368
102
{ACAD_REACTORS
330
366
102
}
330
366
100
AcDbScale
 70
     0
300
1:2
140
1.0
141
2.0
290
     0
  0
SCALE
  5
369
102
{ACAD_REACTORS
330
366
102
}
330
366
100
AcDbScale
 70
     0
300
1:4
140
1.0
141
4.0
290
     0
  0
SCALE
  5
36A
102
{ACAD_REACTORS
330
366
102
}
330
366
100
AcDbScale
 70
     0
300
1:5
140
1.0
141
5.0
290
     0
  0
SCALE
  5
36B
102
{ACAD_REACTORS
330
366
102
}
330
366
100
AcDbScale
 70
     0
300
1:8
140
1.0
141
8.0
290
     0
  0
SCALE
  5
36C
102
{ACAD_REACTORS
330
366
102
}
330
366
100
AcDbScale
 70
     0
300
1:10
140
1.0
141
10.0
290
     0
  0
SCALE
  5
36D
102
{ACAD_REACTORS
330
366
102
}
330
366
100
AcDbScale
 70
     0
300
1:16
140
1.0
141
16.0
290
     0
  0
SCALE
  5
36E
102
{ACAD_REACTORS
330
366
102
}
330
366
100
AcDbScale
 70
     0
300
1:20
140
1.0
141
20.0
290
     0
  0
SCALE
  5
36F
102
{ACAD_REACTORS
330
366
102
}
330
366
100
AcDbScale
 70
     0
300
1:30
140
1.0
141
30.0
290
     0
  0
SCALE
  5
370
102
{ACAD_REACTORS
330
366
102
}
330
366
100
AcDbScale
 70
     0
300
1:40
140
1.0
141
40.0
290
     0
  0
SCALE
  5
371
102
{ACAD_REACTORS
330
366
102
}
330
366
100
AcDbScale
 70
     0
300
1:50
140
1.0
141
50.0
290
     0
  0
SCALE
  5
372
102
{ACAD_REACTORS
330
366
102
}
330
366
100
AcDbScale
 70
     0
300
1:100
140
1.0
141
100.0
290
     0
  0
SCALE
  5
373
102
{ACAD_REACTORS
330
366
102
}
330
366
100
AcDbScale
 70
     0
300
2:1
140
2.0
141
1.0
290
     0
  0
SCALE
  5
374
102
{ACAD_REACTORS
330
366
102
}
330
366
100
AcDbScale
 70
     0
300
4:1
140
4.0
141
1.0
290
     0
  0
SCALE
  5
375
102
{ACAD_REACTORS
330
366
102
}
330
366
100
AcDbScale
 70
     0
300
8:1
140
8.0
141
1.0
290
     0
  0
SCALE
  5
376
102
{ACAD_REACTORS
330
366
102
}
330
366
100
AcDbScale
 70
     0
300
10:1
140
10.0
141
1.0
290
     0
  0
SCALE
  5
377
102
{ACAD_REACTORS
330
366
102
}
330
366
100
AcDbScale
 70
     0
300
100:1
140
100.0
141
1.0
290
     0
  0
SCALE
  5
378
102
{ACAD_REACTORS
330
366
102
}
330
366
100
AcDbScale
 70
     0
300
1/128" = 1'-0"
140
0.0078125
141
12.0
290
     0
  0
SCALE
  5
379
102
{ACAD_REACTORS
330
366
102
}
330
366
100
AcDbScale
 70
     0
300
1/64" = 1'-0"
140
0.015625
141
12.0
290
     0
  0
SCALE
  5
37A
102
{ACAD_REACTORS
330
366
102
}
330
366
100
AcDbScale
 70
     0
300
1/32" = 1'-0"
140
0.03125
141
12.0
290
     0
  0
SCALE
  5
37B
102
{ACAD_REACTORS
330
366
102
}
330
366
100
AcDbScale
 70
     0
300
1/16" = 1'-0"
140
0.0625
141
12.0
290
     0
  0
SCALE
  5
37C
102
{ACAD_REACTORS
330
366
102
}
330
366
100
AcDbScale
 70
     0
300
3/32" = 1'-0"
140
0.09375
141
12.0
290
     0
  0
SCALE
  5
37D
102
{ACAD_REACTORS
330
366
102
}
330
366
100
AcDbScale
 70
     0
300
1/8" = 1'-0"
140
0.125
141
12.0
290
     0
  0
SCALE
  5
37E
102
{ACAD_REACTORS
330
366
102
}
330
366
100
AcDbScale
 70
     0
300
3/16" = 1'-0"
140
0.1875
141
12.0
290
     0
  0
SCALE
  5
37F
102
{ACAD_REACTORS
330
366
102
}
330
366
100
AcDbScale
 70
     0
300
1/4" = 1'-0"
140
0.25
141
12.0
290
     0
  0
SCALE
  5
380
102
{ACAD_REACTORS
330
366
102
}
330
366
100
AcDbScale
 70
     0
300
3/8" = 1'-0"
140
0.375
141
12.0
290
     0
  0
SCALE
  5
381
102
{ACAD_REACTORS
330
366
102
}
330
366
100
AcDbScale
 70
     0
300
1/2" = 1'-0"
140
0.5
141
12.0
290
     0
  0
SCALE
  5
382
102
{ACAD_REACTORS
330
366
102
}
330
366
100
AcDbScale
 70
     0
300
3/4" = 1'-0"
140
0.75
141
12.0
290
     0
  0
SCALE
  5
383
102
{ACAD_REACTORS
330
366
102
}
330
366
100
AcDbScale
 70
     0
300
1" = 1'-0"
140
1.0
141
12.0
290
     0
  0
SCALE
  5
384
102
{ACAD_REACTORS
330
366
102
}
330
366
100
AcDbScale
 70
     0
300
1-1/2" = 1'-0"
140
1.5
141
12.0
290
     0
  0
SCALE
  5
385
102
{ACAD_REACTORS
330
366
102
}
330
366
100
AcDbScale
 70
     0
300
3" = 1'-0"
140
3.0
141
12.0
290
     0
  0
SCALE
  5
386
102
{ACAD_REACTORS
330
366
102
}
330
366
100
AcDbScale
 70
     0
300
6" = 1'-0"
140
6.0
141
12.0
290
     0
  0
SCALE
  5
387
102
{ACAD_REACTORS
330
366
102
}
330
366
100
AcDbScale
 70
     0
300
1'-0" = 1'-0"
140
12.0
141
12.0
290
     0
  0
VISUALSTYLE
  5
390
102
{ACAD_REACTORS
330
38B
102
}
102
{ACAD_XDICTIONARY
360
3B3
102
}
330
38B
100
AcDbVisualStyle
  2
2dWireframe
 70
     4
 71
     0
 72
     2
 73
     0
 90
        0
 40
-0.6
 41
-30.0
 62
     5
 63
     7
 74
     1
 91
        4
 64
     7
 65
   257
 75
     1
175
     1
 42
1.0
 92
        0
 66
   257
 43
1.0
 76
     1
 77
     6
 78
     2
 67
     7
 79
     5
170
     0
171
     0
290
     0
174
     0
 93
        1
 44
0.0
173
     0
291
     0
 45
0.0
1001
ACAD
1000
AcDbSavedByObjectVersion
1070
     0
  0
VISUALSTYLE
  5
392
102
{ACAD_REACTORS
330
38B
102
}
102
{ACAD_XDICTIONARY
360
3B7
102
}
330
38B
100
AcDbVisualStyle
  2
3D Hidden
 70
     6
 71
     1
 72
     2
 73
     2
 90
        0
 40
-0.6
 41
-30.0
 62
     5
 63
     7
 74
     2
 91
        2
 64
     7
 65
   257
 75
     2
175
     1
 42
40.0
 92
        0
 66
   257
 43
1.0
 76
     1
 77
     6
 78
     2
 67
     7
 79
     3
170
     0
171
     0
290
     0
174
     0
 93
        1
 44
0.0
173
     0
291
     0
 45
0.0
1001
ACAD
1000
AcDbSavedByObjectVersion
1070
     0
  0
VISUALSTYLE
  5
391
102
{ACAD_REACTORS
330
38B
102
}
102
{ACAD_XDICTIONARY
360
3B5
102
}
330
38B
100
AcDbVisualStyle
  2
3dWireframe
 70
     5
 71
     0
 72
     2
 73
     0
 90
        0
 40
-0.6
 41
-30.0
 62
     5
 63
     7
 74
     1
 91
        4
 64
     7
 65
   257
 75
     1
175
     1
 42
1.0
 92
        0
 66
   257
 43
1.0
 76
     1
 77
     6
 78
     2
 67
     7
 79
     5
170
     0
171
     0
290
     0
174
     0
 93
        1
 44
0.0
173
     0
291
     0
 45
0.0
1001
ACAD
1000
AcDbSavedByObjectVersion
1070
     0
  0
VISUALSTYLE
  5
393
102
{ACAD_REACTORS
330
38B
102
}
102
{ACAD_XDICTIONARY
360
3B9
102
}
330
38B
100
AcDbVisualStyle
  2
Basic
 70
     7
 71
     1
 72
     0
 73
     1
 90
        0
 40
-0.6
 41
-30.0
 62
     5
 63
     7
 74
     0
 91
        4
 64
     7
 65
   257
 75
     1
175
     1
 42
1.0
 92
        8
 66
     7
 43
1.0
 76
     1
 77
     6
 78
     2
 67
     7
 79
     5
170
     0
171
     0
290
     0
174
     0
 93
        1
 44
0.0
173
     0
291
     1
 45
0.0
1001
ACAD
1000
AcDbSavedByObjectVersion
1070
     0
  0
VISUALSTYLE
  5
397
102
{ACAD_REACTORS
330
38B
102
}
102
{ACAD_XDICTIONARY
360
3C1
102
}
330
38B
100
AcDbVisualStyle
  2
Brighten
 70
    12
 71
     2
 72
     2
 73
     0
 90
        0
 40
-0.6
 41
-30.0
 62
     5
 63
     7
 74
     1
 91
        4
 64
     7
 65
   257
 75
     1
175
     1
 42
1.0
 92
        8
 66
     7
 43
1.0
 76
     1
 77
     6
 78
     2
 67
     7
 79
     5
170
     0
171
     0
290
     0
174
     0
 93
        1
 44
50.0
173
     0
291
     1
 45
0.0
1001
ACAD
1000
AcDbSavedByObjectVersion
1070
     0
  0
VISUALSTYLE
  5
39B
102
{ACAD_REACTORS
330
38B
102
}
102
{ACAD_XDICTIONARY
360
3C9
102
}
330
38B
100
AcDbVisualStyle
  2
ColorChange
 70
    16
 71
     2
 72
     2
 73
     3
 90
        0
 40
-0.6
 41
-30.0
 62
     5
 63
     8
 74
     1
 91
        4
 64
     7
 65
   257
 75
     1
175
     1
 42
1.0
 92
        8
 66
     8
 43
1.0
 76
     1
 77
     6
 78
     2
 67
     7
 79
     5
170
     0
171
     0
290
     0
174
     0
 93
        1
 44
0.0
173
     0
291
     1
 45
0.0
1001
ACAD
1000
AcDbSavedByObjectVersion
1070
     0
  0
VISUALSTYLE
  5
395
102
{ACAD_REACTORS
330
38B
102
}
102
{ACAD_XDICTIONARY
360
3BD
102
}
330
38B
100
AcDbVisualStyle
  2
Conceptual
 70
     9
 71
     3
 72
     2
 73
     0
 90
        0
 40
-0.6
 41
-30.0
 62
     5
 63
     7
 74
     2
 91
        2
 64
     7
 65
   257
 75
     1
175
     1
 42
40.0
 92
        8
 66
     7
 43
1.0
 76
     1
 77
     6
 78
     2
 67
     7
 79
     3
170
     0
171
     0
290
     0
174
     0
 93
        1
 44
0.0
173
     0
291
     0
 45
0.0
1001
ACAD
1000
AcDbSavedByObjectVersion
1070
     0
  0
VISUALSTYLE
  5
396
102
{ACAD_REACTORS
330
38B
102
}
102
{ACAD_XDICTIONARY
360
3BF
102
}
330
38B
100
AcDbVisualStyle
  2
Dim
 70
    11
 71
     2
 72
     2
 73
     0
 90
        0
 40
-0.6
 41
-30.0
 62
     5
 63
     7
 74
     1
 91
        4
 64
     7
 65
   257
 75
     1
175
     1
 42
1.0
 92
        8
 66
     7
 43
1.0
 76
     1
 77
     6
 78
     2
 67
     7
 79
     5
170
     0
171
     0
290
     0
174
     0
 93
        1
 44
-50.0
173
     0
291
     1
 45
0.0
1001
ACAD
1000
AcDbSavedByObjectVersion
1070
     0
  0
VISUALSTYLE
  5
39A
102
{ACAD_REACTORS
330
38B
102
}
102
{ACAD_XDICTIONARY
360
3C7
102
}
330
38B
100
AcDbVisualStyle
  2
Facepattern
 70
    15
 71
     2
 72
     2
 73
     0
 90
        0
 40
-0.6
 41
-30.0
 62
     5
 63
     7
 74
     1
 91
        4
 64
     7
 65
   257
 75
     1
175
     1
 42
1.0
 92
        8
 66
     7
 43
1.0
 76
     1
 77
     6
 78
     2
 67
     7
 79
     5
170
     0
171
     0
290
     0
174
     0
 93
        1
 44
0.0
173
     0
291
     1
 45
0.0
1001
ACAD
1000
AcDbSavedByObjectVersion
1070
     0
  0
VISUALSTYLE
  5
38C
102
{ACAD_REACTORS
330
38B
102
}
102
{ACAD_XDICTIONARY
360
3AB
102
}
330
38B
100
AcDbVisualStyle
  2
Flat
 70
     0
 71
     2
 72
     1
 73
     1
 90
        2
 40
-0.6
 41
30.0
 62
     5
 63
     7
 74
     0
 91
        4
 64
     7
 65
   257
 75
     1
175
     1
 42
1.0
 92
        8
 66
     7
 43
1.0
 76
     1
 77
     6
 78
     2
 67
     7
 79
     5
170
     0
171
     0
290
     0
174
     0
 93
       13
 44
0.0
173
     0
291
     1
 45
0.0
1001
ACAD
1000
AcDbSavedByObjectVersion
1070
     0
  0
VISUALSTYLE
  5
38D
102
{ACAD_REACTORS
330
38B
102
}
102
{ACAD_XDICTIONARY
360
3AD
102
}
330
38B
100
AcDbVisualStyle
  2
FlatWithEdges
 70
     1
 71
     2
 72
     1
 73
     1
 90
        2
 40
-0.6
 41
30.0
 62
     5
 63
     7
 74
     1
 91
        4
 64
     7
 65
   257
 75
     1
175
     1
 42
1.0
 92
        0
 66
   257
 43
1.0
 76
     1
 77
     6
 78
     2
 67
     7
 79
     5
170
     0
171
     0
290
     0
174
     0
 93
       13
 44
0.0
173
     0
291
     1
 45
0.0
1001
ACAD
1000
AcDbSavedByObjectVersion
1070
     0
  0
VISUALSTYLE
  5
38E
102
{ACAD_REACTORS
330
38B
102
}
102
{ACAD_XDICTIONARY
360
3AF
102
}
330
38B
100
AcDbVisualStyle
  2
Gouraud
 70
     2
 71
     2
 72
     2
 73
     1
 90
        2
 40
-0.6
 41
30.0
 62
     5
 63
     7
 74
     0
 91
        4
 64
     7
 65
   257
 75
     1
175
     1
 42
1.0
 92
        0
 66
     7
 43
1.0
 76
     1
 77
     6
 78
     2
 67
     7
 79
     5
170
     0
171
     0
290
     0
174
     0
 93
       13
 44
0.0
173
     0
291
     1
 45
0.0
1001
ACAD
1000
AcDbSavedByObjectVersion
1070
     0
  0
VISUALSTYLE
  5
38F
102
{ACAD_REACTORS
330
38B
102
}
102
{ACAD_XDICTIONARY
360
3B1
102
}
330
38B
100
AcDbVisualStyle
  2
GouraudWithEdges
 70
     3
 71
     2
 72
     2
 73
     1
 90
        2
 40
-0.6
 41
30.0
 62
     5
 63
     7
 74
     1
 91
        4
 64
     7
 65
   257
 75
     1
175
     1
 42
1.0
 92
        0
 66
   257
 43
1.0
 76
     1
 77
     6
 78
     2
 67
     7
 79
     5
170
     0
171
     0
290
     0
174
     0
 93
       13
 44
0.0
173
     0
291
     1
 45
0.0
1001
ACAD
1000
AcDbSavedByObjectVersion
1070
     0
  0
VISUALSTYLE
  5
399
102
{ACAD_REACTORS
330
38B
102
}
102
{ACAD_XDICTIONARY
360
3C5
102
}
330
38B
100
AcDbVisualStyle
  2
Linepattern
 70
    14
 71
     2
 72
     2
 73
     0
 90
        0
 40
-0.6
 41
-30.0
 62
     5
 63
     7
 74
     1
 91
        4
 64
     7
 65
   257
 75
     7
175
     7
 42
1.0
 92
        8
 66
     7
 43
1.0
 76
     1
 77
     6
 78
     2
 67
     7
 79
     5
170
     0
171
     0
290
     0
174
     0
 93
        1
 44
0.0
173
     0
291
     1
 45
0.0
1001
ACAD
1000
AcDbSavedByObjectVersion
1070
     0
  0
VISUALSTYLE
  5
394
102
{ACAD_REACTORS
330
38B
102
}
102
{ACAD_XDICTIONARY
360
3BB
102
}
330
38B
100
AcDbVisualStyle
  2
Realistic
 70
     8
 71
     2
 72
     2
 73
     0
 90
        0
 40
-0.6
 41
-30.0
 62
     5
 63
     7
 74
     1
 91
        0
 64
     7
 65
   257
 75
     1
175
     1
 42
1.0
 92
        8
 66
     8
 43
1.0
 76
     1
 77
     6
 78
     2
 67
     7
 79
     5
170
     0
171
     0
290
     0
174
     0
 93
       13
 44
0.0
173
     0
291
     0
 45
0.0
1001
ACAD
1000
AcDbSavedByObjectVersion
1070
     0
  0
VISUALSTYLE
  5
398
102
{ACAD_REACTORS
330
38B
102
}
102
{ACAD_XDICTIONARY
360
3C3
102
}
330
38B
100
AcDbVisualStyle
  2
Thicken
 70
    13
 71
     2
 72
     2
 73
     0
 90
        0
 40
-0.6
 41
-30.0
 62
     5
 63
     7
 74
     1
 91
        4
 64
     7
 65
   257
 75
     1
175
     1
 42
1.0
 92
       12
 66
     7
 43
1.0
 76
     1
 77
     6
 78
     2
 67
     7
 79
     5
170
     0
171
     0
290
     0
174
     0
 93
        1
 44
0.0
173
     0
291
     1
 45
0.0
1001
ACAD
1000
AcDbSavedByObjectVersion
1070
     0
  0
DICTIONARYVAR
  5
3AA
102
{ACAD_REACTORS
330
3A2
102
}
330
3A2
100
DictionaryVariables
280
     0
  1
1:1
  0
DICTIONARYVAR
  5
3A6
102
{ACAD_REACTORS
330
3A2
102
}
330
3A2
100
DictionaryVariables
280
     0
  1
2
  0
DICTIONARYVAR
  5
3A7
102
{ACAD_REACTORS
330
3A2
102
}
330
3A2
100
DictionaryVariables
280
     0
  1
1
  0
DICTIONARYVAR
  5
3A5
102
{ACAD_REACTORS
330
3A2
102
}
330
3A2
100
DictionaryVariables
280
     0
  1
0
  0
DICTIONARY
  5
3CD
330
39E
100
AcDbDictionary
280
     1
281
     1
  3
ACAD_XREC_ROUNDTRIP
360
3CE
  0
DICTIONARY
  5
3CB
330
39D
100
AcDbDictionary
280
     1
281
     1
  3
ACAD_XREC_ROUNDTRIP
360
3CC
  0
DICTIONARY
  5
3CF
330
39F
100
AcDbDictionary
280
     1
281
     1
  3
ACAD_XREC_ROUNDTRIP
360
3D0
  0
DICTIONARY
  5
3B3
330
390
100
AcDbDictionary
280
     1
281
     1
  3
ACAD_XREC_ROUNDTRIP
360
3B4
  0
DICTIONARY
  5
3B7
330
392
100
AcDbDictionary
280
     1
281
     1
  3
ACAD_XREC_ROUNDTRIP
360
3B8
  0
DICTIONARY
  5
3B5
330
391
100
AcDbDictionary
280
     1
281
     1
  3
ACAD_XREC_ROUNDTRIP
360
3B6
  0
DICTIONARY
  5
3B9
330
393
100
AcDbDictionary
280
     1
281
     1
  3
ACAD_XREC_ROUNDTRIP
360
3BA
  0
DICTIONARY
  5
3C1
330
397
100
AcDbDictionary
280
     1
281
     1
  3
ACAD_XREC_ROUNDTRIP
360
3C2
  0
DICTIONARY
  5
3C9
330
39B
100
AcDbDictionary
280
     1
281
     1
  3
ACAD_XREC_ROUNDTRIP
360
3CA
  0
DICTIONARY
  5
3BD
330
395
100
AcDbDictionary
280
     1
281
     1
  3
ACAD_XREC_ROUNDTRIP
360
3BE
  0
DICTIONARY
  5
3BF
330
396
100
AcDbDictionary
280
     1
281
     1
  3
ACAD_XREC_ROUNDTRIP
360
3C0
  0
DICTIONARY
  5
3C7
330
39A
100
AcDbDictionary
280
     1
281
     1
  3
ACAD_XREC_ROUNDTRIP
360
3C8
  0
DICTIONARY
  5
3AB
330
38C
100
AcDbDictionary
280
     1
281
     1
  3
ACAD_XREC_ROUNDTRIP
360
3AC
  0
DICTIONARY
  5
3AD
330
38D
100
AcDbDictionary
280
     1
281
     1
  3
ACAD_XREC_ROUNDTRIP
360
3AE
  0
DICTIONARY
  5
3AF
330
38E
100
AcDbDictionary
280
     1
281
     1
  3
ACAD_XREC_ROUNDTRIP
360
3B0
  0
DICTIONARY
  5
3B1
330
38F
100
AcDbDictionary
280
     1
281
     1
  3
ACAD_XREC_ROUNDTRIP
360
3B2
  0
DICTIONARY
  5
3C5
330
399
100
AcDbDictionary
280
     1
281
     1
  3
ACAD_XREC_ROUNDTRIP
360
3C6
  0
DICTIONARY
  5
3BB
330
394
100
AcDbDictionary
280
     1
281
     1
  3
ACAD_XREC_ROUNDTRIP
360
3BC
  0
DICTIONARY
  5
3C3
330
398
100
AcDbDictionary
280
     1
281
     1
  3
ACAD_XREC_ROUNDTRIP
360
3C4
  0
XRECORD
  5
3CE
102
{ACAD_REACTORS
330
3CD
102
}
330
3CD
100
AcDbXrecord
280
     1
102
MATERIAL
148
0.0
149
0.0
149
0.0
 93
        0
 94
      127
282
     0
 72
     1
 77
     1
171
     1
175
     1
179
     1
273
     0
  0
XRECORD
  5
3CC
102
{ACAD_REACTORS
330
3CB
102
}
330
3CB
100
AcDbXrecord
280
     1
102
MATERIAL
148
0.0
149
0.0
149
0.0
 93
        0
 94
      127
282
     0
 72
     1
 77
     1
171
     1
175
     1
179
     1
273
     0
  0
XRECORD
  5
3D0
102
{ACAD_REACTORS
330
3CF
102
}
330
3CF
100
AcDbXrecord
280
     1
102
MATERIAL
148
0.0
149
0.0
149
0.0
 93
        0
 94
      127
282
     0
 72
     1
 77
     1
171
     1
175
     1
179
     1
273
     0
  0
XRECORD
  5
3B4
102
{ACAD_REACTORS
330
3B3
102
}
330
3B3
100
AcDbXrecord
280
     1
102
RTVSPropertyOp0
 70
     1
102
RTVSPropertyOp1
 70
     1
102
RTVSPropertyOp2
 70
     1
102
RTVSPropertyOp3
 70
     1
102
RTVSPropertyOp4
 70
     1
102
RTVSPropertyOp5
 70
     1
102
RTVSPropertyOp6
 70
     1
102
RTVSPropertyOp7
 70
     1
102
RTVSPropertyOp8
 70
     1
102
RTVSPropertyOp9
 70
     1
102
RTVSPropertyOp10
 70
     1
102
RTVSPropertyOp11
 70
     1
102
RTVSPropertyOp12
 70
     1
102
RTVSPropertyOp13
 70
     1
102
RTVSPropertyOp14
 70
     1
102
RTVSPropertyOp15
 70
     1
102
RTVSPropertyOp16
 70
     1
102
RTVSPropertyOp17
 70
     1
102
RTVSPropertyOp18
 70
     1
102
RTVSPropertyOp19
 70
     1
102
RTVSPropertyOp20
 70
     1
102
RTVSPropertyOp21
 70
     1
102
RTVSPropertyOp22
 70
     1
102
RTVSPropertyOp23
 70
     1
102
RTVSPropertyOp24
 70
     1
102
RTVSPropertyOp25
 70
     1
102
RTVSPropertyOp26
 70
     1
102
RTVSPropertyOp27
 70
     1
102
RTVSPropertyOp28
 70
     1
102
RTVSPropertyOp29
 70
     1
102
RTVSPropertyOp30
 70
     1
102
RTVSPropertyOp31
 70
     1
102
RTVSPropertyOp32
 70
     1
  0
XRECORD
  5
3B8
102
{ACAD_REACTORS
330
3B7
102
}
330
3B7
100
AcDbXrecord
280
     1
102
RTVSPropertyOp0
 70
     1
102
RTVSPropertyOp1
 70
     1
102
RTVSPropertyOp2
 70
     1
102
RTVSPropertyOp3
 70
     1
102
RTVSPropertyOp4
 70
     1
102
RTVSPropertyOp5
 70
     1
102
RTVSPropertyOp6
 70
     1
102
RTVSPropertyOp7
 70
     1
102
RTVSPropertyOp8
 70
     1
102
RTVSPropertyOp9
 70
     1
102
RTVSPropertyOp10
 70
     1
102
RTVSPropertyOp11
 70
     1
102
RTVSPropertyOp12
 70
     1
102
RTVSPropertyOp13
 70
     1
102
RTVSPropertyOp14
 70
     1
102
RTVSPropertyOp15
 70
     1
102
RTVSPropertyOp16
 70
     1
102
RTVSPropertyOp17
 70
     1
102
RTVSPropertyOp18
 70
     1
102
RTVSPropertyOp19
 70
     1
102
RTVSPropertyOp20
 70
     1
102
RTVSPropertyOp21
 70
     1
102
RTVSPropertyOp22
 70
     1
102
RTVSPropertyOp23
 70
     1
102
RTVSPropertyOp24
 70
     1
102
RTVSPropertyOp25
 70
     1
102
RTVSPropertyOp26
 70
     1
102
RTVSPropertyOp27
 70
     1
102
RTVSPropertyOp28
 70
     1
102
RTVSPropertyOp29
 70
     1
102
RTVSPropertyOp30
 70
     1
102
RTVSPropertyOp31
 70
     1
102
RTVSPropertyOp32
 70
     1
  0
XRECORD
  5
3B6
102
{ACAD_REACTORS
330
3B5
102
}
330
3B5
100
AcDbXrecord
280
     1
102
RTVSPropertyOp0
 70
     1
102
RTVSPropertyOp1
 70
     1
102
RTVSPropertyOp2
 70
     1
102
RTVSPropertyOp3
 70
     1
102
RTVSPropertyOp4
 70
     1
102
RTVSPropertyOp5
 70
     1
102
RTVSPropertyOp6
 70
     1
102
RTVSPropertyOp7
 70
     1
102
RTVSPropertyOp8
 70
     1
102
RTVSPropertyOp9
 70
     1
102
RTVSPropertyOp10
 70
     1
102
RTVSPropertyOp11
 70
     1
102
RTVSPropertyOp12
 70
     1
102
RTVSPropertyOp13
 70
     1
102
RTVSPropertyOp14
 70
     1
102
RTVSPropertyOp15
 70
     1
102
RTVSPropertyOp16
 70
     1
102
RTVSPropertyOp17
 70
     1
102
RTVSPropertyOp18
 70
     1
102
RTVSPropertyOp19
 70
     1
102
RTVSPropertyOp20
 70
     1
102
RTVSPropertyOp21
 70
     1
102
RTVSPropertyOp22
 70
     1
102
RTVSPropertyOp23
 70
     1
102
RTVSPropertyOp24
 70
     1
102
RTVSPropertyOp25
 70
     1
102
RTVSPropertyOp26
 70
     1
102
RTVSPropertyOp27
 70
     1
102
RTVSPropertyOp28
 70
     1
102
RTVSPropertyOp29
 70
     1
102
RTVSPropertyOp30
 70
     1
102
RTVSPropertyOp31
 70
     1
102
RTVSPropertyOp32
 70
     1
  0
XRECORD
  5
3BA
102
{ACAD_REACTORS
330
3B9
102
}
330
3B9
100
AcDbXrecord
280
     1
102
RTVSPropertyOp0
 70
     1
102
RTVSPropertyOp1
 70
     1
102
RTVSPropertyOp2
 70
     1
102
RTVSPropertyOp3
 70
     1
102
RTVSPropertyOp4
 70
     1
102
RTVSPropertyOp5
 70
     1
102
RTVSPropertyOp6
 70
     1
102
RTVSPropertyOp7
 70
     1
102
RTVSPropertyOp8
 70
     1
102
RTVSPropertyOp9
 70
     1
102
RTVSPropertyOp10
 70
     1
102
RTVSPropertyOp11
 70
     1
102
RTVSPropertyOp12
 70
     1
102
RTVSPropertyOp13
 70
     1
102
RTVSPropertyOp14
 70
     1
102
RTVSPropertyOp15
 70
     1
102
RTVSPropertyOp16
 70
     1
102
RTVSPropertyOp17
 70
     1
102
RTVSPropertyOp18
 70
     1
102
RTVSPropertyOp19
 70
     1
102
RTVSPropertyOp20
 70
     1
102
RTVSPropertyOp21
 70
     1
102
RTVSPropertyOp22
 70
     1
102
RTVSPropertyOp23
 70
     1
102
RTVSPropertyOp24
 70
     1
102
RTVSPropertyOp25
 70
     1
102
RTVSPropertyOp26
 70
     1
102
RTVSPropertyOp27
 70
     1
102
RTVSPropertyOp28
 70
     1
102
RTVSPropertyOp29
 70
     1
102
RTVSPropertyOp30
 70
     1
102
RTVSPropertyOp31
 70
     1
102
RTVSPropertyOp32
 70
     1
  0
XRECORD
  5
3C2
102
{ACAD_REACTORS
330
3C1
102
}
330
3C1
100
AcDbXrecord
280
     1
102
RTVSPropertyOp0
 70
     1
102
RTVSPropertyOp1
 70
     1
102
RTVSPropertyOp2
 70
     1
102
RTVSPropertyOp3
 70
     1
102
RTVSPropertyOp4
 70
     1
102
RTVSPropertyOp5
 70
     1
102
RTVSPropertyOp6
 70
     1
102
RTVSPropertyOp7
 70
     1
102
RTVSPropertyOp8
 70
     1
102
RTVSPropertyOp9
 70
     1
102
RTVSPropertyOp10
 70
     1
102
RTVSPropertyOp11
 70
     1
102
RTVSPropertyOp12
 70
     1
102
RTVSPropertyOp13
 70
     1
102
RTVSPropertyOp14
 70
     1
102
RTVSPropertyOp15
 70
     1
102
RTVSPropertyOp16
 70
     1
102
RTVSPropertyOp17
 70
     1
102
RTVSPropertyOp18
 70
     1
102
RTVSPropertyOp19
 70
     1
102
RTVSPropertyOp20
 70
     1
102
RTVSPropertyOp21
 70
     1
102
RTVSPropertyOp22
 70
     1
102
RTVSPropertyOp23
 70
     1
102
RTVSPropertyOp24
 70
     1
102
RTVSPropertyOp25
 70
     1
102
RTVSPropertyOp26
 70
     1
102
RTVSPropertyOp27
 70
     1
102
RTVSPropertyOp28
 70
     1
102
RTVSPropertyOp29
 70
     1
102
RTVSPropertyOp30
 70
     1
102
RTVSPropertyOp31
 70
     1
102
RTVSPropertyOp32
 70
     1
  0
XRECORD
  5
3CA
102
{ACAD_REACTORS
330
3C9
102
}
330
3C9
100
AcDbXrecord
280
     1
102
RTVSPropertyOp0
 70
     1
102
RTVSPropertyOp1
 70
     1
102
RTVSPropertyOp2
 70
     1
102
RTVSPropertyOp3
 70
     1
102
RTVSPropertyOp4
 70
     1
102
RTVSPropertyOp5
 70
     1
102
RTVSPropertyOp6
 70
     1
102
RTVSPropertyOp7
 70
     1
102
RTVSPropertyOp8
 70
     1
102
RTVSPropertyOp9
 70
     1
102
RTVSPropertyOp10
 70
     1
102
RTVSPropertyOp11
 70
     1
102
RTVSPropertyOp12
 70
     1
102
RTVSPropertyOp13
 70
     1
102
RTVSPropertyOp14
 70
     1
102
RTVSPropertyOp15
 70
     1
102
RTVSPropertyOp16
 70
     1
102
RTVSPropertyOp17
 70
     1
102
RTVSPropertyOp18
 70
     1
102
RTVSPropertyOp19
 70
     1
102
RTVSPropertyOp20
 70
     1
102
RTVSPropertyOp21
 70
     1
102
RTVSPropertyOp22
 70
     1
102
RTVSPropertyOp23
 70
     1
102
RTVSPropertyOp24
 70
     1
102
RTVSPropertyOp25
 70
     1
102
RTVSPropertyOp26
 70
     1
102
RTVSPropertyOp27
 70
     1
102
RTVSPropertyOp28
 70
     1
102
RTVSPropertyOp29
 70
     1
102
RTVSPropertyOp30
 70
     1
102
RTVSPropertyOp31
 70
     1
102
RTVSPropertyOp32
 70
     1
  0
XRECORD
  5
3BE
102
{ACAD_REACTORS
330
3BD
102
}
330
3BD
100
AcDbXrecord
280
     1
102
RTVSPropertyOp0
 70
     1
102
RTVSPropertyOp1
 70
     1
102
RTVSPropertyOp2
 70
     1
102
RTVSPropertyOp3
 70
     1
102
RTVSPropertyOp4
 70
     1
102
RTVSPropertyOp5
 70
     1
102
RTVSPropertyOp6
 70
     1
102
RTVSPropertyOp7
 70
     1
102
RTVSPropertyOp8
 70
     1
102
RTVSPropertyOp9
 70
     1
102
RTVSPropertyOp10
 70
     1
102
RTVSPropertyOp11
 70
     1
102
RTVSPropertyOp12
 70
     1
102
RTVSPropertyOp13
 70
     1
102
RTVSPropertyOp14
 70
     1
102
RTVSPropertyOp15
 70
     1
102
RTVSPropertyOp16
 70
     1
102
RTVSPropertyOp17
 70
     1
102
RTVSPropertyOp18
 70
     1
102
RTVSPropertyOp19
 70
     1
102
RTVSPropertyOp20
 70
     1
102
RTVSPropertyOp21
 70
     1
102
RTVSPropertyOp22
 70
     1
102
RTVSPropertyOp23
 70
     1
102
RTVSPropertyOp24
 70
     1
102
RTVSPropertyOp25
 70
     1
102
RTVSPropertyOp26
 70
     1
102
RTVSPropertyOp27
 70
     1
102
RTVSPropertyOp28
 70
     1
102
RTVSPropertyOp29
 70
     1
102
RTVSPropertyOp30
 70
     1
102
RTVSPropertyOp31
 70
     1
102
RTVSPropertyOp32
 70
     1
  0
XRECORD
  5
3C0
102
{ACAD_REACTORS
330
3BF
102
}
330
3BF
100
AcDbXrecord
280
     1
102
RTVSPropertyOp0
 70
     1
102
RTVSPropertyOp1
 70
     1
102
RTVSPropertyOp2
 70
     1
102
RTVSPropertyOp3
 70
     1
102
RTVSPropertyOp4
 70
     1
102
RTVSPropertyOp5
 70
     1
102
RTVSPropertyOp6
 70
     1
102
RTVSPropertyOp7
 70
     1
102
RTVSPropertyOp8
 70
     1
102
RTVSPropertyOp9
 70
     1
102
RTVSPropertyOp10
 70
     1
102
RTVSPropertyOp11
 70
     1
102
RTVSPropertyOp12
 70
     1
102
RTVSPropertyOp13
 70
     1
102
RTVSPropertyOp14
 70
     1
102
RTVSPropertyOp15
 70
     1
102
RTVSPropertyOp16
 70
     1
102
RTVSPropertyOp17
 70
     1
102
RTVSPropertyOp18
 70
     1
102
RTVSPropertyOp19
 70
     1
102
RTVSPropertyOp20
 70
     1
102
RTVSPropertyOp21
 70
     1
102
RTVSPropertyOp22
 70
     1
102
RTVSPropertyOp23
 70
     1
102
RTVSPropertyOp24
 70
     1
102
RTVSPropertyOp25
 70
     1
102
RTVSPropertyOp26
 70
     1
102
RTVSPropertyOp27
 70
     1
102
RTVSPropertyOp28
 70
     1
102
RTVSPropertyOp29
 70
     1
102
RTVSPropertyOp30
 70
     1
102
RTVSPropertyOp31
 70
     1
102
RTVSPropertyOp32
 70
     1
  0
XRECORD
  5
3C8
102
{ACAD_REACTORS
330
3C7
102
}
330
3C7
100
AcDbXrecord
280
     1
102
RTVSPropertyOp0
 70
     1
102
RTVSPropertyOp1
 70
     1
102
RTVSPropertyOp2
 70
     1
102
RTVSPropertyOp3
 70
     1
102
RTVSPropertyOp4
 70
     1
102
RTVSPropertyOp5
 70
     1
102
RTVSPropertyOp6
 70
     1
102
RTVSPropertyOp7
 70
     1
102
RTVSPropertyOp8
 70
     1
102
RTVSPropertyOp9
 70
     1
102
RTVSPropertyOp10
 70
     1
102
RTVSPropertyOp11
 70
     1
102
RTVSPropertyOp12
 70
     1
102
RTVSPropertyOp13
 70
     1
102
RTVSPropertyOp14
 70
     1
102
RTVSPropertyOp15
 70
     1
102
RTVSPropertyOp16
 70
     1
102
RTVSPropertyOp17
 70
     1
102
RTVSPropertyOp18
 70
     1
102
RTVSPropertyOp19
 70
     1
102
RTVSPropertyOp20
 70
     1
102
RTVSPropertyOp21
 70
     1
102
RTVSPropertyOp22
 70
     1
102
RTVSPropertyOp23
 70
     1
102
RTVSPropertyOp24
 70
     1
102
RTVSPropertyOp25
 70
     1
102
RTVSPropertyOp26
 70
     1
102
RTVSPropertyOp27
 70
     1
102
RTVSPropertyOp28
 70
     1
102
RTVSPropertyOp29
 70
     1
102
RTVSPropertyOp30
 70
     1
102
RTVSPropertyOp31
 70
     1
102
RTVSPropertyOp32
 70
     1
  0
XRECORD
  5
3AC
102
{ACAD_REACTORS
330
3AB
102
}
330
3AB
100
AcDbXrecord
280
     1
102
RTVSPropertyOp0
 70
     1
102
RTVSPropertyOp1
 70
     1
102
RTVSPropertyOp2
 70
     1
102
RTVSPropertyOp3
 70
     1
102
RTVSPropertyOp4
 70
     1
102
RTVSPropertyOp5
 70
     1
102
RTVSPropertyOp6
 70
     1
102
RTVSPropertyOp7
 70
     1
102
RTVSPropertyOp8
 70
     1
102
RTVSPropertyOp9
 70
     1
102
RTVSPropertyOp10
 70
     1
102
RTVSPropertyOp11
 70
     1
102
RTVSPropertyOp12
 70
     1
102
RTVSPropertyOp13
 70
     1
102
RTVSPropertyOp14
 70
     1
102
RTVSPropertyOp15
 70
     1
102
RTVSPropertyOp16
 70
     1
102
RTVSPropertyOp17
 70
     1
102
RTVSPropertyOp18
 70
     1
102
RTVSPropertyOp19
 70
     1
102
RTVSPropertyOp20
 70
     1
102
RTVSPropertyOp21
 70
     1
102
RTVSPropertyOp22
 70
     1
102
RTVSPropertyOp23
 70
     1
102
RTVSPropertyOp24
 70
     1
102
RTVSPropertyOp25
 70
     1
102
RTVSPropertyOp26
 70
     1
102
RTVSPropertyOp27
 70
     1
102
RTVSPropertyOp28
 70
     1
102
RTVSPropertyOp29
 70
     1
102
RTVSPropertyOp30
 70
     1
102
RTVSPropertyOp31
 70
     1
102
RTVSPropertyOp32
 70
     1
  0
XRECORD
  5
3AE
102
{ACAD_REACTORS
330
3AD
102
}
330
3AD
100
AcDbXrecord
280
     1
102
RTVSPropertyOp0
 70
     1
102
RTVSPropertyOp1
 70
     1
102
RTVSPropertyOp2
 70
     1
102
RTVSPropertyOp3
 70
     1
102
RTVSPropertyOp4
 70
     1
102
RTVSPropertyOp5
 70
     1
102
RTVSPropertyOp6
 70
     1
102
RTVSPropertyOp7
 70
     1
102
RTVSPropertyOp8
 70
     1
102
RTVSPropertyOp9
 70
     1
102
RTVSPropertyOp10
 70
     1
102
RTVSPropertyOp11
 70
     1
102
RTVSPropertyOp12
 70
     1
102
RTVSPropertyOp13
 70
     1
102
RTVSPropertyOp14
 70
     1
102
RTVSPropertyOp15
 70
     1
102
RTVSPropertyOp16
 70
     1
102
RTVSPropertyOp17
 70
     1
102
RTVSPropertyOp18
 70
     1
102
RTVSPropertyOp19
 70
     1
102
RTVSPropertyOp20
 70
     1
102
RTVSPropertyOp21
 70
     1
102
RTVSPropertyOp22
 70
     1
102
RTVSPropertyOp23
 70
     1
102
RTVSPropertyOp24
 70
     1
102
RTVSPropertyOp25
 70
     1
102
RTVSPropertyOp26
 70
     1
102
RTVSPropertyOp27
 70
     1
102
RTVSPropertyOp28
 70
     1
102
RTVSPropertyOp29
 70
     1
102
RTVSPropertyOp30
 70
     1
102
RTVSPropertyOp31
 70
     1
102
RTVSPropertyOp32
 70
     1
  0
XRECORD
  5
3B0
102
{ACAD_REACTORS
330
3AF
102
}
330
3AF
100
AcDbXrecord
280
     1
102
RTVSPropertyOp0
 70
     1
102
RTVSPropertyOp1
 70
     1
102
RTVSPropertyOp2
 70
     1
102
RTVSPropertyOp3
 70
     1
102
RTVSPropertyOp4
 70
     1
102
RTVSPropertyOp5
 70
     1
102
RTVSPropertyOp6
 70
     1
102
RTVSPropertyOp7
 70
     1
102
RTVSPropertyOp8
 70
     1
102
RTVSPropertyOp9
 70
     1
102
RTVSPropertyOp10
 70
     1
102
RTVSPropertyOp11
 70
     1
102
RTVSPropertyOp12
 70
     1
102
RTVSPropertyOp13
 70
     1
102
RTVSPropertyOp14
 70
     1
102
RTVSPropertyOp15
 70
     1
102
RTVSPropertyOp16
 70
     1
102
RTVSPropertyOp17
 70
     1
102
RTVSPropertyOp18
 70
     1
102
RTVSPropertyOp19
 70
     1
102
RTVSPropertyOp20
 70
     1
102
RTVSPropertyOp21
 70
     1
102
RTVSPropertyOp22
 70
     1
102
RTVSPropertyOp23
 70
     1
102
RTVSPropertyOp24
 70
     1
102
RTVSPropertyOp25
 70
     1
102
RTVSPropertyOp26
 70
     1
102
RTVSPropertyOp27
 70
     1
102
RTVSPropertyOp28
 70
     1
102
RTVSPropertyOp29
 70
     1
102
RTVSPropertyOp30
 70
     1
102
RTVSPropertyOp31
 70
     1
102
RTVSPropertyOp32
 70
     1
  0
XRECORD
  5
3B2
102
{ACAD_REACTORS
330
3B1
102
}
330
3B1
100
AcDbXrecord
280
     1
102
RTVSPropertyOp0
 70
     1
102
RTVSPropertyOp1
 70
     1
102
RTVSPropertyOp2
 70
     1
102
RTVSPropertyOp3
 70
     1
102
RTVSPropertyOp4
 70
     1
102
RTVSPropertyOp5
 70
     1
102
RTVSPropertyOp6
 70
     1
102
RTVSPropertyOp7
 70
     1
102
RTVSPropertyOp8
 70
     1
102
RTVSPropertyOp9
 70
     1
102
RTVSPropertyOp10
 70
     1
102
RTVSPropertyOp11
 70
     1
102
RTVSPropertyOp12
 70
     1
102
RTVSPropertyOp13
 70
     1
102
RTVSPropertyOp14
 70
     1
102
RTVSPropertyOp15
 70
     1
102
RTVSPropertyOp16
 70
     1
102
RTVSPropertyOp17
 70
     1
102
RTVSPropertyOp18
 70
     1
102
RTVSPropertyOp19
 70
     1
102
RTVSPropertyOp20
 70
     1
102
RTVSPropertyOp21
 70
     1
102
RTVSPropertyOp22
 70
     1
102
RTVSPropertyOp23
 70
     1
102
RTVSPropertyOp24
 70
     1
102
RTVSPropertyOp25
 70
     1
102
RTVSPropertyOp26
 70
     1
102
RTVSPropertyOp27
 70
     1
102
RTVSPropertyOp28
 70
     1
102
RTVSPropertyOp29
 70
     1
102
RTVSPropertyOp30
 70
     1
102
RTVSPropertyOp31
 70
     1
102
RTVSPropertyOp32
 70
     1
  0
XRECORD
  5
3C6
102
{ACAD_REACTORS
330
3C5
102
}
330
3C5
100
AcDbXrecord
280
     1
102
RTVSPropertyOp0
 70
     1
102
RTVSPropertyOp1
 70
     1
102
RTVSPropertyOp2
 70
     1
102
RTVSPropertyOp3
 70
     1
102
RTVSPropertyOp4
 70
     1
102
RTVSPropertyOp5
 70
     1
102
RTVSPropertyOp6
 70
     1
102
RTVSPropertyOp7
 70
     1
102
RTVSPropertyOp8
 70
     1
102
RTVSPropertyOp9
 70
     1
102
RTVSPropertyOp10
 70
     1
102
RTVSPropertyOp11
 70
     1
102
RTVSPropertyOp12
 70
     1
102
RTVSPropertyOp13
 70
     1
102
RTVSPropertyOp14
 70
     1
102
RTVSPropertyOp15
 70
     1
102
RTVSPropertyOp16
 70
     1
102
RTVSPropertyOp17
 70
     1
102
RTVSPropertyOp18
 70
     1
102
RTVSPropertyOp19
 70
     1
102
RTVSPropertyOp20
 70
     1
102
RTVSPropertyOp21
 70
     1
102
RTVSPropertyOp22
 70
     1
102
RTVSPropertyOp23
 70
     1
102
RTVSPropertyOp24
 70
     1
102
RTVSPropertyOp25
 70
     1
102
RTVSPropertyOp26
 70
     1
102
RTVSPropertyOp27
 70
     1
102
RTVSPropertyOp28
 70
     1
102
RTVSPropertyOp29
 70
     1
102
RTVSPropertyOp30
 70
     1
102
RTVSPropertyOp31
 70
     1
102
RTVSPropertyOp32
 70
     1
  0
XRECORD
  5
3BC
102
{ACAD_REACTORS
330
3BB
102
}
330
3BB
100
AcDbXrecord
280
     1
102
RTVSPropertyOp0
 70
     1
102
RTVSPropertyOp1
 70
     1
102
RTVSPropertyOp2
 70
     1
102
RTVSPropertyOp3
 70
     1
102
RTVSPropertyOp4
 70
     1
102
RTVSPropertyOp5
 70
     1
102
RTVSPropertyOp6
 70
     1
102
RTVSPropertyOp7
 70
     1
102
RTVSPropertyOp8
 70
     1
102
RTVSPropertyOp9
 70
     1
102
RTVSPropertyOp10
 70
     1
102
RTVSPropertyOp11
 70
     1
102
RTVSPropertyOp12
 70
     1
102
RTVSPropertyOp13
 70
     1
102
RTVSPropertyOp14
 70
     1
102
RTVSPropertyOp15
 70
     1
102
RTVSPropertyOp16
 70
     1
102
RTVSPropertyOp17
 70
     1
102
RTVSPropertyOp18
 70
     1
102
RTVSPropertyOp19
 70
     1
102
RTVSPropertyOp20
 70
     1
102
RTVSPropertyOp21
 70
     1
102
RTVSPropertyOp22
 70
     1
102
RTVSPropertyOp23
 70
     1
102
RTVSPropertyOp24
 70
     1
102
RTVSPropertyOp25
 70
     1
102
RTVSPropertyOp26
 70
     1
102
RTVSPropertyOp27
 70
     1
102
RTVSPropertyOp28
 70
     1
102
RTVSPropertyOp29
 70
     1
102
RTVSPropertyOp30
 70
     1
102
RTVSPropertyOp31
 70
     1
102
RTVSPropertyOp32
 70
     1
  0
XRECORD
  5
3C4
102
{ACAD_REACTORS
330
3C3
102
}
330
3C3
100
AcDbXrecord
280
     1
102
RTVSPropertyOp0
 70
     1
102
RTVSPropertyOp1
 70
     1
102
RTVSPropertyOp2
 70
     1
102
RTVSPropertyOp3
 70
     1
102
RTVSPropertyOp4
 70
     1
102
RTVSPropertyOp5
 70
     1
102
RTVSPropertyOp6
 70
     1
102
RTVSPropertyOp7
 70
     1
102
RTVSPropertyOp8
 70
     1
102
RTVSPropertyOp9
 70
     1
102
RTVSPropertyOp10
 70
     1
102
RTVSPropertyOp11
 70
     1
102
RTVSPropertyOp12
 70
     1
102
RTVSPropertyOp13
 70
     1
102
RTVSPropertyOp14
 70
     1
102
RTVSPropertyOp15
 70
     1
102
RTVSPropertyOp16
 70
     1
102
RTVSPropertyOp17
 70
     1
102
RTVSPropertyOp18
 70
     1
102
RTVSPropertyOp19
 70
     1
102
RTVSPropertyOp20
 70
     1
102
RTVSPropertyOp21
 70
     1
102
RTVSPropertyOp22
 70
     1
102
RTVSPropertyOp23
 70
     1
102
RTVSPropertyOp24
 70
     1
102
RTVSPropertyOp25
 70
     1
102
RTVSPropertyOp26
 70
     1
102
RTVSPropertyOp27
 70
     1
102
RTVSPropertyOp28
 70
     1
102
RTVSPropertyOp29
 70
     1
102
RTVSPropertyOp30
 70
     1
102
RTVSPropertyOp31
 70
     1
102
RTVSPropertyOp32
 70
     1
  0
ENDSEC
  0
EOF
