  0
SECTION
  2
HEADER
  9
$ACADVER
  1
AC1009
  9
$INSBASE
 10
0.0
 20
0.0
 30
0.0
  9
$EXTMIN
 10
-105.46952794529319
 20
-48.75
 30
0.0
  9
$EXTMAX
 10
274.0
 20
81.000000000000171
 30
0.0
  9
$LIMMIN
 10
0.0
 20
0.0
  9
$LIMMAX
 10
297.0
 20
210.0
  9
$ORTHOMODE
 70
     0
  9
$REGENMODE
 70
     1
  9
$FILLMODE
 70
     1
  9
$QTEXTMODE
 70
     0
  9
$MIRRTEXT
 70
     1
  9
$DRAGMODE
 70
     2
  9
$LTSCALE
 40
10.0
  9
$OSMODE
 70
    61
  9
$ATTMODE
 70
     1
  9
$TEXTSIZE
 40
3.0
  9
$TRACEWID
 40
1.0
  9
$TEXTSTYLE
  7
YOKO
  9
$CLAYER
  8
240
  9
$CELTYPE
  6
BYLAYER
  9
$CECOLOR
 62
   256
  9
$DIMSCALE
 40
1.0
  9
$DIMASZ
 40
2.2299999999999991
  9
$DIMEXO
 40
0.5
  9
$DIMDLI
 40
7.0
  9
$DIMRND
 40
0.0
  9
$DIMDLE
 40
0.0
  9
$DIMEXE
 40
1.0
  9
$DIMTP
 40
0.0
  9
$DIMTM
 40
0.01
  9
$DIMTXT
 40
2.7999999999999989
  9
$DIMCEN
 40
0.0
  9
$DIMTSZ
 40
0.0
  9
$DIMTOL
 70
     0
  9
$DIMLIM
 70
     0
  9
$DIMTIH
 70
     0
  9
$DIMTOH
 70
     0
  9
$DIMSE1
 70
     0
  9
$DIMSE2
 70
     0
  9
$DIMTAD
 70
     3
  9
$DIMZIN
 70
     9
  9
$DIMBLK
  1
OPEN
  9
$DIMASO
 70
     1
  9
$DIMSHO
 70
     1
  9
$DIMPOST
  1

  9
$DIMAPOST
  1

  9
$DIMALT
 70
     0
  9
$DIMALTD
 70
     2
  9
$DIMALTF
 40
25.399999999999999
  9
$DIMLFAC
 40
1.0
  9
$DIMTOFL
 70
     1
  9
$DIMTVP
 40
0.0
  9
$DIMTIX
 70
     1
  9
$DIMSOXD
 70
     0
  9
$DIMSAH
 70
     0
  9
$DIMBLK1
  1

  9
$DIMBLK2
  1

  9
$DIMSTYLE
  2
BIGT
  9
$DIMCLRD
 70
   256
  9
$DIMCLRE
 70
   256
  9
$DIMCLRT
 70
    40
  9
$DIMTFAC
 40
1.0
  9
$DIMGAP
 40
1.0
  9
$LUNITS
 70
     2
  9
$LUPREC
 70
     6
  9
$SKETCHINC
 40
1.0
  9
$FILLETRAD
 40
0.0
  9
$AUNITS
 70
     0
  9
$AUPREC
 70
     6
  9
$MENU
  1
.
  9
$ELEVATION
 40
0.0
  9
$PELEVATION
 40
0.0
  9
$THICKNESS
 40
0.0
  9
$LIMCHECK
 70
     0
  9
$BLIPMODE
 70
     0
  9
$CHAMFERA
 40
0.2
  9
$CHAMFERB
 40
0.2
  9
$SKPOLY
 70
     0
  9
$TDCREATE
 40
2459258.610660776
  9
$TDUPDATE
 40
2459262.4735224419
  9
$TDINDWG
 40
0.0057437616
  9
$TDUSRTIMER
 40
0.0057436806
  9
$USRTIMER
 70
     1
  9
$ANGBASE
 50
0.0
  9
$ANGDIR
 70
     0
  9
$PDMODE
 70
     1
  9
$PDSIZE
 40
0.0
  9
$PLINEWID
 40
0.0
  9
$COORDS
 70
     1
  9
$SPLFRAME
 70
     0
  9
$SPLINETYPE
 70
     6
  9
$SPLINESEGS
 70
     4
  9
$ATTDIA
 70
     1
  9
$ATTREQ
 70
     1
  9
$HANDLING
 70
     1
  9
$HANDSEED
  5
4577
  9
$SURFTAB1
 70
     6
  9
$SURFTAB2
 70
     6
  9
$SURFTYPE
 70
     6
  9
$SURFU
 70
     6
  9
$SURFV
 70
     6
  9
$UCSNAME
  2

  9
$UCSORG
 10
0.0
 20
0.0
 30
0.0
  9
$UCSXDIR
 10
1.0
 20
0.0
 30
0.0
  9
$UCSYDIR
 10
0.0
 20
1.0
 30
0.0
  9
$PUCSNAME
  2

  9
$PUCSORG
 10
0.0
 20
0.0
 30
0.0
  9
$PUCSXDIR
 10
1.0
 20
0.0
 30
0.0
  9
$PUCSYDIR
 10
0.0
 20
1.0
 30
0.0
  9
$USERI1
 70
     1
  9
$USERI2
 70
     0
  9
$USERI3
 70
     0
  9
$USERI4
 70
     0
  9
$USERI5
 70
     0
  9
$USERR1
 40
0.0
  9
$USERR2
 40
0.0
  9
$USERR3
 40
0.0
  9
$USERR4
 40
0.0
  9
$USERR5
 40
0.0
  9
$WORLDVIEW
 70
     1
  9
$SHADEDGE
 70
     3
  9
$SHADEDIF
 70
    70
  9
$TILEMODE
 70
     1
  9
$MAXACTVP
 70
    16
  9
$PLIMCHECK
 70
     0
  9
$PEXTMIN
 10
1.0000000000000000E+020
 20
1.0000000000000000E+020
 30
1.0000000000000000E+020
  9
$PEXTMAX
 10
-1.0000000000000000E+020
 20
-1.0000000000000000E+020
 30
-1.0000000000000000E+020
  9
$PLIMMIN
 10
0.0
 20
0.0
  9
$PLIMMAX
 10
420.0
 20
297.0
  9
$UNITMODE
 70
     0
  9
$VISRETAIN
 70
     1
  9
$PLINEGEN
 70
     0
  9
$PSLTSCALE
 70
     1
  0
ENDSEC
  0
SECTION
  2
TABLES
  0
TABLE
  2
VPORT
 70
     1
  0
VPORT
  2
*ACTIVE
 70
     0
 10
0.0
 20
0.0
 11
1.0
 21
1.0
 12
87.032150828390684
 22
26.770677795446488
 13
0.0
 23
0.0
 14
7.0
 24
7.0
 15
7.0
 25
7.0
 16
0.0
 26
0.0
 36
1.0
 17
0.0
 27
0.0
 37
0.0
 40
366.52784084752329
 41
1.607323232323232
 42
50.0
 43
0.0
 44
0.0
 50
0.0
 51
0.0
 71
     0
 72
  2000
 73
     1
 74
     0
 75
     0
 76
     1
 77
     0
 78
     0
  0
ENDTAB
  0
TABLE
  2
LTYPE
 70
    16
  0
LTYPE
  2
CONTINUOUS
 70
     0
  3
Solid line
 72
    65
 73
     0
 40
0.0
  0
LTYPE
  2
CENTER2
 70
     0
  3
___ _ ___ _ ___ _ ___ _ ___ _ ___ _ ___ _ ___ _
 72
    65
 73
     4
 40
1.125
 49
0.75
 49
-0.125
 49
0.125
 49
-0.125
  0
LTYPE
  2
HIDDEN2
 70
     0
  3
_ _ _ _ _ _ _ _ _ _ _ _ _ _ _ _ _ _ _ _ _ _ _ _
 72
    65
 73
     2
 40
0.1875
 49
0.125
 49
-0.0625
  0
LTYPE
  2
PHANTOM2
 70
     0
  3
___ _ _ ___ _ _ ___ _ _ ___ _ _ ___ _ _ ___ _ _
 72
    65
 73
     6
 40
1.25
 49
0.625
 49
-0.125
 49
0.125
 49
-0.125
 49
0.125
 49
-0.125
  0
LTYPE
  2
AM_ISO02W050
 70
     0
  3
__ __ __ __ __ __ __ __ __ __ __ __ __ __ __
 72
    65
 73
     2
 40
7.5
 49
6.0
 49
-1.5
  0
LTYPE
  2
AMCONSTR
 70
     0
  3
_______________________
 72
    65
 73
     2
 40
9999.0
 49
9999.0
 49
0.0
  0
LTYPE
  2
ACISOWELD
 70
     0
  3
_ _ _ _ _
 72
    65
 73
     2
 40
2.0
 49
2.0
 49
-1.0
  0
LTYPE
  2
ACISOTGB
 70
     0
  3
__ . . __ . .
 72
    65
 73
     6
 40
9.0
 49
4.0
 49
-1.0
 49
1.0
 49
-1.0
 49
1.0
 49
-1.0
  0
LTYPE
  2
ACISOTGL
 70
     0
  3
_ _ _ _ _
 72
    65
 73
     2
 40
3.0
 49
2.0
 49
-1.0
  0
LTYPE
  2
ACJISTGB
 70
     0
  3
__ . . __ . .
 72
    65
 73
     6
 40
9.0
 49
4.0
 49
-1.0
 49
1.0
 49
-1.0
 49
1.0
 49
-1.0
  0
LTYPE
  2
ACJISTGL
 70
     0
  3
_ _ _ _ _
 72
    65
 73
     2
 40
3.0
 49
2.0
 49
-1.0
  0
ENDTAB
  0
TABLE
  2
LAYER
 70
     9
  0
LAYER
  2
0
 70
     0
 62
     7
  6
CONTINUOUS
  0
LAYER
  2
DEFPOINTS
 70
     0
 62
     7
  6
CONTINUOUS
  0
LAYER
  2
245
 70
     0
 62
     2
  6
CENTER2
  0
LAYER
  2
240
 70
     0
 62
     4
  6
CONTINUOUS
  0
LAYER
  2
241
 70
     0
 62
   211
  6
CONTINUOUS
  0
LAYER
  2
242
 70
     0
 62
     3
  6
CONTINUOUS
  0
LAYER
  2
243
 70
     0
 62
   211
  6
HIDDEN2
  0
LAYER
  2
247
 70
     0
 62
    60
  6
CONTINUOUS
  0
LAYER
  2
250
 70
     0
 62
     3
  6
CONTINUOUS
  0
ENDTAB
  0
TABLE
  2
STYLE
 70
     8
  0
STYLE
  2
STANDARD
 70
     0
 40
0.0
 41
1.0
 50
0.0
 71
     0
 42
3.0
  3
romans.shx
  4
extfont.shx
  0
STYLE
  2
ACISOTS
 70
     0
 40
1.0
 41
1.0
 50
0.0
 71
     0
 42
3.0
  3
amgdt.shx
  4
extfont.shx
  0
STYLE
  2
ACISOGDT
 70
     0
 40
0.0
 41
1.0
 50
0.0
 71
     0
 42
3.0
  3
amgdt.shx
  4
extfont.shx
  0
STYLE
  2
ACJISTS
 70
     0
 40
1.0
 41
1.0
 50
0.0
 71
     0
 42
3.0
  3
amgdt.shx
  4
extfont.shx
  0
STYLE
  2
ACJISGDT
 70
     0
 40
0.0
 41
1.0
 50
0.0
 71
     0
 42
3.0
  3
amgdt.shx
  4
extfont.shx
  0
STYLE
  2
YOKO
 70
     0
 40
0.0
 41
1.0
 50
0.0
 71
     0
 42
3.0
  3
romans.shx
  4
extfont.shx
  0
ENDTAB
  0
TABLE
  2
VIEW
 70
     0
  0
ENDTAB
  0
TABLE
  2
UCS
 70
     0
  0
ENDTAB
  0
TABLE
  2
APPID
 70
    42
  0
APPID
  2
ACAD
 70
     0
  0
APPID
  2
GLOBAL
 70
     0
  0
APPID
  2
DETAIL
 70
     0
  0
APPID
  2
GRPNAME
 70
     0
  0
APPID
  2
GPARA
 70
     0
  0
APPID
  2
MCAD_NO_VIS
 70
     0
  0
APPID
  2
ACAD_TEMP_GRAPHIC
 70
     0
  0
APPID
  2
ACATTRIBSERVICES
 70
     0
  0
APPID
  2
GENIUS_GENSCREG_15
 70
     0
  0
APPID
  2
GENIUS_GENODEF_13
 70
     0
  0
APPID
  2
GENIUS_GENOBJ-N-SDF_13
 70
     0
  0
APPID
  2
GENIUS_GENREC_14
 70
     0
  0
APPID
  2
GENIUS_GENOBJ-N-REC_13
 70
     0
  0
APPID
  2
GENIUS_GENDIMSH_14
 70
     0
  0
APPID
  2
GENIUS_GENOBJ-N-DIM_13
 70
     0
  0
APPID
  2
GENIUS_GENDIM_13
 70
     0
  0
APPID
  2
GENIUS_GENDTOL_13
 70
     0
  0
APPID
  2
GENIUS_GENOLIS_13
 70
     0
  0
APPID
  2
GENIUS_GENOENT_13
 70
     0
  0
APPID
  2
GENIUS_GENOBJ-F-FEM_13
 70
     0
  0
APPID
  2
GENIUS_GENOREF_13
 70
     0
  0
APPID
  2
GENIUS_GEFFEM_13
 70
     0
  0
APPID
  2
GENIUS_GEFFEMP_13
 70
     0
  0
APPID
  2
AD_DRAW
 70
     0
  0
APPID
  2
DESIGNERASSEMBLIES
 70
     0
  0
APPID
  2
ACADM_DIM_EDIT
 70
     0
  0
APPID
  2
AMDT_DM_ADJ
 70
     0
  0
APPID
  2
ITEMNAME
 70
     0
  0
APPID
  2
GENIUS_GENOBJ-N-FIL_13
 70
     0
  0
APPID
  2
GENIUS_GENFIL_13
 70
     0
  0
APPID
  2
GENIUS_GENOBJ-N-CHA_13
 70
     0
  0
APPID
  2
ACAD_NAV_VCDISPLAY
 70
     0
  0
APPID
  2
ACAD_DSTYLE_DIMJAG
 70
     0
  0
APPID
  2
ACAD_DSTYLE_DIMBREAK
 70
     0
  0
APPID
  2
ACAD_EXEMPT_FROM_CAD_STANDARDS
 70
     0
  0
APPID
  2
ACAECLAYERSTANDARD
 70
     0
  0
APPID
  2
ACAD_DSTYLE_DIMINSPECT
 70
     0
  0
APPID
  2
ACAD_MLEADERVER
 70
     0
  0
APPID
  2
ACAD_DSTYLE_DIMARC_LENGTH_
 70
     0
  0
APPID
  2
ACAD_DSTYLE_DIM_LINETYPE
 70
     0
  0
APPID
  2
ACAD_DSTYLE_DIM_EXT1_LINETYPE
 70
     0
  0
APPID
  2
ACAD_DSTYLE_DIM_EXT2_LINETYPE
 70
     0
  0
ENDTAB
  0
TABLE
  2
DIMSTYLE
 70
    29
  0
DIMSTYLE
  2
BIGT
 70
     0
  3

  4

  5
OPEN
  6

  7

 40
1.0
 41
2.2299999999999991
 42
0.5
 43
7.0
 44
1.0
 45
0.0
 46
0.0
 47
0.0
 48
0.01
140
2.7999999999999989
141
0.0
142
0.0
143
25.399999999999999
144
1.0
145
0.0
146
1.0
147
1.0
 71
     0
 72
     0
 73
     0
 74
     0
 75
     0
 76
     0
 77
     3
 78
     9
170
     0
171
     2
172
     1
173
     0
174
     1
175
     0
176
   256
177
   256
178
    40
  0
DIMSTYLE
  2
AM_ISO
 70
     0
  3

  4
"
  5

  6

  7

 40
1.0
 41
2.5
 42
1.0
 43
10.0
 44
1.0
 45
0.0
 46
0.0
 47
0.1
 48
0.1
140
3.5
141
0.0
142
0.0
143
0.0393701
144
1.0
145
0.0
146
0.71
147
1.5
 71
     0
 72
     0
 73
     0
 74
     0
 75
     0
 76
     0
 77
     1
 78
     8
170
     0
171
     2
172
     1
173
     0
174
     0
175
     0
176
   256
177
   256
178
     2
  0
DIMSTYLE
  2
AM_ISO$3
 70
     0
  3

  4
"
  5

  6

  7

 40
1.0
 41
2.5
 42
1.0
 43
10.0
 44
1.0
 45
0.0
 46
0.0
 47
0.1
 48
0.1
140
3.5
141
0.0
142
0.0
143
0.0393701
144
1.0
145
0.0
146
0.71
147
1.5
 71
     0
 72
     0
 73
     0
 74
     1
 75
     0
 76
     0
 77
     1
 78
     8
170
     0
171
     2
172
     0
173
     0
174
     0
175
     0
176
   256
177
   256
178
     2
  0
DIMSTYLE
  2
AM_ISO$4
 70
     0
  3

  4
"
  5

  6

  7

 40
1.0
 41
2.5
 42
1.0
 43
10.0
 44
1.0
 45
0.0
 46
0.0
 47
0.1
 48
0.1
140
3.5
141
0.0
142
0.0
143
0.0393701
144
1.0
145
0.0
146
0.71
147
1.5
 71
     0
 72
     0
 73
     0
 74
     1
 75
     0
 76
     0
 77
     1
 78
     8
170
     0
171
     2
172
     0
173
     0
174
     0
175
     0
176
   256
177
   256
178
     2
  0
DIMSTYLE
  2
AM_ISO$6
 70
     0
  3

  4
"
  5

  6

  7

 40
1.0
 41
2.5
 42
1.0
 43
10.0
 44
1.0
 45
0.0
 46
0.0
 47
0.1
 48
0.1
140
3.5
141
0.0
142
0.0
143
0.0393701
144
1.0
145
0.0
146
0.71
147
1.5
 71
     0
 72
     0
 73
     0
 74
     0
 75
     0
 76
     0
 77
     0
 78
     8
170
     0
171
     2
172
     1
173
     0
174
     0
175
     0
176
   256
177
   256
178
     2
  0
DIMSTYLE
  2
AM_ISO$7
 70
     0
  3

  4
"
  5

  6

  7

 40
1.0
 41
2.5
 42
1.0
 43
10.0
 44
1.0
 45
0.0
 46
0.0
 47
0.1
 48
0.1
140
5.0
141
0.0
142
0.0
143
0.0393701
144
1.0
145
0.0
146
0.71
147
1.5
 71
     0
 72
     0
 73
     0
 74
     0
 75
     0
 76
     0
 77
     1
 78
     8
170
     0
171
     2
172
     1
173
     0
174
     0
175
     0
176
   256
177
   256
178
     2
  0
DIMSTYLE
  2
AM_ISO$SF
 70
     0
  3

  4
"
  5

  6

  7

 40
1.0
 41
2.5
 42
1.0
 43
10.0
 44
1.0
 45
0.0
 46
0.0
 47
0.1
 48
0.1
140
3.5
141
0.0
142
0.0
143
0.0393701
144
1.0
145
0.0
146
0.71
147
1.5
 71
     0
 72
     0
 73
     0
 74
     0
 75
     1
 76
     1
 77
     1
 78
     8
170
     0
171
     2
172
     1
173
     0
174
     0
175
     0
176
   256
177
   256
178
     2
  0
DIMSTYLE
  2
AM_ISO$SH
 70
     0
  3

  4
"
  5

  6
GENAXEH
  7

 40
1.0
 41
2.5
 42
1.0
 43
10.0
 44
1.0
 45
0.0
 46
0.0
 47
0.1
 48
0.1
140
3.5
141
0.0
142
0.0
143
0.0393701
144
2.0
145
0.0
146
0.71
147
1.5
 71
     0
 72
     0
 73
     0
 74
     0
 75
     1
 76
     1
 77
     1
 78
     8
170
     0
171
     2
172
     1
173
     1
174
     0
175
     0
176
   256
177
   256
178
     2
  0
DIMSTYLE
  2
BIGT$2
 70
     0
  3

  4

  5
OPEN
  6

  7

 40
1.0
 41
2.2299999999999991
 42
0.5
 43
7.0
 44
1.0
 45
0.0
 46
0.0
 47
0.0
 48
0.01
140
2.7999999999999989
141
0.0
142
0.0
143
25.399999999999999
144
1.0
145
0.0
146
1.0
147
1.0
 71
     0
 72
     0
 73
     0
 74
     0
 75
     0
 76
     0
 77
     3
 78
     9
170
     0
171
     2
172
     1
173
     0
174
     0
175
     0
176
   256
177
   256
178
    40
  0
DIMSTYLE
  2
BIGT$3
 70
     0
  3

  4

  5
OPEN
  6

  7

 40
1.0
 41
2.2299999999999991
 42
0.5
 43
2.5
 44
1.0
 45
0.0
 46
0.0
 47
0.0
 48
0.01
140
2.7999999999999989
141
0.0
142
0.0
143
25.399999999999999
144
1.0
145
0.0
146
1.0
147
1.0
 71
     0
 72
     0
 73
     0
 74
     0
 75
     0
 76
     0
 77
     3
 78
     9
170
     0
171
     2
172
     1
173
     0
174
     0
175
     0
176
   256
177
   256
178
    40
  0
DIMSTYLE
  2
BIGT$7
 70
     0
  3

  4

  5
OPEN
  6

  7

 40
0.0
 41
2.2299999999999991
 42
0.5
 43
7.0
 44
1.0
 45
0.0
 46
0.0
 47
0.0
 48
0.01
140
2.7999999999999989
141
0.0
142
0.0
143
25.399999999999999
144
1.0
145
0.0
146
1.0
147
1.0
 71
     0
 72
     0
 73
     0
 74
     0
 75
     0
 76
     0
 77
     3
 78
     9
170
     0
171
     2
172
     0
173
     0
174
     0
175
     0
176
   256
177
   256
178
    40
  0
DIMSTYLE
  2
BIGT$6
 70
     0
  3

  4

  5
OPEN
  6

  7

 40
1.0
 41
2.2299999999999991
 42
0.5
 43
2.5
 44
1.0
 45
0.0
 46
0.0
 47
0.0
 48
0.01
140
2.7999999999999989
141
0.0
142
0.0
143
25.399999999999999
144
1.0
145
0.0
146
1.0
147
1.0
 71
     0
 72
     0
 73
     0
 74
     0
 75
     0
 76
     0
 77
     3
 78
     9
170
     0
171
     2
172
     1
173
     0
174
     0
175
     0
176
   256
177
   256
178
    40
  0
DIMSTYLE
  2
BIGT$0
 70
     0
  3

  4

  5
OPEN
  6

  7

 40
1.0
 41
2.2299999999999991
 42
0.5
 43
7.0
 44
1.0
 45
0.0
 46
0.0
 47
0.0
 48
0.01
140
2.7999999999999989
141
0.0
142
0.0
143
25.399999999999999
144
1.0
145
0.0
146
1.0
147
1.0
 71
     0
 72
     0
 73
     0
 74
     0
 75
     0
 76
     0
 77
     3
 78
     9
170
     0
171
     2
172
     1
173
     0
174
     1
175
     0
176
   256
177
   256
178
    40
  0
DIMSTYLE
  2
BIGT$4
 70
     0
  3

  4

  5
OPEN
  6

  7

 40
1.0
 41
2.2299999999999991
 42
0.5
 43
2.5
 44
1.0
 45
0.0
 46
0.0
 47
0.0
 48
0.01
140
2.7999999999999989
141
0.0
142
0.0
143
25.399999999999999
144
1.0
145
0.0
146
1.0
147
1.0
 71
     0
 72
     0
 73
     0
 74
     0
 75
     0
 76
     0
 77
     3
 78
     9
170
     0
171
     2
172
     1
173
     0
174
     0
175
     0
176
   256
177
   256
178
    40
  0
DIMSTYLE
  2
BIGT$SH
 70
     0
  3

  4

  5
OPEN
  6

  7

 40
1.0
 41
2.2299999999999991
 42
0.5
 43
7.0
 44
1.0
 45
0.0
 46
0.0
 47
0.0
 48
0.0
140
2.7999999999999989
141
0.0
142
0.0
143
25.399999999999999
144
1.0
145
0.0
146
1.0
147
1.0
 71
     0
 72
     0
 73
     0
 74
     0
 75
     0
 76
     0
 77
     3
 78
     9
170
     0
171
     2
172
     1
173
     0
174
     0
175
     0
176
   256
177
   256
178
    40
  0
DIMSTYLE
  2
BIGT$SF
 70
     0
  3

  4

  5
OPEN
  6

  7

 40
1.0
 41
2.2299999999999991
 42
0.5
 43
7.0
 44
1.0
 45
0.0
 46
0.0
 47
0.0
 48
0.0
140
2.7999999999999989
141
0.0
142
0.0
143
25.399999999999999
144
1.0
145
0.0
146
1.0
147
1.0
 71
     0
 72
     0
 73
     0
 74
     0
 75
     0
 76
     0
 77
     3
 78
     9
170
     0
171
     2
172
     1
173
     0
174
     0
175
     0
176
   256
177
   256
178
    40
  0
DIMSTYLE
  2
TECHNICAL_OSAKA
 70
     0
  3

  4
"
  5
OPEN30
  6

  7

 40
1.0
 41
2.5
 42
1.0
 43
10.0
 44
1.0
 45
0.0
 46
0.0
 47
0.1
 48
0.1
140
2.7999999999999989
141
0.0
142
0.0
143
0.0393701
144
1.0
145
0.0
146
0.71
147
1.5
 71
     0
 72
     0
 73
     0
 74
     0
 75
     0
 76
     0
 77
     3
 78
     8
170
     0
171
     2
172
     1
173
     0
174
     0
175
     0
176
   256
177
   256
178
    40
  0
DIMSTYLE
  2
TECHNICAL_OSAKA$3
 70
     0
  3

  4
"
  5
OPEN30
  6

  7

 40
1.0
 41
2.5
 42
1.0
 43
10.0
 44
1.0
 45
0.0
 46
0.0
 47
0.1
 48
0.1
140
2.7999999999999989
141
0.0
142
0.0
143
0.0393701
144
1.0
145
0.0
146
0.71
147
1.5
 71
     0
 72
     0
 73
     0
 74
     1
 75
     0
 76
     0
 77
     3
 78
     8
170
     0
171
     2
172
     0
173
     0
174
     0
175
     0
176
   256
177
   256
178
    40
  0
DIMSTYLE
  2
TECHNICAL_OSAKA$4
 70
     0
  3

  4
"
  5
OPEN30
  6

  7

 40
1.0
 41
2.5
 42
1.0
 43
10.0
 44
1.0
 45
0.0
 46
0.0
 47
0.1
 48
0.1
140
2.7999999999999989
141
0.0
142
0.0
143
0.0393701
144
1.0
145
0.0
146
0.71
147
1.5
 71
     0
 72
     0
 73
     0
 74
     1
 75
     0
 76
     0
 77
     3
 78
     8
170
     0
171
     2
172
     0
173
     0
174
     0
175
     0
176
   256
177
   256
178
    40
  0
DIMSTYLE
  2
TECHNICAL_OSAKA$6
 70
     0
  3

  4
"
  5
OPEN30
  6

  7

 40
1.0
 41
2.5
 42
1.0
 43
10.0
 44
1.0
 45
0.0
 46
0.0
 47
0.1
 48
0.1
140
2.7999999999999989
141
0.0
142
0.0
143
0.0393701
144
1.0
145
0.0
146
0.71
147
1.5
 71
     0
 72
     0
 73
     0
 74
     0
 75
     0
 76
     0
 77
     0
 78
     8
170
     0
171
     2
172
     1
173
     0
174
     0
175
     0
176
   256
177
   256
178
    40
  0
DIMSTYLE
  2
TECHNICAL_OSAKA$7
 70
     0
  3

  4
"
  5
OPEN30
  6

  7

 40
1.0
 41
2.5
 42
1.0
 43
10.0
 44
1.0
 45
0.0
 46
0.0
 47
0.1
 48
0.1
140
2.7999999999999989
141
0.0
142
0.0
143
0.0393701
144
1.0
145
0.0
146
0.71
147
1.5
 71
     0
 72
     0
 73
     0
 74
     0
 75
     0
 76
     0
 77
     3
 78
     8
170
     0
171
     2
172
     1
173
     0
174
     0
175
     0
176
   256
177
   256
178
    40
  0
DIMSTYLE
  2
TECHNICAL_OSAKA$SF
 70
     0
  3

  4
"
  5
OPEN30
  6
OPEN30
  7
OPEN30
 40
1.0
 41
2.5
 42
1.0
 43
10.0
 44
1.0
 45
0.0
 46
0.0
 47
0.1
 48
0.1
140
3.5
141
0.0
142
0.0
143
0.0393701
144
1.0
145
0.0
146
0.71
147
1.5
 71
     0
 72
     0
 73
     0
 74
     0
 75
     1
 76
     1
 77
     3
 78
     8
170
     0
171
     2
172
     1
173
     0
174
     0
175
     0
176
   256
177
   256
178
    40
  0
DIMSTYLE
  2
TECHNICAL_OSAKA$SH
 70
     0
  3

  4
"
  5
OPEN30
  6
GENAXEH
  7
OPEN30
 40
1.0
 41
2.5
 42
1.0
 43
10.0
 44
1.0
 45
0.0
 46
0.0
 47
0.1
 48
0.1
140
3.5
141
0.0
142
0.0
143
0.0393701
144
2.0
145
0.0
146
0.71
147
1.5
 71
     0
 72
     0
 73
     0
 74
     0
 75
     1
 76
     1
 77
     3
 78
     8
170
     0
171
     2
172
     1
173
     1
174
     0
175
     0
176
   256
177
   256
178
    40
  0
ENDTAB
  0
ENDSEC
  0
SECTION
  2
BLOCKS
  0
BLOCK
  8
0
  2
$MODEL_SPACE
 70
     0
 10
0.0
 20
0.0
 30
0.0
  3
$MODEL_SPACE
  1

  0
ENDBLK
  5
1C
  8
0
  0
BLOCK
 67
     1
  8
0
  2
$PAPER_SPACE
 70
     0
 10
0.0
 20
0.0
 30
0.0
  3
$PAPER_SPACE
  1

  0
ENDBLK
  5
19
 67
     1
  8
0
  0
BLOCK
  8
0
  2
_OPEN
 70
     0
 10
0.0
 20
0.0
 30
0.0
  3
_OPEN
  1

  0
LINE
  5
447E
  8
0
  6
BYBLOCK
 62
     0
 10
-1.0
 20
0.1666666666666666
 30
0.0
 11
0.0
 21
0.0
 31
0.0
  0
LINE
  5
447F
  8
0
  6
BYBLOCK
 62
     0
 10
-1.0
 20
-0.1666666666666666
 30
0.0
 11
0.0
 21
0.0
 31
0.0
  0
LINE
  5
4480
  8
0
  6
BYBLOCK
 62
     0
 10
0.0
 20
0.0
 30
0.0
 11
-1.0
 21
0.0
 31
0.0
  0
ENDBLK
  5
4481
  8
0
  0
BLOCK
  8
0
  2
GENAXEH
 70
     0
 10
0.0
 20
0.0
 30
0.0
  3
GENAXEH
  1

  0
LINE
  5
44B9
  8
0
 10
-1.0
 20
0.0
 30
0.0
 11
1.0
 21
0.0
 31
0.0
  0
ENDBLK
  5
44BA
  8
0
  0
BLOCK
  8
0
  2
_OPEN30
 70
     0
 10
0.0
 20
0.0
 30
0.0
  3
_OPEN30
  1

  0
LINE
  5
44F5
  8
0
  6
BYBLOCK
 62
     0
 10
-1.0
 20
0.26794919
 30
0.0
 11
0.0
 21
0.0
 31
0.0
  0
LINE
  5
44F6
  8
0
  6
BYBLOCK
 62
     0
 10
0.0
 20
0.0
 30
0.0
 11
-1.0
 21
-0.26794919
 31
0.0
  0
LINE
  5
44F7
  8
0
  6
BYBLOCK
 62
     0
 10
0.0
 20
0.0
 30
0.0
 11
-1.0
 21
0.0
 31
0.0
  0
ENDBLK
  5
44F8
  8
0
  0
ENDSEC
  0
SECTION
  2
ENTITIES
  0
LINE
  5
4242
  8
245
  6
CENTER2
 10
-105.46952794529319
 20
0.0
 30
0.0
 11
259.87375792768728
 21
0.0
 31
0.0
  0
LINE
  5
4243
  8
243
  6
HIDDEN2
 10
1.5
 20
37.699999999999932
 30
0.0
 11
32.200000000000273
 21
37.699999999999932
 31
0.0
  0
LINE
  5
4244
  8
243
  6
HIDDEN2
 10
32.200000000000273
 20
37.699999999999932
 30
0.0
 11
32.20000000000028
 21
38.000000174791239
 31
0.0
  0
LINE
  5
4245
  8
243
  6
HIDDEN2
 10
32.200000000000273
 20
-37.999999825208903
 30
0.0
 11
32.200000000000273
 21
-35.500000000000227
 31
0.0
  0
LINE
  5
4246
  8
243
  6
HIDDEN2
 10
1.5
 20
-35.50000000000022
 30
0.0
 11
32.200000000000273
 21
-35.500000000000227
 31
0.0
  0
LINE
  5
4247
  8
241
  6
CONTINUOUS
 10
13.01249999999663
 20
34.374999999999773
 30
0.0
 11
13.01249999999953
 21
45.624999999999879
 31
0.0
  0
LINE
  5
4248
  8
241
  6
CONTINUOUS
 10
9.1875000000070486
 20
34.374999999999773
 30
0.0
 11
9.1875000000070486
 21
45.624999999999879
 31
0.0
  0
LINE
  5
4249
  8
241
  6
CONTINUOUS
 10
14.34759526419179
 20
38.426065380538489
 30
0.0
 11
14.34759526419179
 21
48.74999999999978
 31
0.0
  0
LINE
  5
424A
  8
241
  6
CONTINUOUS
 10
7.8524047358087019
 20
38.426065380538489
 30
0.0
 11
7.8524047358087019
 21
48.75
 31
0.0
  0
LINE
  5
424B
  8
241
  6
CONTINUOUS
 10
1.5
 20
29.999999999999829
 30
0.0
 11
19.10000000000036
 21
29.999999999999829
 31
0.0
  0
LINE
  5
424C
  8
241
  6
CONTINUOUS
 10
1.5
 20
38.426065380538489
 30
0.0
 11
7.8524047358084772
 21
38.426065380538489
 31
0.0
  0
LINE
  5
424D
  8
241
  6
CONTINUOUS
 10
14.34759526419179
 20
38.426065380538489
 30
0.0
 11
19.10000000000036
 21
38.426065380538489
 31
0.0
  0
LINE
  5
424E
  8
241
  6
CONTINUOUS
 10
13.0125000000005
 20
35.187547169476019
 30
0.0
 11
14.34759526419179
 21
38.426065380538489
 31
0.0
  0
LINE
  5
424F
  8
241
  6
CONTINUOUS
 10
9.1875
 20
34.374999999999773
 30
0.0
 11
13.0125000000005
 21
34.374999999999773
 31
0.0
  0
LINE
  5
4250
  8
241
  6
CONTINUOUS
 10
7.8524047358084772
 20
38.426065380538489
 30
0.0
 11
9.1875
 21
35.187547169475977
 31
0.0
  0
LINE
  5
4251
  8
241
  6
CONTINUOUS
 10
9.1874999999989182
 20
29.999999999999829
 30
0.0
 11
9.1875000000194404
 21
-45.625
 31
0.0
  0
LINE
  5
4252
  8
241
  6
CONTINUOUS
 10
13.01249999999663
 20
29.999999999999829
 30
0.0
 11
13.01249999999663
 21
-45.625
 31
0.0
  0
LINE
  5
4253
  8
241
  6
CONTINUOUS
 10
19.10000000000036
 20
-42.999999808982487
 30
0.0
 11
19.10000000000036
 21
43.000000191017648
 31
0.0
  0
LINE
  5
4254
  8
241
  6
CONTINUOUS
 10
1.5
 20
-34.925000000000068
 30
0.0
 11
1.5
 21
34.925000000000068
 31
0.0
  0
LINE
  5
4255
  8
241
  6
CONTINUOUS
 10
14.34759526419179
 20
29.999999999999829
 30
0.0
 11
14.34759526419179
 21
-48.75
 31
0.0
  0
LINE
  5
4256
  8
241
  6
CONTINUOUS
 10
7.8524047358087614
 20
29.999999999999829
 30
0.0
 11
7.852404735808646
 21
-48.749999999999659
 31
0.0
  0
LINE
  5
4257
  8
241
  6
CONTINUOUS
 10
0.0
 20
-34.925000000000068
 30
0.0
 11
0.0
 21
34.925000000000068
 31
0.0
  0
LINE
  5
4258
  8
240
  6
CONTINUOUS
 10
1.5
 20
48.749999999999858
 30
0.0
 11
1.5
 21
34.925000000000068
 31
0.0
  0
LINE
  5
425A
  8
240
  6
CONTINUOUS
 10
19.10000000000036
 20
48.749999999999922
 30
0.0
 11
19.100000000000399
 21
43.000000191017612
 31
0.0
  0
LINE
  5
425B
  8
240
  6
CONTINUOUS
 10
13.01249999999953
 20
45.624999999999879
 30
0.0
 11
13.012500000000729
 21
46.437547169476709
 31
0.0
  0
LINE
  5
425C
  8
240
  6
CONTINUOUS
 10
9.1875000000070486
 20
45.624999999999879
 30
0.0
 11
13.01249999999953
 21
45.624999999999879
 31
0.0
  0
LINE
  5
425D
  8
240
  6
CONTINUOUS
 10
9.1875000000007354
 20
45.624999999999879
 30
0.0
 11
9.1874999999995435
 21
46.43754716947636
 31
0.0
  0
LINE
  5
425F
  8
240
  6
CONTINUOUS
 10
19.10000000000036
 20
-48.75
 30
0.0
 11
19.10000000000036
 21
-42.999999808982487
 31
0.0
  0
LINE
  5
4260
  8
240
  6
CONTINUOUS
 10
13.0124999999901
 20
-45.625
 30
0.0
 11
13.012500000000729
 21
-46.437547169476602
 31
0.0
  0
LINE
  5
4261
  8
240
  6
CONTINUOUS
 10
9.1875000000194404
 20
-45.625
 30
0.0
 11
13.0124999999901
 21
-45.625
 31
0.0
  0
LINE
  5
4262
  8
240
  6
CONTINUOUS
 10
9.1875000000194404
 20
-45.625
 30
0.0
 11
9.1874999999993161
 21
-46.43754716947717
 31
0.0
  0
LINE
  5
4263
  8
240
  6
CONTINUOUS
 10
1.5
 20
-48.75
 30
0.0
 11
1.5
 21
-34.925000000000068
 31
0.0
  0
LINE
  5
4264
  8
240
  6
CONTINUOUS
 10
7.852404735808534
 20
-48.75
 30
0.0
 11
1.5
 21
-48.75
 31
0.0
  0
LINE
  5
4265
  8
240
  6
CONTINUOUS
 10
7.8524047358084772
 20
48.75
 30
0.0
 11
1.5
 21
48.749999999999858
 31
0.0
  0
LINE
  5
4266
  8
240
  6
CONTINUOUS
 10
0.0
 20
34.924999999999962
 30
0.0
 11
-101.75
 21
20.086539892447409
 31
0.0
  0
LINE
  5
4267
  8
240
  6
CONTINUOUS
 10
0.0
 20
-34.925000000000068
 30
0.0
 11
-101.75
 21
-20.08653989244765
 31
0.0
  0
LINE
  5
4268
  8
240
  6
CONTINUOUS
 10
-101.75
 20
20.086539892447409
 30
0.0
 11
-101.75
 21
-20.08653989244765
 31
0.0
  0
LINE
  5
4269
  8
240
  6
CONTINUOUS
 10
7.8524047358084772
 20
48.75
 30
0.0
 11
9.1874999999995435
 21
46.43754716947636
 31
0.0
  0
LINE
  5
426A
  8
240
  6
CONTINUOUS
 10
14.34759526419157
 20
48.749999999999773
 30
0.0
 11
13.012500000000729
 21
46.437547169476709
 31
0.0
  0
LINE
  5
426B
  8
240
  6
CONTINUOUS
 10
9.1874999999993161
 20
-46.43754716947717
 30
0.0
 11
7.852404735808534
 21
-48.75
 31
0.0
  0
LINE
  5
426C
  8
240
  6
CONTINUOUS
 10
13.012500000000729
 20
-46.437547169476602
 30
0.0
 11
14.347595264191961
 21
-48.75
 31
0.0
  0
LINE
  5
426D
  8
240
  6
CONTINUOUS
 10
19.10000000000036
 20
-48.75
 30
0.0
 11
14.347595264191961
 21
-48.75
 31
0.0
  0
LINE
  5
426E
  8
240
  6
CONTINUOUS
 10
19.10000000000036
 20
48.749999999999922
 30
0.0
 11
14.34759526419157
 21
48.749999999999773
 31
0.0
  0
LINE
  5
426F
  8
240
  6
CONTINUOUS
 10
0.0
 20
34.925000000000068
 30
0.0
 11
1.5
 21
34.925000000000068
 31
0.0
  0
LINE
  5
4270
  8
240
  6
CONTINUOUS
 10
0.0
 20
-34.925000000000068
 30
0.0
 11
1.5
 21
-34.925000000000068
 31
0.0
  0
LINE
  5
4271
  8
250
  6
CONTINUOUS
 10
-52.16367513459479
 20
-29.07111330576323
 30
0.0
 11
-50.875
 21
-27.50572916486102
 31
0.0
  0
LINE
  5
4272
  8
250
  6
CONTINUOUS
 10
-51.586324865405167
 20
-29.404446639096559
 30
0.0
 11
-50.875
 21
-27.50572916486102
 31
0.0
  0
LINE
  5
4273
  8
250
  6
CONTINUOUS
 10
-50.875
 20
-27.50572916486102
 30
0.0
 11
-51.875
 21
-29.237779972429891
 31
0.0
  0
LINE
  5
4274
  8
250
  6
CONTINUOUS
 10
-51.875
 20
-29.237779972429891
 30
0.0
 11
-57.875575578106307
 21
-39.631081748367031
 31
0.0
1001
ACAD
1000
DSTYLE
1002
{
1070
    41
1040
2.0
1002
}
  0
TEXT
  5
4275
  8
250
  6
CONTINUOUS
 10
-73.608908911439656
 20
-38.631081748367031
 30
0.0
 40
2.799999999999998
  1
BDV50
  7
YOKO
1001
ITEMNAME
1000
LNSP3
  0
LINE
  5
4276
  8
250
  6
CONTINUOUS
 10
-57.875575578106307
 20
-39.631081748367031
 30
0.0
 11
-75.875575578106293
 21
-39.631081748367031
 31
0.0
1001
ITEMNAME
1000
LNSP2
  0
LINE
  5
4277
  8
247
  6
CONTINUOUS
 10
5.9999999999999432
 20
-24.25
 30
0.0
 11
6.0
 21
-19.61538461567002
 31
0.0
  0
LINE
  5
4278
  8
247
  6
CONTINUOUS
 10
3.5
 20
-23.454893499987929
 30
0.0
 11
5.5999999999160082
 21
-24.057058810057359
 31
0.0
  0
LINE
  5
4279
  8
247
  6
CONTINUOUS
 10
4.496153846113998
 20
-22.825151403519019
 30
0.0
 11
4.496153846113998
 21
-23.74053601886704
 31
0.0
  0
ARC
  5
427A
  8
247
  6
CONTINUOUS
 10
3.8847190672940992
 20
-22.587263401946782
 30
0.0
 40
0.3876715809326743
 50
72.997889675292001
 51
172.92416621851359
  0
ARC
  5
427B
  8
247
  6
CONTINUOUS
 10
3.805223131028014
 20
-22.882477556804101
 30
0.0
 40
0.6933047965358767
 50
4.7429368522022122
 51
73.849226273266538
1001
GENIUS_GENOBJ-N-FIL_13
1002
{
1000
OWNER
1000
GEN
1002
}
1001
GENIUS_GENODEF_13
1002
{
1000
HIER
1070
     0
1002
}
1002
{
1000
MANEDIT
1070
     0
1002
}
1002
{
1000
NOSEL
1070
     0
1002
}
1002
{
1000
BEHIND
1070
     0
1002
}
1002
{
1000
OTHER
1070
     0
1002
}
1002
{
1000
REACTOR
1002
}
  0
LINE
  5
427C
  8
247
  6
CONTINUOUS
 10
5.5999999999160082
 20
-23.141674194709331
 30
0.0
 11
5.5999999999160082
 21
-24.057058810057359
 31
0.0
  0
LINE
  5
427D
  8
247
  6
CONTINUOUS
 10
3.5
 20
-23.454893499987929
 30
0.0
 11
3.5
 21
-22.539508884639961
 31
0.0
  0
ARC
  5
427E
  8
247
  6
CONTINUOUS
 10
4.8874169627678707
 20
-22.878306476266829
 30
0.0
 40
0.394857301075386
 50
65.990941652528889
 51
172.26344345906909
  0
ARC
  5
427F
  8
247
  6
CONTINUOUS
 10
4.8912003273325677
 20
-23.212446610426898
 30
0.0
 40
0.7123241612361686
 50
5.7019851642580841
 51
77.277338436822191
1001
GENIUS_GENOBJ-N-FIL_13
1002
{
1000
OWNER
1000
GEN
1002
}
1001
GENIUS_GENODEF_13
1002
{
1000
HIER
1070
     0
1002
}
1002
{
1000
MANEDIT
1070
     0
1002
}
1002
{
1000
NOSEL
1070
     0
1002
}
1002
{
1000
BEHIND
1070
     0
1002
}
1002
{
1000
OTHER
1070
     0
1002
}
1002
{
1000
REACTOR
1002
}
  0
LINE
  5
4280
  8
247
  6
CONTINUOUS
 10
5.5999999999160082
 20
-22.183981887063361
 30
0.0
 11
3.5
 21
-21.581816576993958
 31
0.0
  0
LINE
  5
4281
  8
247
  6
CONTINUOUS
 10
3.5
 20
-20.085662730907959
 30
0.0
 11
3.5
 21
-20.48167836430358
 31
0.0
  0
LINE
  5
4282
  8
247
  6
CONTINUOUS
 10
5.5999999999160082
 20
-21.10873965394396
 30
0.0
 11
5.5999999999160082
 21
-20.677970423191969
 31
0.0
  0
ARC
  5
4283
  8
247
  6
CONTINUOUS
 10
4.9582995950833588
 20
-19.881816577069941
 30
0.0
 40
1.576855057639547
 50
202.35948814152911
 51
254.99324854284609
  0
ARC
  5
4284
  8
247
  6
CONTINUOUS
 10
4.065818858538135
 20
-20.347511366133212
 30
0.0
 40
0.6234706797009447
 50
94.994589319075374
 51
155.1663289573039
1001
GENIUS_GENOBJ-N-FIL_13
1002
{
1000
OWNER
1000
GEN
1002
}
1001
GENIUS_GENODEF_13
1002
{
1000
HIER
1070
     0
1002
}
1002
{
1000
MANEDIT
1070
     0
1002
}
1002
{
1000
NOSEL
1070
     0
1002
}
1002
{
1000
BEHIND
1070
     0
1002
}
1002
{
1000
OTHER
1070
     0
1002
}
1002
{
1000
REACTOR
1002
}
  0
ARC
  5
4285
  8
247
  6
CONTINUOUS
 10
4.6621021219694381
 20
-20.944183951032791
 30
0.0
 40
0.9749472149106983
 50
15.8460965557808
 51
82.325137004169065
  0
ARC
  5
4286
  8
247
  6
CONTINUOUS
 10
4.8714704019710648
 20
-20.535211638772211
 30
0.0
 40
0.9271945638692009
 50
249.7136016704969
 51
321.78874565640928
1001
GENIUS_GENOBJ-N-FIL_13
1002
{
1000
OWNER
1000
GEN
1002
}
1001
GENIUS_GENODEF_13
1002
{
1000
HIER
1070
     0
1002
}
1002
{
1000
MANEDIT
1070
     0
1002
}
1002
{
1000
NOSEL
1070
     0
1002
}
1002
{
1000
BEHIND
1070
     0
1002
}
1002
{
1000
OTHER
1070
     0
1002
}
1002
{
1000
REACTOR
1002
}
  0
LINE
  5
4287
  8
247
  6
CONTINUOUS
 10
4.7923076922559744
 20
-20.462585807815941
 30
0.0
 11
4.7923076922559744
 21
-19.97797042321994
 31
0.0
  0
ARC
  5
4288
  8
247
  6
CONTINUOUS
 10
4.75
 20
-24.25
 30
0.0
 40
1.25
 50
180.0
 51
0.0
  0
LINE
  5
4289
  8
247
  6
CONTINUOUS
 10
3.5
 20
-24.25
 30
0.0
 11
3.5
 21
-23.803846153914009
 31
0.0
  0
ARC
  5
428A
  8
247
  6
CONTINUOUS
 10
4.75
 20
-19.61538461567002
 30
0.0
 40
1.25
 50
0.0
 51
180.0
  0
TEXT
  5
4295
  8
241
  6
CONTINUOUS
 10
-98.0
 20
77.000000000000014
 30
0.0
 40
4.0
  1
BDV50-SDF57-76-220
  7
YOKO
  0
LINE
  5
4311
  8
240
  6
CONTINUOUS
 10
24.100000000000112
 20
38.000000191017648
 30
0.0
 11
220.0
 21
37.999999898793121
 31
0.0
  0
ARC
  5
4313
  8
240
  6
CONTINUOUS
 10
24.100000000000112
 20
43.000000191017648
 30
0.0
 40
5.0
 50
180.0
 51
270.0
1001
GENIUS_GENOREF_13
1005
432F
  0
LINE
  5
4314
  8
240
  6
CONTINUOUS
 10
220.0
 20
37.999999898793121
 30
0.0
 11
220.00000000000011
 21
28.49999989894231
 31
0.0
  0
LINE
  5
4315
  8
240
  6
CONTINUOUS
 10
239.20000000001031
 20
-30.000000101057712
 30
0.0
 11
241.0000000000102
 21
-28.2000001010577
 31
0.0
  0
LINE
  5
4316
  8
240
  6
CONTINUOUS
 10
243.0000000000102
 20
-28.2000001010577
 30
0.0
 11
243.30000000001019
 21
-28.500000101057712
 31
0.0
  0
LINE
  5
4317
  8
240
  6
CONTINUOUS
 10
243.30000000001019
 20
-28.500000101057712
 30
0.0
 11
258.00000000001
 21
-28.500000101057712
 31
0.0
  0
LINE
  5
4318
  8
240
  6
CONTINUOUS
 10
241.0000000000102
 20
-28.2000001010577
 30
0.0
 11
243.0000000000102
 21
-28.2000001010577
 31
0.0
  0
LINE
  5
4319
  8
241
  6
CONTINUOUS
 10
241.0000000000102
 20
-28.2000001010577
 30
0.0
 11
241.0000000000104
 21
28.199999898942309
 31
0.0
  0
LINE
  5
431A
  8
241
  6
CONTINUOUS
 10
219.99999999998971
 20
28.49999989894231
 30
0.0
 11
220.0000000000104
 21
-28.500000101057712
 31
0.0
  0
LINE
  5
431B
  8
241
  6
CONTINUOUS
 10
243.0000000000102
 20
-28.200000101059139
 30
0.0
 11
243.0000000000102
 21
28.199999898942309
 31
0.0
  0
LINE
  5
431C
  8
240
  6
CONTINUOUS
 10
243.0000000000102
 20
28.199999898942309
 30
0.0
 11
243.30000000001019
 21
28.499999898942381
 31
0.0
  0
LINE
  5
431D
  8
240
  6
CONTINUOUS
 10
241.0000000000102
 20
28.199999898942309
 30
0.0
 11
243.0000000000102
 21
28.199999898942309
 31
0.0
  0
LINE
  5
431E
  8
240
  6
CONTINUOUS
 10
239.20000000001031
 20
29.999999898942381
 30
0.0
 11
241.0000000000102
 21
28.199999898942309
 31
0.0
  0
LINE
  5
431F
  8
240
  6
CONTINUOUS
 10
24.100000000000112
 20
-37.999999808982487
 30
0.0
 11
220.00000000000011
 21
-38.000000101206872
 31
0.0
  0
ARC
  5
4321
  8
240
  6
CONTINUOUS
 10
24.100000000000112
 20
-42.999999808982487
 30
0.0
 40
5.0
 50
90.0
 51
180.0
1001
GENIUS_GENOREF_13
1005
0
  0
LINE
  5
4322
  8
240
  6
CONTINUOUS
 10
220.00000000000011
 20
-38.000000101206872
 30
0.0
 11
220.0
 21
-28.500000101057712
 31
0.0
  0
LINE
  5
4323
  8
240
  6
CONTINUOUS
 10
223.99999999999989
 20
-28.500000101059129
 30
0.0
 11
225.49999999999849
 21
-30.000000101057712
 31
0.0
  0
LINE
  5
4324
  8
240
  6
CONTINUOUS
 10
225.49999999999849
 20
-30.000000101057712
 30
0.0
 11
239.19999999999979
 21
-30.000000101057712
 31
0.0
  0
LINE
  5
4325
  8
240
  6
CONTINUOUS
 10
220.0
 20
-28.500000101057712
 30
0.0
 11
223.99999999999849
 21
-28.500000101057712
 31
0.0
  0
LINE
  5
4326
  8
240
  6
CONTINUOUS
 10
223.99999999999849
 20
28.49999989894371
 30
0.0
 11
220.00000000000011
 21
28.49999989894231
 31
0.0
  0
LINE
  5
4327
  8
241
  6
CONTINUOUS
 10
225.49999999999849
 20
-30.000000101057712
 30
0.0
 11
225.49999999999849
 21
29.999999898942381
 31
0.0
  0
LINE
  5
4328
  8
241
  6
CONTINUOUS
 10
223.99999999999989
 20
-28.500000101059129
 30
0.0
 11
223.99999999999989
 21
28.49999989894372
 31
0.0
  0
LINE
  5
4329
  8
242
  6
CONTINUOUS
 10
240.2000000000001
 20
-29.000000101057559
 30
0.0
 11
224.49999999999849
 21
-29.000000101057651
 31
0.0
  0
LINE
  5
432A
  8
242
  6
CONTINUOUS
 10
240.2000000000001
 20
28.99999989894221
 30
0.0
 11
224.49999999999719
 21
28.999999898942381
 31
0.0
  0
LINE
  5
432B
  8
240
  6
CONTINUOUS
 10
223.99999999999849
 20
28.499999898943742
 30
0.0
 11
225.4999999999971
 21
29.999999898942381
 31
0.0
  0
LINE
  5
432C
  8
240
  6
CONTINUOUS
 10
225.4999999999971
 20
29.999999898942381
 30
0.0
 11
239.19999999999979
 21
29.999999898942381
 31
0.0
  0
LINE
  5
432D
  8
240
  6
CONTINUOUS
 10
258.00000000001
 20
28.499999898942409
 30
0.0
 11
258.00000000001
 21
-28.500000101057712
 31
0.0
  0
LINE
  5
432E
  8
240
  6
CONTINUOUS
 10
243.30000000001019
 20
28.499999898942409
 30
0.0
 11
258.00000000001
 21
28.499999898942409
 31
0.0
  0
POINT
  5
432F
  8
0
 10
-155.0934361154514
 20
-161.0000000661519
 30
0.0
1001
GENIUS_GENODEF_13
1002
{
1000
HIER
1070
     1
1002
}
1002
{
1000
MANEDIT
1070
     0
1002
}
1002
{
1000
NOSEL
1070
     0
1002
}
1002
{
1000
BEHIND
1070
     0
1002
}
1002
{
1000
OTHER
1070
     0
1002
}
1002
{
1000
REACTOR
1002
}
1001
GENIUS_GENOENT_13
1002
{
1000
MYREF
1005
432F
1002
}
1002
{
1000
GRP
1005
0
1002
}
1001
GENIUS_GENOBJ-N-FIL_13
1002
{
1000
OWNER
1000
GEN
1002
}
1001
GENIUS_GENOLIS_13
1002
{
1000
ENT
1005
4313
1002
}
  0
LINE
  5
4331
  8
241
  6
CONTINUOUS
 10
239.20000000001031
 20
29.999999898942381
 30
0.0
 11
239.20000000001031
 21
-30.000000101057712
 31
0.0
  0
LINE
  5
43B8
  8
250
  6
CONTINUOUS
 10
220.5
 20
37.999999898793121
 30
0.0
 11
274.0
 21
37.999999898793106
 31
0.0
  0
LINE
  5
43B9
  8
250
  6
CONTINUOUS
 10
220.5
 20
-38.000000101206872
 30
0.0
 11
274.0
 21
-38.000000101206879
 31
0.0
  0
LINE
  5
43BA
  8
250
  6
CONTINUOUS
 10
273.0
 20
35.76999989879311
 30
0.0
 11
273.0
 21
-35.770000101206882
 31
0.0
  0
LINE
  5
43BE
  8
250
  6
CONTINUOUS
 10
0.0
 20
35.425000000000068
 30
0.0
 11
0.0000000000000018
 21
64.0
 31
0.0
  0
LINE
  5
43BF
  8
250
  6
CONTINUOUS
 10
220.0
 20
38.499999898793121
 30
0.0
 11
220.0
 21
64.0
 31
0.0
  0
LINE
  5
43C0
  8
250
  6
CONTINUOUS
 10
2.2300000000000009
 20
63.0
 30
0.0
 11
217.77000000000001
 21
63.0
 31
0.0
  0
TEXT
  5
43C4
  8
250
  6
CONTINUOUS
 10
272.00000000000011
 20
-3.933333434540172
 30
0.0
 40
2.7999999999999989
  1
\U+220576
 50
90.0
  0
LINE
  5
43C5
  8
250
  6
CONTINUOUS
 10
273.37166666666673
 20
-35.770000101206882
 30
0.0
 11
273.0
 21
-38.000000101206879
 31
0.0
  0
LINE
  5
43C6
  8
250
  6
CONTINUOUS
 10
272.62833333333327
 20
-35.770000101206882
 30
0.0
 11
273.0
 21
-38.000000101206879
 31
0.0
  0
LINE
  5
43C7
  8
250
  6
CONTINUOUS
 10
273.0
 20
-38.000000101206879
 30
0.0
 11
273.0
 21
-35.770000101206882
 31
0.0
  0
LINE
  5
43C8
  8
250
  6
CONTINUOUS
 10
272.62833333333327
 20
35.76999989879311
 30
0.0
 11
273.0
 21
37.999999898793106
 31
0.0
  0
LINE
  5
43C9
  8
250
  6
CONTINUOUS
 10
273.37166666666673
 20
35.76999989879311
 30
0.0
 11
273.0
 21
37.999999898793106
 31
0.0
  0
LINE
  5
43CA
  8
250
  6
CONTINUOUS
 10
273.0
 20
37.999999898793106
 30
0.0
 11
273.0
 21
35.76999989879311
 31
0.0
  0
TEXT
  5
43CB
  8
250
  6
CONTINUOUS
 10
106.0
 20
64.000000000000014
 30
0.0
 40
2.7999999999999989
  1
220
  0
LINE
  5
43CC
  8
250
  6
CONTINUOUS
 10
217.77000000000001
 20
63.37166666666667
 30
0.0
 11
220.0
 21
63.0
 31
0.0
  0
LINE
  5
43CD
  8
250
  6
CONTINUOUS
 10
217.77000000000001
 20
62.62833333333333
 30
0.0
 11
220.0
 21
63.0
 31
0.0
  0
LINE
  5
43CE
  8
250
  6
CONTINUOUS
 10
220.0
 20
63.0
 30
0.0
 11
217.77000000000001
 21
63.0
 31
0.0
  0
LINE
  5
43CF
  8
250
  6
CONTINUOUS
 10
2.2300000000000009
 20
62.62833333333333
 30
0.0
 11
0.0000000000000017
 21
63.0
 31
0.0
  0
LINE
  5
43D0
  8
250
  6
CONTINUOUS
 10
2.2300000000000009
 20
63.37166666666667
 30
0.0
 11
0.0000000000000017
 21
63.0
 31
0.0
  0
LINE
  5
43D1
  8
250
  6
CONTINUOUS
 10
0.0000000000000017
 20
63.0
 30
0.0
 11
2.2300000000000009
 21
63.0
 31
0.0
  0
VIEWPORT
  5
22
 67
     1
  8
0
 10
261.51769911504419
 20
148.5
 30
0.0
 40
523.0353982300885
 41
297.0
 68
     1
 69
     1
1001
ACAD
1000
MVIEW
1002
{
1070
    16
1010
0.0
1020
0.0
1030
0.0
1010
0.0
1020
0.0
1030
1.0
1040
0.0
1040
297.0
1040
261.51769911504419
1040
148.5
1040
50.0
1040
0.0
1040
0.0
1070
     0
1070
   100
1070
     1
1070
     1
1070
     0
1070
     0
1070
     0
1070
     0
1040
0.0
1040
0.0
1040
0.0
1040
1.0
1040
1.0
1040
10.0
1040
10.0
1070
     0
1002
{
1002
}
1002
}
1001
GENIUS_GENODEF_13
1002
{
1000
HIER
1070
     0
1002
}
1002
{
1000
MANEDIT
1070
     0
1002
}
1002
{
1000
NOSEL
1070
     0
1002
}
1002
{
1000
BEHIND
1070
     0
1002
}
1002
{
1000
OTHER
1070
     0
1002
}
1002
{
1000
REACTOR
1002
}
1001
GENIUS_GENOBJ-N-SDF_13
1002
{
1000
OWNER
1000
GEN
1002
}
1001
GENIUS_GENSCREG_15
1000
PF
1040
1.0
1000
DF
1040
1.0
1000
MIN
1011
0.0
1021
0.0
1031
0.0
1021
0.0
1031
0.0
1000
MAX
1011
523.0353982300885
1021
0.0
1031
0.0
1021
297.0
1031
0.0
1000
FLAGS
1070
     4
  0
ENDSEC
  0
EOF
