  0
SECTION
  2
HEADER
  9
$ACADVER
  1
AC1009
  9
$INSBASE
 10
0.0
 20
0.0
 30
0.0
  9
$EXTMIN
 10
-102.75
 20
-81.17938786407899
 30
0.0
  9
$EXTMAX
 10
260.99999999999972
 20
82.000000000000014
 30
0.0
  9
$LIMMIN
 10
0.0
 20
0.0
  9
$LIMMAX
 10
420.0
 20
297.0
  9
$ORTHOMODE
 70
     1
  9
$REGENMODE
 70
     1
  9
$FILLMODE
 70
     1
  9
$QTEXTMODE
 70
     0
  9
$MIRRTEXT
 70
     1
  9
$DRAGMODE
 70
     2
  9
$LTSCALE
 40
10.0
  9
$OSMODE
 70
    47
  9
$ATTMODE
 70
     1
  9
$TEXTSIZE
 40
3.0
  9
$TRACEWID
 40
1.0
  9
$TEXTSTYLE
  7
YOKO
  9
$CLAYER
  8
240
  9
$CELTYPE
  6
BYLAYER
  9
$CECOLOR
 62
   256
  9
$DIMSCALE
 40
1.0
  9
$DIMASZ
 40
2.0
  9
$DIMEXO
 40
0.5
  9
$DIMDLI
 40
2.5
  9
$DIMRND
 40
0.0
  9
$DIMDLE
 40
0.0
  9
$DIMEXE
 40
1.0
  9
$DIMTP
 40
0.0
  9
$DIMTM
 40
0.0
  9
$DIMTXT
 40
2.799999999999998
  9
$DIMCEN
 40
0.0
  9
$DIMTSZ
 40
0.0
  9
$DIMTOL
 70
     0
  9
$DIMLIM
 70
     0
  9
$DIMTIH
 70
     0
  9
$DIMTOH
 70
     0
  9
$DIMSE1
 70
     0
  9
$DIMSE2
 70
     0
  9
$DIMTAD
 70
     3
  9
$DIMZIN
 70
     8
  9
$DIMBLK
  1

  9
$DIMASO
 70
     1
  9
$DIMSHO
 70
     1
  9
$DIMPOST
  1
<>
  9
$DIMAPOST
  1

  9
$DIMALT
 70
     0
  9
$DIMALTD
 70
     2
  9
$DIMALTF
 40
25.399999999999999
  9
$DIMLFAC
 40
1.0
  9
$DIMTOFL
 70
     1
  9
$DIMTVP
 40
0.0
  9
$DIMTIX
 70
     1
  9
$DIMSOXD
 70
     0
  9
$DIMSAH
 70
     1
  9
$DIMBLK1
  1
OPEN
  9
$DIMBLK2
  1
OPEN
  9
$DIMSTYLE
  2
BIGT
  9
$DIMCLRD
 70
   256
  9
$DIMCLRE
 70
   256
  9
$DIMCLRT
 70
    40
  9
$DIMTFAC
 40
1.0
  9
$DIMGAP
 40
1.0
  9
$LUNITS
 70
     2
  9
$LUPREC
 70
     3
  9
$SKETCHINC
 40
1.0
  9
$FILLETRAD
 40
0.0
  9
$AUNITS
 70
     0
  9
$AUPREC
 70
     3
  9
$MENU
  1
.
  9
$ELEVATION
 40
0.0
  9
$PELEVATION
 40
0.0
  9
$THICKNESS
 40
0.0
  9
$LIMCHECK
 70
     0
  9
$BLIPMODE
 70
     0
  9
$CHAMFERA
 40
10.0
  9
$CHAMFERB
 40
10.0
  9
$SKPOLY
 70
     0
  9
$TDCREATE
 40
2455061.592011713
  9
$TDUPDATE
 40
2460256.4283796069
  9
$TDINDWG
 40
0.0629218287
  9
$TDUSRTIMER
 40
0.0629140046
  9
$USRTIMER
 70
     1
  9
$ANGBASE
 50
0.0
  9
$ANGDIR
 70
     0
  9
$PDMODE
 70
     0
  9
$PDSIZE
 40
-5.0
  9
$PLINEWID
 40
0.0
  9
$COORDS
 70
     1
  9
$SPLFRAME
 70
     0
  9
$SPLINETYPE
 70
     6
  9
$SPLINESEGS
 70
     8
  9
$ATTDIA
 70
     1
  9
$ATTREQ
 70
     1
  9
$HANDLING
 70
     1
  9
$HANDSEED
  5
2A15
  9
$SURFTAB1
 70
     6
  9
$SURFTAB2
 70
     6
  9
$SURFTYPE
 70
     6
  9
$SURFU
 70
     6
  9
$SURFV
 70
     6
  9
$UCSNAME
  2

  9
$UCSORG
 10
0.0
 20
0.0
 30
0.0
  9
$UCSXDIR
 10
1.0
 20
0.0
 30
0.0
  9
$UCSYDIR
 10
0.0
 20
1.0
 30
0.0
  9
$PUCSNAME
  2

  9
$PUCSORG
 10
0.0
 20
0.0
 30
0.0
  9
$PUCSXDIR
 10
1.0
 20
0.0
 30
0.0
  9
$PUCSYDIR
 10
0.0
 20
1.0
 30
0.0
  9
$USERI1
 70
     1
  9
$USERI2
 70
     0
  9
$USERI3
 70
     0
  9
$USERI4
 70
     0
  9
$USERI5
 70
     0
  9
$USERR1
 40
0.0
  9
$USERR2
 40
0.0
  9
$USERR3
 40
0.0
  9
$USERR4
 40
0.0
  9
$USERR5
 40
0.0
  9
$WORLDVIEW
 70
     1
  9
$SHADEDGE
 70
     3
  9
$SHADEDIF
 70
    70
  9
$TILEMODE
 70
     1
  9
$MAXACTVP
 70
    16
  9
$PLIMCHECK
 70
     0
  9
$PEXTMIN
 10
1.0000000000000000E+020
 20
1.0000000000000000E+020
 30
1.0000000000000000E+020
  9
$PEXTMAX
 10
-1.0000000000000000E+020
 20
-1.0000000000000000E+020
 30
-1.0000000000000000E+020
  9
$PLIMMIN
 10
0.0
 20
0.0
  9
$PLIMMAX
 10
420.0
 20
297.0
  9
$UNITMODE
 70
     0
  9
$VISRETAIN
 70
     0
  9
$PLINEGEN
 70
     0
  9
$PSLTSCALE
 70
     1
  0
ENDSEC
  0
SECTION
  2
TABLES
  0
TABLE
  2
VPORT
 70
     1
  0
VPORT
  2
*ACTIVE
 70
     0
 10
0.0
 20
0.0
 11
1.0
 21
1.0
 12
87.074768248643409
 22
7.3297982109013438
 13
0.0
 23
0.0
 14
7.0
 24
7.0
 15
7.0
 25
7.0
 16
0.0
 26
0.0
 36
1.0
 17
0.0
 27
0.0
 37
0.0
 40
276.10040953342991
 41
1.9740932642487039
 42
50.0
 43
0.0
 44
0.0
 50
0.0
 51
0.0
 71
     0
 72
  2000
 73
     1
 74
     0
 75
     0
 76
     1
 77
     0
 78
     0
  0
ENDTAB
  0
TABLE
  2
LTYPE
 70
    18
  0
LTYPE
  2
CONTINUOUS
 70
     0
  3
Solid line
 72
    65
 73
     0
 40
0.0
  0
LTYPE
  2
CENTER2
 70
     0
  3
___ _ ___ _ ___ _ ___ _ ___ _ ___ _ ___ _ ___ _
 72
    65
 73
     4
 40
1.125
 49
0.75
 49
-0.125
 49
0.125
 49
-0.125
  0
LTYPE
  2
HIDDEN2
 70
     0
  3
_ _ _ _ _ _ _ _ _ _ _ _ _ _ _ _ _ _ _ _ _ _ _ _
 72
    65
 73
     2
 40
0.1875
 49
0.125
 49
-0.0625
  0
LTYPE
  2
PHANTOM2
 70
     0
  3
___ _ _ ___ _ _ ___ _ _ ___ _ _ ___ _ _ ___ _ _
 72
    65
 73
     6
 40
1.25
 49
0.625
 49
-0.125
 49
0.125
 49
-0.125
 49
0.125
 49
-0.125
  0
LTYPE
  2
AMCONSTR
 70
     0
  3
_______________________
 72
    65
 73
     2
 40
9999.0
 49
9999.0
 49
0.0
  0
LTYPE
  2
HIDDEN
 70
     0
  3
Hidden __ __ __ __ __ __ __ __ __ __ __ __ __ _
 72
    65
 73
     2
 40
0.375
 49
0.25
 49
-0.125
  0
LTYPE
  2
CENTER
 70
     0
  3
Center ____ _ ____ _ ____ _ ____ _ ____ _ ____
 72
    65
 73
     4
 40
2.0
 49
1.25
 49
-0.25
 49
0.25
 49
-0.25
  0
LTYPE
  2
AMZIGZAG2
 70
     0
  3
/\/-/\/-/\/-/\/-/\/-/\/
 72
    65
 73
     2
 40
0.4401
 49
0.0001
 49
-0.4400000000000003
  0
LTYPE
  2
ACANSTGB
 70
     0
  3
__ . . __ . .
 72
    65
 73
     6
 40
0.35433070866
 49
0.15748031496
 49
-0.03937007874
 49
0.03937007874
 49
-0.03937007874
 49
0.03937007874
 49
-0.03937007874
  0
LTYPE
  2
ACANSTGL
 70
     0
  3
_ _ _ _ _
 72
    65
 73
     2
 40
0.11811023622
 49
0.07874015748
 49
-0.03937007874
  0
ENDTAB
  0
TABLE
  2
LAYER
 70
    10
  0
LAYER
  2
0
 70
     0
 62
     7
  6
CONTINUOUS
  0
LAYER
  2
240
 70
     0
 62
     4
  6
CONTINUOUS
  0
LAYER
  2
241
 70
     0
 62
   211
  6
CONTINUOUS
  0
LAYER
  2
242
 70
     0
 62
     3
  6
CONTINUOUS
  0
LAYER
  2
245
 70
     0
 62
     2
  6
CENTER2
  0
LAYER
  2
250
 70
     0
 62
     3
  6
CONTINUOUS
  0
LAYER
  2
DEFPOINTS
 70
     0
 62
     7
  6
CONTINUOUS
  0
LAYER
  2
243
 70
     0
 62
   211
  6
HIDDEN2
  0
LAYER
  2
247
 70
     0
 62
    60
  6
CONTINUOUS
  0
ENDTAB
  0
TABLE
  2
STYLE
 70
     7
  0
STYLE
  2
STANDARD
 70
     0
 40
0.0
 41
1.0
 50
0.0
 71
     0
 42
3.0
  3
romans.shx
  4
BIGFONT.SHX
  0
STYLE
  2
YOKO
 70
     0
 40
0.0
 41
1.0
 50
0.0
 71
     0
 42
3.0
  3
romans.shx
  4
extfont.shx
  0
STYLE
  2
ACANSGDT
 70
     0
 40
0.0
 41
1.0
 50
0.0
 71
     0
 42
3.0
  3
amgdt.shx
  4

  0
ENDTAB
  0
TABLE
  2
VIEW
 70
     0
  0
ENDTAB
  0
TABLE
  2
UCS
 70
     0
  0
ENDTAB
  0
TABLE
  2
APPID
 70
    44
  0
APPID
  2
ACAD
 70
     0
  0
APPID
  2
ACADANNOTATIVE
 70
     0
  0
APPID
  2
GLOBAL
 70
     0
  0
APPID
  2
DETAIL
 70
     0
  0
APPID
  2
GRPNAME
 70
     0
  0
APPID
  2
GPARA
 70
     0
  0
APPID
  2
DCO15
 70
     0
  0
APPID
  2
ITEMNAME
 70
     0
  0
APPID
  2
GRADE_0
 70
     0
  0
APPID
  2
CONTENTBLOCKICON
 70
     0
  0
APPID
  2
ACAD_PSEXT
 70
     0
  0
APPID
  2
MCAD_NO_VIS
 70
     0
  0
APPID
  2
ACAD_TEMP_GRAPHIC
 70
     0
  0
APPID
  2
ACATTRIBSERVICES
 70
     0
  0
APPID
  2
GENIUS_GENSCREG_15
 70
     0
  0
APPID
  2
GENIUS_GENODEF_13
 70
     0
  0
APPID
  2
GENIUS_GENOBJ-N-SDF_13
 70
     0
  0
APPID
  2
GENIUS_GENREC_14
 70
     0
  0
APPID
  2
GENIUS_GENOBJ-N-REC_13
 70
     0
  0
APPID
  2
GENIUS_GENDIMSH_14
 70
     0
  0
APPID
  2
GENIUS_GENOBJ-N-DIM_13
 70
     0
  0
APPID
  2
GENIUS_GENDIM_13
 70
     0
  0
APPID
  2
GENIUS_GENDTOL_13
 70
     0
  0
APPID
  2
GENIUS_GENOLIS_13
 70
     0
  0
APPID
  2
GENIUS_GENOENT_13
 70
     0
  0
APPID
  2
GENIUS_GENOBJ-F-FEM_13
 70
     0
  0
APPID
  2
GENIUS_GENOREF_13
 70
     0
  0
APPID
  2
GENIUS_GEFFEM_13
 70
     0
  0
APPID
  2
GENIUS_GEFFEMP_13
 70
     0
  0
APPID
  2
AD_DRAW
 70
     0
  0
APPID
  2
DESIGNERASSEMBLIES
 70
     0
  0
APPID
  2
ACADM_DIM_EDIT
 70
     0
  0
APPID
  2
AMDT_DM_ADJ
 70
     0
  0
APPID
  2
GENIUS_GENOBJ-N-FIL_13
 70
     0
  0
APPID
  2
GENIUS_GENFIL_13
 70
     0
  0
APPID
  2
GENIUS_GENOBJ-N-CHA_13
 70
     0
  0
APPID
  2
ACAD_NAV_VCDISPLAY
 70
     0
  0
APPID
  2
ACAD_EXEMPT_FROM_CAD_STANDARDS
 70
     0
  0
APPID
  2
ACAD_DSTYLE_DIMJAG
 70
     0
  0
APPID
  2
ACAD_DSTYLE_DIMBREAK
 70
     0
  0
APPID
  2
ACAD_MLEADERVER
 70
     0
  0
APPID
  2
ACAECLAYERSTANDARD
 70
     0
  0
APPID
  2
ASKOBJSC
 70
     0
  0
APPID
  2
ASKDWGSC
 70
     0
  0
ENDTAB
  0
TABLE
  2
DIMSTYLE
 70
    16
  0
DIMSTYLE
  2
STANDARD
 70
     0
  3

  4

  5

  6

  7

 40
1.0
 41
0.18
 42
0.0625
 43
0.38
 44
0.18
 45
0.0
 46
0.0
 47
0.0
 48
0.0
140
0.18
141
0.09
142
0.0
143
25.399999999999999
144
1.0
145
0.0
146
1.0
147
0.09
 71
     0
 72
     0
 73
     1
 74
     1
 75
     0
 76
     0
 77
     0
 78
     0
170
     0
171
     2
172
     0
173
     0
174
     0
175
     0
176
     0
177
     0
178
     0
  0
DIMSTYLE
  2
BIGT
 70
     0
  3

  4

  5

  6

  7

 40
1.0
 41
2.2299999999999991
 42
0.5
 43
7.0
 44
1.0
 45
0.0
 46
0.0
 47
0.0
 48
0.01
140
2.799999999999998
141
0.0
142
0.0
143
25.399999999999999
144
1.0
145
0.0
146
1.0
147
1.0
 71
     0
 72
     0
 73
     0
 74
     0
 75
     0
 76
     0
 77
     3
 78
     9
170
     0
171
     2
172
     1
173
     0
174
     1
175
     0
176
   256
177
   256
178
    40
  0
DIMSTYLE
  2
AM_ANSI
 70
     0
  3

  4
mm
  5

  6

  7

 40
1.0
 41
0.12
 42
0.05
 43
0.5
 44
0.1
 45
0.0
 46
0.0
 47
0.1
 48
0.1
140
0.12
141
0.0
142
0.0
143
25.399999999999999
144
1.0
145
0.0
146
0.71
147
0.06
 71
     0
 72
     0
 73
     1
 74
     1
 75
     0
 76
     0
 77
     0
 78
     7
170
     0
171
     2
172
     0
173
     0
174
     0
175
     0
176
   256
177
   256
178
     2
  0
DIMSTYLE
  2
AM_ANSI$3
 70
     0
  3

  4
mm
  5

  6

  7

 40
1.0
 41
0.12
 42
0.05
 43
0.5
 44
0.1
 45
0.0
 46
0.0
 47
0.1
 48
0.1
140
0.12
141
0.0
142
0.0
143
25.399999999999999
144
1.0
145
0.0
146
0.71
147
0.06
 71
     0
 72
     0
 73
     1
 74
     1
 75
     0
 76
     0
 77
     0
 78
     7
170
     0
171
     2
172
     0
173
     0
174
     0
175
     0
176
   256
177
   256
178
     2
  0
DIMSTYLE
  2
AM_ANSI$4
 70
     0
  3

  4
mm
  5

  6

  7

 40
1.0
 41
0.12
 42
0.05
 43
0.5
 44
0.1
 45
0.0
 46
0.0
 47
0.1
 48
0.1
140
0.12
141
0.0
142
0.0
143
25.399999999999999
144
1.0
145
0.0
146
0.71
147
0.06
 71
     0
 72
     0
 73
     1
 74
     1
 75
     0
 76
     0
 77
     0
 78
     7
170
     0
171
     2
172
     0
173
     0
174
     0
175
     0
176
   256
177
   256
178
     2
  0
DIMSTYLE
  2
AM_ANSI$7
 70
     0
  3

  4
mm
  5

  6

  7

 40
1.0
 41
0.12
 42
0.05
 43
0.5
 44
0.1
 45
0.0
 46
0.0
 47
0.1
 48
0.1
140
0.12
141
0.0
142
0.0
143
25.399999999999999
144
1.0
145
0.0
146
0.71
147
0.06
 71
     0
 72
     0
 73
     1
 74
     1
 75
     0
 76
     0
 77
     0
 78
     7
170
     0
171
     2
172
     0
173
     0
174
     0
175
     0
176
   256
177
   256
178
     2
  0
DIMSTYLE
  2
AM_ANSI$SF
 70
     0
  3

  4
mm
  5

  6

  7

 40
1.0
 41
0.12
 42
0.05
 43
0.5
 44
0.1
 45
0.0
 46
0.0
 47
0.1
 48
0.1
140
0.12
141
0.0
142
0.0
143
25.399999999999999
144
1.0
145
0.0
146
0.71
147
0.06
 71
     0
 72
     0
 73
     1
 74
     1
 75
     1
 76
     1
 77
     0
 78
     7
170
     0
171
     2
172
     0
173
     0
174
     0
175
     0
176
   256
177
   256
178
     2
  0
DIMSTYLE
  2
AM_ANSI$SH
 70
     0
  3

  4
mm
  5

  6

  7

 40
1.0
 41
0.12
 42
0.05
 43
0.5
 44
0.1
 45
0.0
 46
0.0
 47
0.1
 48
0.1
140
0.12
141
0.0
142
0.0
143
25.399999999999999
144
1.0
145
0.0
146
0.71
147
0.06
 71
     0
 72
     0
 73
     1
 74
     1
 75
     1
 76
     1
 77
     0
 78
     7
170
     0
171
     2
172
     0
173
     1
174
     0
175
     0
176
   256
177
   256
178
     2
  0
ENDTAB
  0
ENDSEC
  0
SECTION
  2
BLOCKS
  0
BLOCK
  8
0
  2
$MODEL_SPACE
 70
     0
 10
0.0
 20
0.0
 30
0.0
  3
$MODEL_SPACE
  1

  0
ENDBLK
  5
23EA
  8
0
  0
BLOCK
 67
     1
  8
0
  2
$PAPER_SPACE
 70
     0
 10
0.0
 20
0.0
 30
0.0
  3
$PAPER_SPACE
  1

  0
ENDBLK
  5
23E6
 67
     1
  8
0
  0
BLOCK
  8
0
  2
_OPEN
 70
     0
 10
0.0
 20
0.0
 30
0.0
  3
_OPEN
  1

  0
LINE
  5
15BE
  8
0
  6
BYBLOCK
 62
     0
 10
-1.0
 20
0.1666666666666666
 30
0.0
 11
0.0
 21
0.0
 31
0.0
  0
LINE
  5
15BF
  8
0
  6
BYBLOCK
 62
     0
 10
-1.0
 20
-0.1666666666666666
 30
0.0
 11
0.0
 21
0.0
 31
0.0
  0
LINE
  5
15C0
  8
0
  6
BYBLOCK
 62
     0
 10
0.0
 20
0.0
 30
0.0
 11
-1.0
 21
0.0
 31
0.0
  0
ENDBLK
  5
15C1
  8
0
  0
BLOCK
  8
0
  2
矢印なし
 70
     0
 10
0.0
 20
0.0
 30
0.0
  3
矢印なし
  1

  0
ENDBLK
  5
6E5
  8
0
  0
BLOCK
  8
0
  2
_ACMFILLEDHALF
 70
     0
 10
0.0
 20
0.0
 30
0.0
  3
_ACMFILLEDHALF
  1

  0
TRACE
  5
1802
  8
240
 62
     0
 10
-0.8
 20
0.0
 30
0.0
 11
-1.0
 21
0.166666666
 31
0.0
 12
0.0
 22
0.0
 32
0.0
 13
0.0
 23
0.0
 33
0.0
  0
LINE
  5
1803
  8
240
 62
     0
 10
-1.0
 20
0.0
 30
0.0
 11
-0.8
 21
0.0
 31
0.0
  0
ENDBLK
  5
1801
  8
0
  0
ENDSEC
  0
SECTION
  2
ENTITIES
  0
INSERT
  5
6E6
  8
245
  2
矢印なし
 10
175.62382697000001
 20
90.551235719999994
 30
0.0
  0
TEXT
  5
108D
  8
241
  6
CONTINUOUS
 10
-101.75
 20
77.0
 30
0.0
 40
5.0
  1
DV50-CKB7-243
  7
YOKO
 11
-101.75
 21
77.0
 31
0.0
 73
     1
  0
LINE
  5
1090
  8
250
 10
-70.065207340000001
 20
-35.014691040000002
 30
0.0
 11
-85.265207339999989
 21
-35.014691040000002
 31
0.0
1001
ITEMNAME
1000
LNSP2
  0
LINE
  5
13B9
  8
245
  6
CENTER2
 10
-102.75
 20
0.0
 30
0.0
 11
243.99999999999969
 21
0.0
 31
0.0
  0
LINE
  5
13BA
  8
240
  6
CONTINUOUS
 10
0.0
 20
-34.925000000000011
 30
0.0
 11
-99.781905850000001
 21
-20.37347205999998
 31
0.0
  0
LINE
  5
13BB
  8
240
  6
CONTINUOUS
 10
0.0
 20
34.925000000000011
 30
0.0
 11
-99.781905850000001
 21
20.37347205999998
 31
0.0
  0
LINE
  5
13BE
  8
240
  6
CONTINUOUS
 10
-101.75
 20
-18.097546210000012
 30
0.0
 11
-101.75
 21
18.097546210000012
 31
0.0
  0
ARC
  5
13BF
  8
240
  6
CONTINUOUS
 10
-99.450000000000003
 20
-18.097546210000012
 30
0.0
 40
2.299999999999998
 50
180.0
 51
261.70285503000042
  0
ARC
  5
13C0
  8
240
  6
CONTINUOUS
 10
-99.450000000000003
 20
18.097546210000012
 30
0.0
 40
2.299999999999998
 50
98.297144969999565
 51
180.0
  0
LINE
  5
13C2
  8
245
  6
CENTER2
 10
11.100000000000019
 20
-48.75
 30
0.0
 11
11.100000000000019
 21
48.75
 31
0.0
  0
LINE
  5
13D0
  8
240
  6
CONTINUOUS
 10
242.99999999999969
 20
-45.0
 30
0.0
 11
39.999999998501657
 21
-45.0
 31
0.0
  0
LINE
  5
13D1
  8
243
  6
HIDDEN2
 10
32.199999999999989
 20
-35.5
 30
0.0
 11
32.199999999999989
 21
-40.0
 31
0.0
  0
LINE
  5
13D2
  8
240
  6
CONTINUOUS
 10
1.4999999999999341
 20
-48.75
 30
0.0
 11
1.4999999999999341
 21
-34.925000000000011
 31
0.0
  0
LINE
  5
13D3
  8
241
  6
CONTINUOUS
 10
39.999999998501657
 20
-45.0
 30
0.0
 11
39.999999998501657
 21
44.769245220000002
 31
0.0
  0
LINE
  5
13D4
  8
241
  6
CONTINUOUS
 10
35.0
 20
-40.0
 30
0.0
 11
35.0
 21
40.0
 31
0.0
  0
LINE
  5
13D5
  8
241
  6
CONTINUOUS
 10
14.34759525999999
 20
-48.75
 30
0.0
 11
14.34759525999999
 21
30.0
 31
0.0
  0
LINE
  5
13D6
  8
241
  6
CONTINUOUS
 10
12.975000000000019
 20
-45.625
 30
0.0
 11
12.975000000000019
 21
30.0
 31
0.0
  0
LINE
  5
13D7
  8
241
  6
CONTINUOUS
 10
9.2250000000000245
 20
-45.625
 30
0.0
 11
9.2250000000000245
 21
30.0
 31
0.0
  0
LINE
  5
13D8
  8
241
  6
CONTINUOUS
 10
7.8524047399999972
 20
-48.75
 30
0.0
 11
7.8524047399999972
 21
30.0
 31
0.0
  0
LINE
  5
13D9
  8
241
  6
CONTINUOUS
 10
19.100000000000009
 20
-40.0
 30
0.0
 11
19.100000000000009
 21
40.0
 31
0.0
  0
LINE
  5
13DA
  8
240
  6
CONTINUOUS
 10
39.999999998501657
 20
-45.0
 30
0.0
 11
35.0
 21
-40.0
 31
0.0
  0
LINE
  5
13DB
  8
240
  6
CONTINUOUS
 10
14.34759525999999
 20
-48.75
 30
0.0
 11
19.100000000000009
 21
-48.75
 31
0.0
  0
LINE
  5
13DC
  8
240
  6
CONTINUOUS
 10
1.4999999999999341
 20
-48.75
 30
0.0
 11
7.8524047399999972
 21
-48.75
 31
0.0
  0
LINE
  5
13DD
  8
240
  6
CONTINUOUS
 10
9.2250000000000245
 20
-45.625
 30
0.0
 11
12.975000000000019
 21
-45.625
 31
0.0
  0
LINE
  5
13DE
  8
240
  6
CONTINUOUS
 10
7.8524047399999972
 20
-48.75
 30
0.0
 11
9.2250000000000245
 21
-46.372595260000018
 31
0.0
  0
LINE
  5
13DF
  8
240
  6
CONTINUOUS
 10
9.2250000000000245
 20
-46.372595260000018
 30
0.0
 11
9.2250000000000245
 21
-45.625
 31
0.0
  0
LINE
  5
13E0
  8
240
  6
CONTINUOUS
 10
14.34759525999999
 20
-48.75
 30
0.0
 11
12.975000000000019
 21
-46.372595260000018
 31
0.0
  0
LINE
  5
13E1
  8
240
  6
CONTINUOUS
 10
12.975000000000019
 20
-46.372595260000018
 30
0.0
 11
12.975000000000019
 21
-45.625
 31
0.0
  0
LINE
  5
13E2
  8
240
  6
CONTINUOUS
 10
19.100000000000009
 20
-40.0
 30
0.0
 11
35.0
 21
-40.0
 31
0.0
  0
LINE
  5
13E3
  8
240
  6
CONTINUOUS
 10
19.100000000000009
 20
-48.75
 30
0.0
 11
19.100000000000009
 21
-40.0
 31
0.0
  0
LINE
  5
13E5
  8
241
  6
CONTINUOUS
 10
0.0
 20
-34.925000000000011
 30
0.0
 11
0.0
 21
34.925000000000011
 31
0.0
  0
LINE
  5
13E6
  8
241
  6
CONTINUOUS
 10
1.4999999999999341
 20
-34.925000000000011
 30
0.0
 11
1.4999999999999341
 21
34.925000000000011
 31
0.0
  0
LINE
  5
13E7
  8
243
  6
HIDDEN2
 10
32.199999999999989
 20
-35.5
 30
0.0
 11
1.4999999999999341
 21
-35.5
 31
0.0
  0
LINE
  5
13E8
  8
240
  6
CONTINUOUS
 10
0.0
 20
-34.925000000000011
 30
0.0
 11
1.4999999999999341
 21
-34.925000000000011
 31
0.0
  0
LINE
  5
13EC
  8
240
  6
CONTINUOUS
 10
242.99999999999969
 20
-45.0
 30
0.0
 11
242.99999999999969
 21
45.0
 31
0.0
  0
LINE
  5
13EE
  8
240
  6
CONTINUOUS
 10
242.99999999999969
 20
45.0
 30
0.0
 11
39.999999998501657
 21
45.0
 31
0.0
  0
LINE
  5
13EF
  8
240
  6
CONTINUOUS
 10
39.999999998501657
 20
45.0
 30
0.0
 11
35.0
 21
40.0
 31
0.0
  0
LINE
  5
13F0
  8
240
  6
CONTINUOUS
 10
19.100000000000009
 20
48.75
 30
0.0
 11
19.100000000000009
 21
40.0
 31
0.0
  0
LINE
  5
13F1
  8
240
  6
CONTINUOUS
 10
1.4999999999999341
 20
48.75
 30
0.0
 11
1.4999999999999341
 21
34.925000000000011
 31
0.0
  0
LINE
  5
13F2
  8
241
  6
CONTINUOUS
 10
14.34759525999999
 20
48.75
 30
0.0
 11
14.34759525999999
 21
38.825999990000021
 31
0.0
  0
LINE
  5
13F3
  8
241
  6
CONTINUOUS
 10
12.975000000000019
 20
45.625
 30
0.0
 11
12.975000000000019
 21
35.361244199999987
 31
0.0
  0
LINE
  5
13F4
  8
241
  6
CONTINUOUS
 10
9.2250000000000245
 20
45.625
 30
0.0
 11
9.2250000000000245
 21
35.361244199999987
 31
0.0
  0
LINE
  5
13F5
  8
241
  6
CONTINUOUS
 10
7.8524047399999972
 20
48.75
 30
0.0
 11
7.8524047399999972
 21
38.825999990000021
 31
0.0
  0
LINE
  5
13F6
  8
243
  6
HIDDEN2
 10
32.199999999999989
 20
37.699999999999989
 30
0.0
 11
1.4999999999999341
 21
37.699999999999989
 31
0.0
  0
LINE
  5
13F7
  8
241
  6
CONTINUOUS
 10
14.34759525999999
 20
38.826000000000022
 30
0.0
 11
19.100000000000009
 21
38.826000000000022
 31
0.0
  0
LINE
  5
13F8
  8
241
  6
CONTINUOUS
 10
1.4999999999999341
 20
30.0
 30
0.0
 11
19.100000000000009
 21
30.0
 31
0.0
  0
LINE
  5
13F9
  8
241
  6
CONTINUOUS
 10
1.4999999999999341
 20
38.826000000000022
 30
0.0
 11
7.8524047399999972
 21
38.826000000000022
 31
0.0
  0
LINE
  5
13FA
  8
240
  6
CONTINUOUS
 10
0.0
 20
34.925000000000011
 30
0.0
 11
1.4999999999999341
 21
34.925000000000011
 31
0.0
  0
LINE
  5
13FB
  8
241
  6
CONTINUOUS
 10
14.34759525999999
 20
38.826000000000022
 30
0.0
 11
12.975000000000019
 21
35.361244199999987
 31
0.0
  0
LINE
  5
13FC
  8
241
  6
CONTINUOUS
 10
7.8524047399999972
 20
38.826000000000022
 30
0.0
 11
9.2250000000000245
 21
35.361244199999987
 31
0.0
  0
LINE
  5
13FD
  8
241
  6
CONTINUOUS
 10
9.2250000000000245
 20
34.375
 30
0.0
 11
12.975000000000019
 21
34.375
 31
0.0
  0
LINE
  5
13FE
  8
241
  6
CONTINUOUS
 10
9.2250000000000245
 20
35.361244199999987
 30
0.0
 11
9.2250000000000245
 21
34.375
 31
0.0
  0
LINE
  5
13FF
  8
241
  6
CONTINUOUS
 10
12.975000000000019
 20
34.375
 30
0.0
 11
12.975000000000019
 21
35.361244199999987
 31
0.0
  0
LINE
  5
1400
  8
240
  6
CONTINUOUS
 10
19.100000000000009
 20
40.0
 30
0.0
 11
35.0
 21
40.0
 31
0.0
  0
LINE
  5
1401
  8
241
  6
HIDDEN2
 10
32.199999999999989
 20
37.699999999999989
 30
0.0
 11
32.199999999999989
 21
40.0
 31
0.0
  0
LINE
  5
1402
  8
240
  6
CONTINUOUS
 10
14.34759525999999
 20
48.75
 30
0.0
 11
19.100000000000009
 21
48.75
 31
0.0
  0
LINE
  5
1403
  8
240
  6
CONTINUOUS
 10
1.4999999999999341
 20
48.75
 30
0.0
 11
7.8524047399999972
 21
48.75
 31
0.0
  0
LINE
  5
1404
  8
240
  6
CONTINUOUS
 10
9.2250000000000245
 20
45.625
 30
0.0
 11
12.975000000000019
 21
45.625
 31
0.0
  0
LINE
  5
1405
  8
240
  6
CONTINUOUS
 10
9.2250000000000245
 20
46.372595260000018
 30
0.0
 11
9.2250000000000245
 21
45.625
 31
0.0
  0
LINE
  5
1406
  8
240
  6
CONTINUOUS
 10
7.8524047399999972
 20
48.75
 30
0.0
 11
9.2250000000000245
 21
46.372595260000018
 31
0.0
  0
LINE
  5
1407
  8
240
  6
CONTINUOUS
 10
12.975000000000019
 20
46.372595260000018
 30
0.0
 11
12.975000000000019
 21
45.625
 31
0.0
  0
LINE
  5
1408
  8
240
  6
CONTINUOUS
 10
14.34759525999999
 20
48.75
 30
0.0
 11
12.975000000000019
 21
46.372595260000018
 31
0.0
  0
LINE
  5
140A
  8
243
  6
HIDDEN2
 10
6.100000000000021
 20
37.699999999999989
 30
0.0
 11
6.1000000000002492
 21
33.099999999999682
 31
0.0
  0
LINE
  5
140B
  8
243
  6
HIDDEN2
 10
16.100000000000019
 20
37.699999999999989
 30
0.0
 11
16.100000000000119
 21
33.100000000000023
 31
0.0
  0
LINE
  5
140C
  8
243
  6
HIDDEN2
 10
6.1000000000002492
 20
33.099999999999682
 30
0.0
 11
16.100000000000119
 21
33.100000000000023
 31
0.0
  0
LINE
  5
146E
  8
243
  6
HIDDEN2
 10
242.99999999999969
 20
23.0
 30
0.0
 11
190.99999999999969
 21
23.0
 31
0.0
  0
LINE
  5
146F
  8
243
  6
HIDDEN2
 10
242.99999999999969
 20
-23.0
 30
0.0
 11
190.99999999999969
 21
-23.0
 31
0.0
  0
LINE
  5
1470
  8
250
 10
237.29785068488241
 20
46.745403317262792
 30
0.0
 11
235.86097790999969
 21
44.99999999999995
 31
0.0
  0
LINE
  5
1471
  8
250
 10
236.6541051346953
 20
47.11706998385916
 30
0.0
 11
235.86097790999969
 21
44.99999999999995
 31
0.0
  0
LINE
  5
1472
  8
250
 10
235.86097790999969
 20
44.99999999999995
 30
0.0
 11
236.97597790978881
 21
46.93123665056099
 31
0.0
  0
TEXT
  5
1478
  8
250
 10
249.67540171045391
 20
68.173334079999961
 30
0.0
 40
2.799999999999998
  1
CK7
  7
YOKO
1001
ITEMNAME
1000
LNSP3
1001
ACAD
1000
MTEXTBEGIN
1070
    73
1070
     1
1070
    44
1040
1.0
1070
    74
1070
     0
1000
MTEXTEND
1000
MTEXTBEGIN
1070
    73
1070
     1
1070
    44
1040
1.0
1070
    74
1070
     0
1000
MTEXTEND
  0
CIRCLE
  5
1479
  8
241
  6
CONTINUOUS
 10
223.99999999999969
 20
0.0
 30
0.0
 40
10.0
  0
CIRCLE
  5
147A
  8
242
  6
CONTINUOUS
 10
223.99999999999969
 20
0.0
 30
0.0
 40
9.25
  0
LINE
  5
147B
  8
245
  6
CENTER2
 10
223.99999999999969
 20
11.0
 30
0.0
 11
223.99999999999969
 21
-11.0
 31
0.0
  0
LINE
  5
147C
  8
241
  6
CONTINUOUS
 10
228.99999999999969
 20
2.8867513459481682
 30
0.0
 11
223.99999999999969
 21
5.773502691896196
 31
0.0
1001
GRPNAME
1000
00000001
  0
LINE
  5
147D
  8
241
  6
CONTINUOUS
 10
228.99999999999969
 20
-2.8867513459481402
 30
0.0
 11
228.99999999999969
 21
2.8867513459481682
 31
0.0
1001
GRPNAME
1000
00000001
  0
LINE
  5
147E
  8
241
  6
CONTINUOUS
 10
223.99999999999969
 20
-5.773502691896196
 30
0.0
 11
228.99999999999969
 21
-2.8867513459481402
 31
0.0
1001
GRPNAME
1000
00000001
  0
LINE
  5
147F
  8
241
  6
CONTINUOUS
 10
223.99999999999969
 20
-5.773502691896196
 30
0.0
 11
218.99999999999969
 21
-2.8867513459481682
 31
0.0
1001
GRPNAME
1000
00000001
  0
LINE
  5
1480
  8
241
  6
CONTINUOUS
 10
218.99999999999969
 20
-2.8867513459481682
 30
0.0
 11
218.99999999999969
 21
2.8867513459481962
 31
0.0
1001
GRPNAME
1000
00000001
  0
LINE
  5
1481
  8
241
  6
CONTINUOUS
 10
218.99999999999969
 20
2.8867513459481962
 30
0.0
 11
223.99999999999969
 21
5.773502691896196
 31
0.0
1001
GRPNAME
1000
00000001
  0
LINE
  5
1482
  8
250
 10
236.97597790978881
 20
46.93123665056099
 30
0.0
 11
248.6627583066913
 21
67.173334079999961
 31
0.0
1001
ACAD
1000
DSTYLE
1002
{
1070
     6
1000
OPEN
1070
   343
1005
0
1002
}
  0
LINE
  5
1483
  8
250
 10
248.6627583066913
 20
67.173334079999961
 30
0.0
 11
258.14386035562671
 21
67.173334079999961
 31
0.0
1001
ACAD
1000
DSTYLE
1002
{
1070
     6
1000
OPEN
1070
   343
1005
0
1002
}
  0
TEXT
  5
1486
  8
250
 10
-84.370792547197425
 20
-34.014691040000002
 30
0.0
 40
2.799999999999998
  1
BDV50
  7
YOKO
1001
ITEMNAME
1000
LNSP3
1001
ACAD
1000
MTEXTBEGIN
1070
    73
1070
     1
1070
    44
1040
1.0
1070
    74
1070
     0
1000
MTEXTEND
  0
LINE
  5
1487
  8
250
 10
243.49999999999969
 20
-45.0
 30
0.0
 11
260.99999999999972
 21
-45.0
 31
0.0
  0
LINE
  5
1488
  8
250
 10
243.49999999999969
 20
45.0
 30
0.0
 11
260.99999999999972
 21
44.999999999999993
 31
0.0
  0
LINE
  5
1489
  8
250
 10
259.99999999999972
 20
-42.77000000000001
 30
0.0
 11
259.99999999999972
 21
42.770000000000003
 31
0.0
  0
LINE
  5
148D
  8
250
 10
0.0
 20
35.425000000000011
 30
0.0
 11
0.0000000000000018
 21
64.0
 31
0.0
  0
LINE
  5
148E
  8
250
 10
242.99999999999969
 20
45.499999999999993
 30
0.0
 11
242.99999999999969
 21
64.0
 31
0.0
  0
LINE
  5
148F
  8
250
 10
2.2299999999999991
 20
63.0
 30
0.0
 11
240.7699999999997
 21
63.0
 31
0.0
  0
LINE
  5
1493
  8
250
 10
-65.691299079507829
 20
-27.438859700723469
 30
0.0
 11
-70.065207340000001
 21
-35.014691040000002
 31
0.0
1001
ACAD
1000
DSTYLE
1002
{
1070
     6
1000
OPEN
1070
   343
1005
594
1002
}
  0
LINE
  5
1494
  8
250
 10
-66.013171854628396
 20
-27.25302636747217
 30
0.0
 11
-64.576299080000013
 21
-25.50762305000001
 31
0.0
  0
LINE
  5
1495
  8
250
 10
-65.369426304387261
 20
-27.624693033974768
 30
0.0
 11
-64.576299080000013
 21
-25.50762305000001
 31
0.0
  0
LINE
  5
1496
  8
250
 10
-64.576299080000013
 20
-25.50762305000001
 30
0.0
 11
-65.691299079507829
 21
-27.438859700723469
 31
0.0
  0
TEXT
  5
1497
  8
250
 10
258.99999999999972
 20
-3.93333333333333
 30
0.0
 40
2.799999999999998
  1
\U+2205
 50
90.0
1001
ACAD
1000
MTEXTBEGIN
1070
    73
1070
     1
1070
    44
1040
1.0
1070
    74
1070
     0
1000
MTEXTEND
  0
TEXT
  5
1498
  8
250
 10
258.99999999999972
 20
-1.399999999999997
 30
0.0
 40
2.799999999999998
  1
90
 50
90.0
1001
ACAD
1000
MTEXTBEGIN
1070
    73
1070
     1
1070
    44
1040
1.0
1070
    74
1070
     0
1000
MTEXTEND
  0
LINE
  5
1499
  8
250
 10
259.62833333333288
 20
42.770000000000003
 30
0.0
 11
259.99999999999972
 21
45.0
 31
0.0
  0
LINE
  5
149A
  8
250
 10
260.37166666666627
 20
42.770000000000003
 30
0.0
 11
259.99999999999972
 21
45.0
 31
0.0
  0
LINE
  5
149B
  8
250
 10
259.99999999999972
 20
45.0
 30
0.0
 11
259.99999999999972
 21
42.770000000000003
 31
0.0
  0
LINE
  5
149C
  8
250
 10
260.37166666666627
 20
-42.770000000000003
 30
0.0
 11
259.99999999999972
 21
-45.0
 31
0.0
  0
LINE
  5
149D
  8
250
 10
259.62833333333288
 20
-42.770000000000003
 30
0.0
 11
259.99999999999972
 21
-45.0
 31
0.0
  0
LINE
  5
149E
  8
250
 10
259.99999999999972
 20
-45.0
 30
0.0
 11
259.99999999999972
 21
-42.770000000000003
 31
0.0
  0
TEXT
  5
149F
  8
250
 10
122.2038946132209
 20
64.0
 30
0.0
 40
3.0
  1
243
1001
ACAD
1000
MTEXTBEGIN
1070
    73
1070
     1
1070
    44
1040
1.0
1070
    74
1070
     0
1000
MTEXTEND
  0
LINE
  5
14A0
  8
250
 10
240.7699999999997
 20
63.37166666666667
 30
0.0
 11
242.99999999999969
 21
63.0
 31
0.0
  0
LINE
  5
14A1
  8
250
 10
240.7699999999997
 20
62.62833333333333
 30
0.0
 11
242.99999999999969
 21
63.0
 31
0.0
  0
LINE
  5
14A2
  8
250
 10
242.99999999999969
 20
63.0
 30
0.0
 11
240.7699999999997
 21
63.0
 31
0.0
  0
LINE
  5
14A3
  8
250
 10
2.2299999999999991
 20
62.62833333333333
 30
0.0
 11
0.0000000000000017
 21
63.0
 31
0.0
  0
LINE
  5
14A4
  8
250
 10
2.2299999999999991
 20
63.37166666666667
 30
0.0
 11
0.0000000000000017
 21
63.0
 31
0.0
  0
LINE
  5
14A5
  8
250
 10
0.0000000000000017
 20
63.0
 30
0.0
 11
2.2299999999999991
 21
63.0
 31
0.0
  0
LINE
  5
14C4
  8
247
  6
CONTINUOUS
 10
6.9999999999999432
 20
-24.25
 30
0.0
 11
7.0
 21
-19.61538461567002
 31
0.0
  0
LINE
  5
14C5
  8
247
  6
CONTINUOUS
 10
4.5
 20
-23.454893499987929
 30
0.0
 11
6.5999999999160082
 21
-24.057058810057359
 31
0.0
  0
LINE
  5
14C6
  8
247
  6
CONTINUOUS
 10
5.496153846113998
 20
-22.825151403519019
 30
0.0
 11
5.496153846113998
 21
-23.74053601886704
 31
0.0
  0
ARC
  5
14C7
  8
247
  6
CONTINUOUS
 10
4.8847190672940961
 20
-22.587263401946782
 30
0.0
 40
0.3876715809326743
 50
72.997889675291987
 51
172.92416621851359
  0
ARC
  5
14C8
  8
247
  6
CONTINUOUS
 10
4.805223131028014
 20
-22.882477556804101
 30
0.0
 40
0.6933047965358772
 50
4.7429368522022131
 51
73.849226273266538
1001
GENIUS_GENOBJ-N-FIL_13
1002
{
1000
OWNER
1000
GEN
1002
}
1001
GENIUS_GENODEF_13
1002
{
1000
HIER
1070
     0
1002
}
1002
{
1000
MANEDIT
1070
     0
1002
}
1002
{
1000
NOSEL
1070
     0
1002
}
1002
{
1000
BEHIND
1070
     0
1002
}
1002
{
1000
OTHER
1070
     0
1002
}
1002
{
1000
REACTOR
1002
}
  0
LINE
  5
14C9
  8
247
  6
CONTINUOUS
 10
6.5999999999160082
 20
-23.141674194709331
 30
0.0
 11
6.5999999999160082
 21
-24.057058810057359
 31
0.0
  0
LINE
  5
14CA
  8
247
  6
CONTINUOUS
 10
4.5
 20
-23.454893499987929
 30
0.0
 11
4.5
 21
-22.539508884639961
 31
0.0
  0
ARC
  5
14CB
  8
247
  6
CONTINUOUS
 10
5.8874169627678707
 20
-22.878306476266829
 30
0.0
 40
0.394857301075386
 50
65.990941652528889
 51
172.26344345906909
  0
ARC
  5
14CC
  8
247
  6
CONTINUOUS
 10
5.891200327332565
 20
-23.212446610426898
 30
0.0
 40
0.7123241612361686
 50
5.7019851642580841
 51
77.277338436822191
1001
GENIUS_GENOBJ-N-FIL_13
1002
{
1000
OWNER
1000
GEN
1002
}
1001
GENIUS_GENODEF_13
1002
{
1000
HIER
1070
     0
1002
}
1002
{
1000
MANEDIT
1070
     0
1002
}
1002
{
1000
NOSEL
1070
     0
1002
}
1002
{
1000
BEHIND
1070
     0
1002
}
1002
{
1000
OTHER
1070
     0
1002
}
1002
{
1000
REACTOR
1002
}
  0
LINE
  5
14CD
  8
247
  6
CONTINUOUS
 10
6.5999999999160082
 20
-22.183981887063361
 30
0.0
 11
4.5
 21
-21.581816576993958
 31
0.0
  0
LINE
  5
14CE
  8
247
  6
CONTINUOUS
 10
4.5
 20
-20.085662730907959
 30
0.0
 11
4.5
 21
-20.48167836430358
 31
0.0
  0
LINE
  5
14CF
  8
247
  6
CONTINUOUS
 10
6.5999999999160082
 20
-21.10873965394396
 30
0.0
 11
6.5999999999160082
 21
-20.677970423191969
 31
0.0
  0
ARC
  5
14D0
  8
247
  6
CONTINUOUS
 10
5.958299595083357
 20
-19.881816577069941
 30
0.0
 40
1.576855057639547
 50
202.35948814152911
 51
254.99324854284609
  0
ARC
  5
14D1
  8
247
  6
CONTINUOUS
 10
5.0658188585381341
 20
-20.347511366133212
 30
0.0
 40
0.6234706797009447
 50
94.994589319075374
 51
155.1663289573039
1001
GENIUS_GENOBJ-N-FIL_13
1002
{
1000
OWNER
1000
GEN
1002
}
1001
GENIUS_GENODEF_13
1002
{
1000
HIER
1070
     0
1002
}
1002
{
1000
MANEDIT
1070
     0
1002
}
1002
{
1000
NOSEL
1070
     0
1002
}
1002
{
1000
BEHIND
1070
     0
1002
}
1002
{
1000
OTHER
1070
     0
1002
}
1002
{
1000
REACTOR
1002
}
  0
ARC
  5
14D2
  8
247
  6
CONTINUOUS
 10
5.6621021219694381
 20
-20.944183951032791
 30
0.0
 40
0.9749472149106983
 50
15.8460965557808
 51
82.325137004169065
  0
ARC
  5
14D3
  8
247
  6
CONTINUOUS
 10
5.8714704019710631
 20
-20.535211638772211
 30
0.0
 40
0.9271945638692009
 50
249.7136016704969
 51
321.78874565640928
1001
GENIUS_GENOBJ-N-FIL_13
1002
{
1000
OWNER
1000
GEN
1002
}
1001
GENIUS_GENODEF_13
1002
{
1000
HIER
1070
     0
1002
}
1002
{
1000
MANEDIT
1070
     0
1002
}
1002
{
1000
NOSEL
1070
     0
1002
}
1002
{
1000
BEHIND
1070
     0
1002
}
1002
{
1000
OTHER
1070
     0
1002
}
1002
{
1000
REACTOR
1002
}
  0
LINE
  5
14D4
  8
247
  6
CONTINUOUS
 10
5.7923076922559744
 20
-20.462585807815941
 30
0.0
 11
5.7923076922559744
 21
-19.97797042321994
 31
0.0
  0
ARC
  5
14D5
  8
247
  6
CONTINUOUS
 10
5.75
 20
-24.25
 30
0.0
 40
1.25
 50
180.0
 51
0.0
  0
LINE
  5
14D6
  8
247
  6
CONTINUOUS
 10
4.5
 20
-24.25
 30
0.0
 11
4.5
 21
-23.803846153914009
 31
0.0
  0
ARC
  5
14D7
  8
247
  6
CONTINUOUS
 10
5.75
 20
-19.61538461567002
 30
0.0
 40
1.25
 50
0.0
 51
180.0
  0
VIEWPORT
  5
22
 67
     1
  8
0
 10
261.51769911999997
 20
148.5
 30
0.0
 40
523.03539823000006
 41
297.0
 68
     1
 69
     1
1001
ACAD
1000
MVIEW
1002
{
1070
    16
1010
0.0
1020
0.0
1030
0.0
1010
0.0
1020
0.0
1030
1.0
1040
0.0
1040
297.0
1040
261.51769911999997
1040
148.5
1040
50.0
1040
0.0
1040
0.0
1070
     0
1070
   100
1070
     1
1070
     1
1070
     0
1070
     0
1070
     0
1070
     0
1040
0.0
1040
0.0
1040
0.0
1040
1.0
1040
1.0
1040
10.0
1040
10.0
1070
     0
1002
{
1002
}
1002
}
1001
GENIUS_GENODEF_13
1002
{
1000
HIER
1070
     0
1002
}
1002
{
1000
MANEDIT
1070
     0
1002
}
1002
{
1000
NOSEL
1070
     0
1002
}
1002
{
1000
BEHIND
1070
     0
1002
}
1002
{
1000
OTHER
1070
     0
1002
}
1002
{
1000
REACTOR
1002
}
1001
GENIUS_GENOBJ-N-SDF_13
1002
{
1000
OWNER
1000
GEN
1002
}
1001
GENIUS_GENSCREG_15
1000
PF
1040
1.0
1000
DF
1040
1.0
1000
MIN
1011
0.0000000049999471
1021
0.0
1031
0.0
1021
0.0
1031
0.0
1000
MAX
1011
523.035398235
1021
0.0
1031
0.0
1021
297.0
1031
0.0
1000
FLAGS
1070
     4
  0
ENDSEC
  0
EOF
