  0
SECTION
  2
HEADER
  9
$ACADVER
  1
AC1009
  9
$INSBASE
 10
0.0
 20
0.0
 30
0.0
  9
$EXTMIN
 10
-103.75
 20
-53.625000000000057
 30
0.0
  9
$EXTMAX
 10
105.18078265
 20
82.0
 30
0.0
  9
$LIMMIN
 10
0.0
 20
0.0
  9
$LIMMAX
 10
297.0
 20
210.0
  9
$ORTHOMODE
 70
     0
  9
$REGENMODE
 70
     1
  9
$FILLMODE
 70
     1
  9
$QTEXTMODE
 70
     0
  9
$MIRRTEXT
 70
     1
  9
$DRAGMODE
 70
     2
  9
$LTSCALE
 40
10.0
  9
$OSMODE
 70
    47
  9
$ATTMODE
 70
     1
  9
$TEXTSIZE
 40
3.0
  9
$TRACEWID
 40
1.0
  9
$TEXTSTYLE
  7
YOKO
  9
$CLAYER
  8
240
  9
$CELTYPE
  6
BYLAYER
  9
$CECOLOR
 62
   256
  9
$DIMSCALE
 40
1.0
  9
$DIMASZ
 40
2.2299999999999991
  9
$DIMEXO
 40
0.5
  9
$DIMDLI
 40
7.0
  9
$DIMRND
 40
0.0
  9
$DIMDLE
 40
0.0
  9
$DIMEXE
 40
1.0
  9
$DIMTP
 40
0.0
  9
$DIMTM
 40
0.01
  9
$DIMTXT
 40
2.799999999999998
  9
$DIMCEN
 40
0.0
  9
$DIMTSZ
 40
0.0
  9
$DIMTOL
 70
     0
  9
$DIMLIM
 70
     0
  9
$DIMTIH
 70
     0
  9
$DIMTOH
 70
     0
  9
$DIMSE1
 70
     0
  9
$DIMSE2
 70
     0
  9
$DIMTAD
 70
     3
  9
$DIMZIN
 70
     9
  9
$DIMBLK
  1
OPEN
  9
$DIMASO
 70
     1
  9
$DIMSHO
 70
     1
  9
$DIMPOST
  1

  9
$DIMAPOST
  1

  9
$DIMALT
 70
     0
  9
$DIMALTD
 70
     2
  9
$DIMALTF
 40
25.399999999999999
  9
$DIMLFAC
 40
1.0
  9
$DIMTOFL
 70
     1
  9
$DIMTVP
 40
0.0
  9
$DIMTIX
 70
     1
  9
$DIMSOXD
 70
     0
  9
$DIMSAH
 70
     0
  9
$DIMBLK1
  1

  9
$DIMBLK2
  1

  9
$DIMSTYLE
  2
BIGT
  9
$DIMCLRD
 70
   256
  9
$DIMCLRE
 70
   256
  9
$DIMCLRT
 70
    40
  9
$DIMTFAC
 40
1.0
  9
$DIMGAP
 40
1.0
  9
$LUNITS
 70
     2
  9
$LUPREC
 70
     6
  9
$SKETCHINC
 40
1.0
  9
$FILLETRAD
 40
5.0
  9
$AUNITS
 70
     0
  9
$AUPREC
 70
     6
  9
$MENU
  1
.
  9
$ELEVATION
 40
0.0
  9
$PELEVATION
 40
0.0
  9
$THICKNESS
 40
0.0
  9
$LIMCHECK
 70
     0
  9
$BLIPMODE
 70
     0
  9
$CHAMFERA
 40
0.2
  9
$CHAMFERB
 40
0.2
  9
$SKPOLY
 70
     0
  9
$TDCREATE
 40
2459654.5283495369
  9
$TDUPDATE
 40
2460257.6137446072
  9
$TDINDWG
 40
0.0277766088
  9
$TDUSRTIMER
 40
0.0277764815
  9
$USRTIMER
 70
     1
  9
$ANGBASE
 50
0.0
  9
$ANGDIR
 70
     0
  9
$PDMODE
 70
     1
  9
$PDSIZE
 40
0.0
  9
$PLINEWID
 40
0.0
  9
$COORDS
 70
     1
  9
$SPLFRAME
 70
     0
  9
$SPLINETYPE
 70
     6
  9
$SPLINESEGS
 70
     4
  9
$ATTDIA
 70
     1
  9
$ATTREQ
 70
     1
  9
$HANDLING
 70
     1
  9
$HANDSEED
  5
50A9
  9
$SURFTAB1
 70
     6
  9
$SURFTAB2
 70
     6
  9
$SURFTYPE
 70
     6
  9
$SURFU
 70
     6
  9
$SURFV
 70
     6
  9
$UCSNAME
  2

  9
$UCSORG
 10
0.0
 20
0.0
 30
0.0
  9
$UCSXDIR
 10
1.0
 20
0.0
 30
0.0
  9
$UCSYDIR
 10
0.0
 20
1.0
 30
0.0
  9
$PUCSNAME
  2

  9
$PUCSORG
 10
0.0
 20
0.0
 30
0.0
  9
$PUCSXDIR
 10
1.0
 20
0.0
 30
0.0
  9
$PUCSYDIR
 10
0.0
 20
1.0
 30
0.0
  9
$USERI1
 70
     1
  9
$USERI2
 70
     0
  9
$USERI3
 70
     0
  9
$USERI4
 70
     0
  9
$USERI5
 70
     0
  9
$USERR1
 40
0.0
  9
$USERR2
 40
0.0
  9
$USERR3
 40
0.0
  9
$USERR4
 40
0.0
  9
$USERR5
 40
0.0
  9
$WORLDVIEW
 70
     1
  9
$SHADEDGE
 70
     3
  9
$SHADEDIF
 70
    70
  9
$TILEMODE
 70
     1
  9
$MAXACTVP
 70
    16
  9
$PLIMCHECK
 70
     0
  9
$PEXTMIN
 10
1.0000000000000000E+020
 20
1.0000000000000000E+020
 30
1.0000000000000000E+020
  9
$PEXTMAX
 10
-1.0000000000000000E+020
 20
-1.0000000000000000E+020
 30
-1.0000000000000000E+020
  9
$PLIMMIN
 10
0.0
 20
0.0
  9
$PLIMMAX
 10
420.0
 20
297.0
  9
$UNITMODE
 70
     0
  9
$VISRETAIN
 70
     1
  9
$PLINEGEN
 70
     0
  9
$PSLTSCALE
 70
     1
  0
ENDSEC
  0
SECTION
  2
TABLES
  0
TABLE
  2
VPORT
 70
     1
  0
VPORT
  2
*ACTIVE
 70
     0
 10
0.0
 20
0.0
 11
1.0
 21
1.0
 12
24.776587747919962
 22
17.9804926124148
 13
0.0
 23
0.0
 14
7.0
 24
7.0
 15
7.0
 25
7.0
 16
0.0
 26
0.0
 36
1.0
 17
0.0
 27
0.0
 37
0.0
 40
174.32208527583899
 41
1.9740932642487039
 42
50.0
 43
0.0
 44
0.0
 50
0.0
 51
0.0
 71
     0
 72
  2000
 73
     1
 74
     0
 75
     0
 76
     1
 77
     0
 78
     0
  0
ENDTAB
  0
TABLE
  2
LTYPE
 70
    18
  0
LTYPE
  2
CONTINUOUS
 70
     0
  3
Solid line
 72
    65
 73
     0
 40
0.0
  0
LTYPE
  2
CENTER2
 70
     0
  3
___ _ ___ _ ___ _ ___ _ ___ _ ___ _ ___ _ ___ _
 72
    65
 73
     4
 40
1.125
 49
0.75
 49
-0.125
 49
0.125
 49
-0.125
  0
LTYPE
  2
HIDDEN2
 70
     0
  3
_ _ _ _ _ _ _ _ _ _ _ _ _ _ _ _ _ _ _ _ _ _ _ _
 72
    65
 73
     2
 40
0.1875
 49
0.125
 49
-0.0625
  0
LTYPE
  2
PHANTOM2
 70
     0
  3
___ _ _ ___ _ _ ___ _ _ ___ _ _ ___ _ _ ___ _ _
 72
    65
 73
     6
 40
1.25
 49
0.625
 49
-0.125
 49
0.125
 49
-0.125
 49
0.125
 49
-0.125
  0
LTYPE
  2
AMCONSTR
 70
     0
  3
_______________________
 72
    65
 73
     2
 40
9999.0
 49
9999.0
 49
0.0
  0
LTYPE
  2
HIDDEN
 70
     0
  3
Hidden __ __ __ __ __ __ __ __ __ __ __ __ __ _
 72
    65
 73
     2
 40
0.375
 49
0.25
 49
-0.125
  0
LTYPE
  2
CENTER
 70
     0
  3
Center ____ _ ____ _ ____ _ ____ _ ____ _ ____
 72
    65
 73
     4
 40
2.0
 49
1.25
 49
-0.25
 49
0.25
 49
-0.25
  0
LTYPE
  2
AMZIGZAG2
 70
     0
  3
/\/-/\/-/\/-/\/-/\/-/\/
 72
    65
 73
     2
 40
0.4401
 49
0.0001
 49
-0.4400000000000003
  0
LTYPE
  2
ACANSTGB
 70
     0
  3
__ . . __ . .
 72
    65
 73
     6
 40
0.35433070866
 49
0.15748031496
 49
-0.03937007874
 49
0.03937007874
 49
-0.03937007874
 49
0.03937007874
 49
-0.03937007874
  0
LTYPE
  2
ACANSTGL
 70
     0
  3
_ _ _ _ _
 72
    65
 73
     2
 40
0.11811023622
 49
0.07874015748
 49
-0.03937007874
  0
LTYPE
  2
AM_ISO02W050
 70
     0
  3
__ __ __ __ __ __ __ __ __ __ __ __ __ __ __
 72
    65
 73
     2
 40
7.5
 49
6.0
 49
-1.5
  0
LTYPE
  2
ACJISTGB
 70
     0
  3
__ . . __ . .
 72
    65
 73
     6
 40
9.0
 49
4.0
 49
-1.0
 49
1.0
 49
-1.0
 49
1.0
 49
-1.0
  0
LTYPE
  2
ACJISTGL
 70
     0
  3
_ _ _ _ _
 72
    65
 73
     2
 40
3.0
 49
2.0
 49
-1.0
  0
ENDTAB
  0
TABLE
  2
LAYER
 70
    11
  0
LAYER
  2
0
 70
     0
 62
     7
  6
CONTINUOUS
  0
LAYER
  2
240
 70
     0
 62
     4
  6
CONTINUOUS
  0
LAYER
  2
DEFPOINTS
 70
     0
 62
     7
  6
CONTINUOUS
  0
LAYER
  2
245
 70
     0
 62
     2
  6
CENTER2
  0
LAYER
  2
241
 70
     0
 62
   211
  6
CONTINUOUS
  0
LAYER
  2
242
 70
     0
 62
     3
  6
CONTINUOUS
  0
LAYER
  2
243
 70
     0
 62
   211
  6
HIDDEN2
  0
LAYER
  2
247
 70
     0
 62
    60
  6
CONTINUOUS
  0
LAYER
  2
250
 70
     0
 62
     3
  6
CONTINUOUS
  0
LAYER
  2
AM_5
 70
     0
 62
     3
  6
CONTINUOUS
  0
ENDTAB
  0
TABLE
  2
STYLE
 70
     8
  0
STYLE
  2
STANDARD
 70
     0
 40
0.0
 41
1.0
 50
0.0
 71
     0
 42
3.0
  3
romans.shx
  4
extfont.shx
  0
STYLE
  2
YOKO
 70
     0
 40
0.0
 41
1.0
 50
0.0
 71
     0
 42
3.0
  3
romans.shx
  4
extfont.shx
  0
STYLE
  2
ACANSGDT
 70
     0
 40
0.0
 41
1.0
 50
0.0
 71
     0
 42
3.0
  3
amgdt.shx
  4

  0
STYLE
  2
ACJISTS
 70
     0
 40
1.0
 41
1.0
 50
0.0
 71
     0
 42
3.0
  3
amgdt.shx
  4
extfont.shx
  0
STYLE
  2
ACJISGDT
 70
     0
 40
0.0
 41
1.0
 50
0.0
 71
     0
 42
3.0
  3
amgdt.shx
  4
extfont.shx
  0
ENDTAB
  0
TABLE
  2
VIEW
 70
     0
  0
ENDTAB
  0
TABLE
  2
UCS
 70
     0
  0
ENDTAB
  0
TABLE
  2
APPID
 70
    39
  0
APPID
  2
ACAD
 70
     0
  0
APPID
  2
ACADANNOTATIVE
 70
     0
  0
APPID
  2
GLOBAL
 70
     0
  0
APPID
  2
DETAIL
 70
     0
  0
APPID
  2
GRPNAME
 70
     0
  0
APPID
  2
GPARA
 70
     0
  0
APPID
  2
MCAD_NO_VIS
 70
     0
  0
APPID
  2
ACAD_TEMP_GRAPHIC
 70
     0
  0
APPID
  2
ACATTRIBSERVICES
 70
     0
  0
APPID
  2
GENIUS_GENSCREG_15
 70
     0
  0
APPID
  2
GENIUS_GENODEF_13
 70
     0
  0
APPID
  2
GENIUS_GENOBJ-N-SDF_13
 70
     0
  0
APPID
  2
GENIUS_GENREC_14
 70
     0
  0
APPID
  2
GENIUS_GENOBJ-N-REC_13
 70
     0
  0
APPID
  2
GENIUS_GENDIMSH_14
 70
     0
  0
APPID
  2
GENIUS_GENOBJ-N-DIM_13
 70
     0
  0
APPID
  2
GENIUS_GENDIM_13
 70
     0
  0
APPID
  2
GENIUS_GENDTOL_13
 70
     0
  0
APPID
  2
GENIUS_GENOLIS_13
 70
     0
  0
APPID
  2
GENIUS_GENOENT_13
 70
     0
  0
APPID
  2
GENIUS_GENOBJ-F-FEM_13
 70
     0
  0
APPID
  2
GENIUS_GENOREF_13
 70
     0
  0
APPID
  2
GENIUS_GEFFEM_13
 70
     0
  0
APPID
  2
GENIUS_GEFFEMP_13
 70
     0
  0
APPID
  2
AD_DRAW
 70
     0
  0
APPID
  2
DESIGNERASSEMBLIES
 70
     0
  0
APPID
  2
ACADM_DIM_EDIT
 70
     0
  0
APPID
  2
AMDT_DM_ADJ
 70
     0
  0
APPID
  2
ITEMNAME
 70
     0
  0
APPID
  2
GENIUS_GENOBJ-N-FIL_13
 70
     0
  0
APPID
  2
GENIUS_GENFIL_13
 70
     0
  0
APPID
  2
GENIUS_GENOBJ-N-CHA_13
 70
     0
  0
APPID
  2
ACAD_NAV_VCDISPLAY
 70
     0
  0
APPID
  2
ACAD_EXEMPT_FROM_CAD_STANDARDS
 70
     0
  0
APPID
  2
ACAD_MLEADERVER
 70
     0
  0
APPID
  2
ACAD_DSTYLE_DIMJAG
 70
     0
  0
APPID
  2
ACAD_DSTYLE_DIMBREAK
 70
     0
  0
APPID
  2
ACAECLAYERSTANDARD
 70
     0
  0
APPID
  2
ACAD_PSEXT
 70
     0
  0
ENDTAB
  0
TABLE
  2
DIMSTYLE
 70
    20
  0
DIMSTYLE
  2
STANDARD
 70
     0
  3

  4

  5

  6

  7

 40
1.0
 41
0.18
 42
0.0625
 43
0.38
 44
0.18
 45
0.0
 46
0.0
 47
0.0
 48
0.0
140
0.18
141
0.09
142
0.0
143
25.399999999999999
144
1.0
145
0.0
146
1.0
147
0.09
 71
     0
 72
     0
 73
     1
 74
     1
 75
     0
 76
     0
 77
     0
 78
     0
170
     0
171
     2
172
     0
173
     0
174
     0
175
     0
176
     0
177
     0
178
     0
  0
DIMSTYLE
  2
BIGT
 70
     0
  3

  4

  5

  6

  7

 40
1.0
 41
2.2299999999999991
 42
0.5
 43
7.0
 44
1.0
 45
0.0
 46
0.0
 47
0.0
 48
0.01
140
2.799999999999998
141
0.0
142
0.0
143
25.399999999999999
144
1.0
145
0.0
146
1.0
147
1.0
 71
     0
 72
     0
 73
     0
 74
     0
 75
     0
 76
     0
 77
     3
 78
     9
170
     0
171
     2
172
     1
173
     0
174
     1
175
     0
176
   256
177
   256
178
    40
  0
DIMSTYLE
  2
AM_ANSI
 70
     0
  3

  4
mm
  5

  6

  7

 40
1.0
 41
0.12
 42
0.05
 43
0.5
 44
0.1
 45
0.0
 46
0.0
 47
0.1
 48
0.1
140
0.12
141
0.0
142
0.0
143
25.399999999999999
144
1.0
145
0.0
146
0.71
147
0.06
 71
     0
 72
     0
 73
     1
 74
     1
 75
     0
 76
     0
 77
     0
 78
     7
170
     0
171
     2
172
     0
173
     0
174
     0
175
     0
176
   256
177
   256
178
     2
  0
DIMSTYLE
  2
AM_ANSI$3
 70
     0
  3

  4
mm
  5

  6

  7

 40
1.0
 41
0.12
 42
0.05
 43
0.5
 44
0.1
 45
0.0
 46
0.0
 47
0.1
 48
0.1
140
0.12
141
0.0
142
0.0
143
25.399999999999999
144
1.0
145
0.0
146
0.71
147
0.06
 71
     0
 72
     0
 73
     1
 74
     1
 75
     0
 76
     0
 77
     0
 78
     7
170
     0
171
     2
172
     0
173
     0
174
     0
175
     0
176
   256
177
   256
178
     2
  0
DIMSTYLE
  2
AM_ANSI$4
 70
     0
  3

  4
mm
  5

  6

  7

 40
1.0
 41
0.12
 42
0.05
 43
0.5
 44
0.1
 45
0.0
 46
0.0
 47
0.1
 48
0.1
140
0.12
141
0.0
142
0.0
143
25.399999999999999
144
1.0
145
0.0
146
0.71
147
0.06
 71
     0
 72
     0
 73
     1
 74
     1
 75
     0
 76
     0
 77
     0
 78
     7
170
     0
171
     2
172
     0
173
     0
174
     0
175
     0
176
   256
177
   256
178
     2
  0
DIMSTYLE
  2
AM_ANSI$7
 70
     0
  3

  4
mm
  5

  6

  7

 40
1.0
 41
0.12
 42
0.05
 43
0.5
 44
0.1
 45
0.0
 46
0.0
 47
0.1
 48
0.1
140
0.12
141
0.0
142
0.0
143
25.399999999999999
144
1.0
145
0.0
146
0.71
147
0.06
 71
     0
 72
     0
 73
     1
 74
     1
 75
     0
 76
     0
 77
     0
 78
     7
170
     0
171
     2
172
     0
173
     0
174
     0
175
     0
176
   256
177
   256
178
     2
  0
DIMSTYLE
  2
AM_ANSI$SF
 70
     0
  3

  4
mm
  5

  6

  7

 40
1.0
 41
0.12
 42
0.05
 43
0.5
 44
0.1
 45
0.0
 46
0.0
 47
0.1
 48
0.1
140
0.12
141
0.0
142
0.0
143
25.399999999999999
144
1.0
145
0.0
146
0.71
147
0.06
 71
     0
 72
     0
 73
     1
 74
     1
 75
     1
 76
     1
 77
     0
 78
     7
170
     0
171
     2
172
     0
173
     0
174
     0
175
     0
176
   256
177
   256
178
     2
  0
DIMSTYLE
  2
AM_ANSI$SH
 70
     0
  3

  4
mm
  5

  6

  7

 40
1.0
 41
0.12
 42
0.05
 43
0.5
 44
0.1
 45
0.0
 46
0.0
 47
0.1
 48
0.1
140
0.12
141
0.0
142
0.0
143
25.399999999999999
144
1.0
145
0.0
146
0.71
147
0.06
 71
     0
 72
     0
 73
     1
 74
     1
 75
     1
 76
     1
 77
     0
 78
     7
170
     0
171
     2
172
     0
173
     1
174
     0
175
     0
176
   256
177
   256
178
     2
  0
DIMSTYLE
  2
BIGT$0
 70
     0
  3

  4

  5
OPEN
  6

  7

 40
1.0
 41
2.2299999999999991
 42
0.5
 43
7.0
 44
1.0
 45
0.0
 46
0.0
 47
0.0
 48
0.01
140
2.7999999999999989
141
0.0
142
0.0
143
25.399999999999999
144
1.0
145
0.0
146
1.0
147
1.0
 71
     0
 72
     0
 73
     0
 74
     0
 75
     0
 76
     0
 77
     3
 78
     9
170
     0
171
     2
172
     1
173
     0
174
     1
175
     0
176
   256
177
   256
178
    40
  0
DIMSTYLE
  2
BIGT$2
 70
     0
  3

  4

  5
OPEN
  6

  7

 40
1.0
 41
2.2299999999999991
 42
0.5
 43
7.0
 44
1.0
 45
0.0
 46
0.0
 47
0.0
 48
0.01
140
2.7999999999999989
141
0.0
142
0.0
143
25.399999999999999
144
1.0
145
0.0
146
1.0
147
1.0
 71
     0
 72
     0
 73
     0
 74
     0
 75
     0
 76
     0
 77
     3
 78
     9
170
     0
171
     2
172
     1
173
     0
174
     0
175
     0
176
   256
177
   256
178
    40
  0
DIMSTYLE
  2
BIGT$3
 70
     0
  3

  4

  5
OPEN
  6

  7

 40
1.0
 41
2.2299999999999991
 42
0.5
 43
2.5
 44
1.0
 45
0.0
 46
0.0
 47
0.0
 48
0.01
140
2.7999999999999989
141
0.0
142
0.0
143
25.399999999999999
144
1.0
145
0.0
146
1.0
147
1.0
 71
     0
 72
     0
 73
     0
 74
     0
 75
     0
 76
     0
 77
     3
 78
     9
170
     0
171
     2
172
     1
173
     0
174
     0
175
     0
176
   256
177
   256
178
    40
  0
DIMSTYLE
  2
BIGT$4
 70
     0
  3

  4

  5
OPEN
  6

  7

 40
1.0
 41
2.2299999999999991
 42
0.5
 43
2.5
 44
1.0
 45
0.0
 46
0.0
 47
0.0
 48
0.01
140
2.7999999999999989
141
0.0
142
0.0
143
25.399999999999999
144
1.0
145
0.0
146
1.0
147
1.0
 71
     0
 72
     0
 73
     0
 74
     0
 75
     0
 76
     0
 77
     3
 78
     9
170
     0
171
     2
172
     1
173
     0
174
     0
175
     0
176
   256
177
   256
178
    40
  0
DIMSTYLE
  2
BIGT$6
 70
     0
  3

  4

  5
OPEN
  6

  7

 40
1.0
 41
2.2299999999999991
 42
0.5
 43
2.5
 44
1.0
 45
0.0
 46
0.0
 47
0.0
 48
0.01
140
2.7999999999999989
141
0.0
142
0.0
143
25.399999999999999
144
1.0
145
0.0
146
1.0
147
1.0
 71
     0
 72
     0
 73
     0
 74
     0
 75
     0
 76
     0
 77
     3
 78
     9
170
     0
171
     2
172
     1
173
     0
174
     0
175
     0
176
   256
177
   256
178
    40
  0
DIMSTYLE
  2
BIGT$7
 70
     0
  3

  4

  5
OPEN
  6

  7

 40
0.0
 41
2.2299999999999991
 42
0.5
 43
7.0
 44
1.0
 45
0.0
 46
0.0
 47
0.0
 48
0.01
140
2.7999999999999989
141
0.0
142
0.0
143
25.399999999999999
144
1.0
145
0.0
146
1.0
147
1.0
 71
     0
 72
     0
 73
     0
 74
     0
 75
     0
 76
     0
 77
     3
 78
     9
170
     0
171
     2
172
     0
173
     0
174
     0
175
     0
176
   256
177
   256
178
    40
  0
DIMSTYLE
  2
BIGT$SF
 70
     0
  3

  4

  5
OPEN
  6

  7

 40
1.0
 41
2.2299999999999991
 42
0.5
 43
7.0
 44
1.0
 45
0.0
 46
0.0
 47
0.0
 48
0.0
140
2.7999999999999989
141
0.0
142
0.0
143
25.399999999999999
144
1.0
145
0.0
146
1.0
147
1.0
 71
     0
 72
     0
 73
     0
 74
     0
 75
     0
 76
     0
 77
     3
 78
     9
170
     0
171
     2
172
     1
173
     0
174
     0
175
     0
176
   256
177
   256
178
    40
  0
DIMSTYLE
  2
BIGT$SH
 70
     0
  3

  4

  5
OPEN
  6

  7

 40
1.0
 41
2.2299999999999991
 42
0.5
 43
7.0
 44
1.0
 45
0.0
 46
0.0
 47
0.0
 48
0.0
140
2.7999999999999989
141
0.0
142
0.0
143
25.399999999999999
144
1.0
145
0.0
146
1.0
147
1.0
 71
     0
 72
     0
 73
     0
 74
     0
 75
     0
 76
     0
 77
     3
 78
     9
170
     0
171
     2
172
     1
173
     0
174
     0
175
     0
176
   256
177
   256
178
    40
  0
ENDTAB
  0
ENDSEC
  0
SECTION
  2
BLOCKS
  0
BLOCK
  8
0
  2
$MODEL_SPACE
 70
     0
 10
0.0
 20
0.0
 30
0.0
  3
$MODEL_SPACE
  1

  0
ENDBLK
  5
4E85
  8
0
  0
BLOCK
 67
     1
  8
0
  2
$PAPER_SPACE
 70
     0
 10
0.0
 20
0.0
 30
0.0
  3
$PAPER_SPACE
  1

  0
ENDBLK
  5
4E81
 67
     1
  8
0
  0
BLOCK
  8
0
  2
_OPEN
 70
     0
 10
0.0
 20
0.0
 30
0.0
  3
_OPEN
  1

  0
LINE
  5
4428
  8
0
  6
BYBLOCK
 62
     0
 10
-1.0
 20
0.1666666666666666
 30
0.0
 11
0.0
 21
0.0
 31
0.0
  0
LINE
  5
4429
  8
0
  6
BYBLOCK
 62
     0
 10
-1.0
 20
-0.1666666666666666
 30
0.0
 11
0.0
 21
0.0
 31
0.0
  0
LINE
  5
442A
  8
0
  6
BYBLOCK
 62
     0
 10
0.0
 20
0.0
 30
0.0
 11
-1.0
 21
0.0
 31
0.0
  0
ENDBLK
  5
442B
  8
0
  0
BLOCK
  8
0
  2
_ACMFILLEDHALF
 70
     0
 10
0.0
 20
0.0
 30
0.0
  3
_ACMFILLEDHALF
  1

  0
TRACE
  5
4651
  8
240
 62
     0
 10
-0.8
 20
0.0
 30
0.0
 11
-1.0
 21
0.166666666
 31
0.0
 12
0.0
 22
0.0
 32
0.0
 13
0.0
 23
0.0
 33
0.0
  0
LINE
  5
4652
  8
240
 62
     0
 10
-1.0
 20
0.0
 30
0.0
 11
-0.8
 21
0.0
 31
0.0
  0
ENDBLK
  5
4650
  8
0
  0
ENDSEC
  0
SECTION
  2
ENTITIES
  0
TEXT
  5
4228
  8
241
  6
CONTINUOUS
 10
-101.75
 20
77.0
 30
0.0
 40
5.0
  1
BDV50-CKB5-83
  7
YOKO
 11
-101.75
 21
77.0
 31
0.0
 73
     1
  0
LINE
  5
422C
  8
250
  6
CONTINUOUS
 10
-66.994140639999983
 20
-35.33101018
 30
0.0
 11
-80.460807310000007
 21
-35.33101018
 31
0.0
1001
ITEMNAME
1000
LNSP2
  0
LINE
  5
425B
  8
245
  6
CENTER2
 10
-102.75
 20
0.0
 30
0.0
 11
84.000000000000028
 21
0.0
 31
0.0
  0
LINE
  5
425C
  8
240
  6
CONTINUOUS
 10
0.0
 20
34.924999999999997
 30
0.0
 11
-99.781905850000001
 21
20.373472060000001
 31
0.0
  0
LINE
  5
425D
  8
240
  6
CONTINUOUS
 10
0.0
 20
-34.924999999999997
 30
0.0
 11
-99.781905850000001
 21
-20.373472060000001
 31
0.0
  0
LINE
  5
425F
  8
240
  6
CONTINUOUS
 10
-101.75
 20
-18.097546210000001
 30
0.0
 11
-101.75
 21
18.097546210000001
 31
0.0
  0
ARC
  5
4260
  8
240
  6
CONTINUOUS
 10
-99.450000000000003
 20
-18.097546210000001
 30
0.0
 40
2.299999999999998
 50
180.0
 51
261.70285503000002
  0
ARC
  5
4261
  8
240
  6
CONTINUOUS
 10
-99.450000000000003
 20
18.097546210000001
 30
0.0
 40
2.299999999999998
 50
98.297144969999977
 51
180.0
  0
LINE
  5
4262
  8
245
  6
CENTER2
 10
11.1
 20
-48.75
 30
0.0
 11
11.1
 21
48.75
 31
0.0
  0
LINE
  5
4263
  8
241
  6
CONTINUOUS
 10
0.0
 20
-34.924999999999997
 30
0.0
 11
0.0
 21
34.924999999999997
 31
0.0
  0
LINE
  5
426D
  8
240
  6
CONTINUOUS
 10
83.000000000000043
 20
-25.0
 30
0.0
 11
24.100000000000001
 21
-25.0
 31
0.0
  0
LINE
  5
426E
  8
240
  6
CONTINUOUS
 10
1.49999999999999
 20
-48.75
 30
0.0
 11
1.49999999999999
 21
-34.924999999999997
 31
0.0
  0
LINE
  5
426F
  8
241
  6
CONTINUOUS
 10
9.2249999999999996
 20
-45.625
 30
0.0
 11
9.2249999999999996
 21
30.0
 31
0.0
  0
LINE
  5
4270
  8
241
  6
CONTINUOUS
 10
7.8524047399999981
 20
-48.75
 30
0.0
 11
7.8524047399999981
 21
30.0
 31
0.0
  0
LINE
  5
4271
  8
241
  6
CONTINUOUS
 10
12.975
 20
-45.625
 30
0.0
 11
12.975
 21
30.0
 31
0.0
  0
LINE
  5
4272
  8
241
  6
CONTINUOUS
 10
14.34759526
 20
-48.75
 30
0.0
 11
14.34759526
 21
30.0
 31
0.0
  0
LINE
  5
4273
  8
240
  6
CONTINUOUS
 10
19.100000000000001
 20
-48.75
 30
0.0
 11
19.100000000000001
 21
-30.0
 31
0.0
  0
LINE
  5
4274
  8
240
  6
CONTINUOUS
 10
14.34759526
 20
-48.75
 30
0.0
 11
19.100000000000001
 21
-48.75
 31
0.0
  0
LINE
  5
4275
  8
240
  6
CONTINUOUS
 10
1.49999999999999
 20
-48.75
 30
0.0
 11
7.8524047399999981
 21
-48.75
 31
0.0
  0
LINE
  5
4276
  8
240
  6
CONTINUOUS
 10
9.2249999999999996
 20
-45.625
 30
0.0
 11
12.975
 21
-45.625
 31
0.0
  0
LINE
  5
4277
  8
240
  6
CONTINUOUS
 10
7.8524047399999981
 20
-48.75
 30
0.0
 11
9.2249999999999996
 21
-46.372595259999997
 31
0.0
  0
LINE
  5
4278
  8
240
  6
CONTINUOUS
 10
9.2249999999999996
 20
-46.372595259999997
 30
0.0
 11
9.2249999999999996
 21
-45.625
 31
0.0
  0
LINE
  5
4279
  8
240
  6
CONTINUOUS
 10
12.975
 20
-46.372595259999997
 30
0.0
 11
12.975
 21
-45.625
 31
0.0
  0
LINE
  5
427A
  8
240
  6
CONTINUOUS
 10
14.34759526
 20
-48.75
 30
0.0
 11
12.975
 21
-46.372595259999997
 31
0.0
  0
LINE
  5
427C
  8
241
  6
CONTINUOUS
 10
1.49999999999999
 20
-34.924999999999997
 30
0.0
 11
1.49999999999999
 21
34.924999999999997
 31
0.0
  0
LINE
  5
427D
  8
241
  6
CONTINUOUS
 10
19.100000000000001
 20
-30.0
 30
0.0
 11
19.100000000000009
 21
30.0
 31
0.0
  0
LINE
  5
427F
  8
240
  6
CONTINUOUS
 10
0.0
 20
-34.924999999999997
 30
0.0
 11
1.49999999999999
 21
-34.924999999999997
 31
0.0
  0
LINE
  5
4287
  8
240
  6
CONTINUOUS
 10
83.000000000000043
 20
-25.0
 30
0.0
 11
83.000000000000043
 21
25.0
 31
0.0
  0
LINE
  5
428C
  8
240
  6
CONTINUOUS
 10
83.000000000000043
 20
25.0
 30
0.0
 11
24.100000000000019
 21
25.0
 31
0.0
  0
LINE
  5
428D
  8
240
  6
CONTINUOUS
 10
1.49999999999999
 20
48.75
 30
0.0
 11
1.49999999999999
 21
34.924999999999997
 31
0.0
  0
LINE
  5
428E
  8
241
  6
CONTINUOUS
 10
14.34759526
 20
48.75
 30
0.0
 11
14.34759526
 21
38.82599999
 31
0.0
  0
LINE
  5
428F
  8
241
  6
CONTINUOUS
 10
12.975
 20
45.625
 30
0.0
 11
12.975
 21
34.375000000000192
 31
0.0
  0
LINE
  5
4290
  8
241
  6
CONTINUOUS
 10
9.2249999999999996
 20
45.625
 30
0.0
 11
9.2249999999999996
 21
34.375000000000007
 31
0.0
  0
LINE
  5
4291
  8
241
  6
CONTINUOUS
 10
7.8524047399999981
 20
48.75
 30
0.0
 11
7.8524047399999981
 21
38.82599999
 31
0.0
  0
LINE
  5
4292
  8
240
  6
CONTINUOUS
 10
19.100000000000001
 20
48.75
 30
0.0
 11
19.100000000000001
 21
30.0
 31
0.0
  0
LINE
  5
4293
  8
240
  6
CONTINUOUS
 10
0.0
 20
34.924999999999997
 30
0.0
 11
1.49999999999999
 21
34.924999999999997
 31
0.0
  0
LINE
  5
4298
  8
240
  6
CONTINUOUS
 10
14.34759526
 20
48.75
 30
0.0
 11
19.100000000000001
 21
48.75
 31
0.0
  0
LINE
  5
4299
  8
240
  6
CONTINUOUS
 10
1.49999999999999
 20
48.75
 30
0.0
 11
7.8524047399999981
 21
48.75
 31
0.0
  0
LINE
  5
429A
  8
240
  6
CONTINUOUS
 10
9.2249999999999996
 20
45.625
 30
0.0
 11
12.975
 21
45.625
 31
0.0
  0
LINE
  5
429B
  8
240
  6
CONTINUOUS
 10
7.8524047399999981
 20
48.75
 30
0.0
 11
9.2249999999999996
 21
46.372595259999997
 31
0.0
  0
LINE
  5
429C
  8
240
  6
CONTINUOUS
 10
9.2249999999999996
 20
46.372595259999997
 30
0.0
 11
9.2249999999999996
 21
45.625
 31
0.0
  0
LINE
  5
429D
  8
240
  6
CONTINUOUS
 10
14.34759526
 20
48.75
 30
0.0
 11
12.975
 21
46.372595259999997
 31
0.0
  0
LINE
  5
429E
  8
240
  6
CONTINUOUS
 10
12.975
 20
46.372595259999997
 30
0.0
 11
12.975
 21
45.625
 31
0.0
  0
LINE
  5
429F
  8
243
  6
HIDDEN2
 10
1.499999999999986
 20
-35.5
 30
0.0
 11
19.099999999999991
 21
-35.5
 31
0.0
  0
LINE
  5
42A0
  8
243
  6
HIDDEN2
 10
1.499999999999986
 20
37.699999999999989
 30
0.0
 11
19.099999999999991
 21
37.699999999999989
 31
0.0
  0
LINE
  5
42A1
  8
243
  6
HIDDEN2
 10
6.0999999999999721
 20
37.699999999999989
 30
0.0
 11
6.1000000000002004
 21
33.099999999999682
 31
0.0
  0
LINE
  5
42A2
  8
243
  6
HIDDEN2
 10
16.099999999999959
 20
37.699999999999989
 30
0.0
 11
16.10000000000014
 21
33.100000000000023
 31
0.0
  0
LINE
  5
42A3
  8
243
  6
HIDDEN2
 10
16.099999999999799
 20
33.099999999999682
 30
0.0
 11
6.1000000000002004
 21
33.100000000000378
 31
0.0
  0
LINE
  5
42A4
  8
241
  6
CONTINUOUS
 10
14.347595264191661
 20
38.826000000000001
 30
0.0
 11
12.975
 21
35.361244202326141
 31
0.0
  0
LINE
  5
42A5
  8
241
  6
CONTINUOUS
 10
14.347595264191661
 20
38.826000000000001
 30
0.0
 11
19.099999999999991
 21
38.826000000000001
 31
0.0
  0
LINE
  5
42A6
  8
241
  6
CONTINUOUS
 10
7.8524047358083422
 20
38.826000000000001
 30
0.0
 11
9.2250000000000032
 21
35.361244202326141
 31
0.0
  0
LINE
  5
42A7
  8
241
  6
CONTINUOUS
 10
1.499999999999958
 20
38.826000000000001
 30
0.0
 11
7.8524047358083422
 21
38.826000000000001
 31
0.0
  0
LINE
  5
42A8
  8
241
  6
CONTINUOUS
 10
9.2249999999999996
 20
34.375000000000007
 30
0.0
 11
12.975
 21
34.375000000000192
 31
0.0
  0
LINE
  5
42A9
  8
241
  6
CONTINUOUS
 10
1.499999999999958
 20
30.0
 30
0.0
 11
19.099999999999991
 21
30.0
 31
0.0
  0
TEXT
  5
42B0
  8
250
  6
CONTINUOUS
 10
-80.495498748331016
 20
-34.33101018
 30
0.0
 40
2.799999999999998
  1
BDV50
  7
YOKO
1001
ITEMNAME
1000
LNSP3
  0
LINE
  5
42B1
  8
250
  6
CONTINUOUS
 10
83.500000000000028
 20
-25.0
 30
0.0
 11
98.0
 21
-25.0
 31
0.0
  0
LINE
  5
42B2
  8
250
  6
CONTINUOUS
 10
83.500000000000028
 20
25.0
 30
0.0
 11
98.0
 21
25.0
 31
0.0
  0
LINE
  5
42B3
  8
250
  6
CONTINUOUS
 10
97.000000000000043
 20
-22.77
 30
0.0
 11
97.000000000000043
 21
22.77
 31
0.0
  0
LINE
  5
42B7
  8
250
  6
CONTINUOUS
 10
0.0
 20
35.424999999999997
 30
0.0
 11
0.0000000000000016
 21
61.0
 31
0.0
  0
LINE
  5
42B8
  8
250
  6
CONTINUOUS
 10
83.000000000000043
 20
25.5
 30
0.0
 11
83.000000000000043
 21
61.0
 31
0.0
  0
LINE
  5
42B9
  8
250
  6
CONTINUOUS
 10
2.2299999999999991
 20
60.0
 30
0.0
 11
80.770000000000053
 21
60.0
 31
0.0
  0
LINE
  5
42C7
  8
250
  6
CONTINUOUS
 10
-62.690281829818439
 20
-27.876508050544128
 30
0.0
 11
-66.994140639999983
 21
-35.33101018
 31
0.0
1001
ACAD
1000
DSTYLE
1002
{
1070
     6
1000
OPEN
1070
   343
1005
594
1002
}
  0
LINE
  5
42C8
  8
250
  6
CONTINUOUS
 10
-63.012154604909121
 20
-27.690674717241048
 30
0.0
 11
-61.575281830000002
 21
-25.945271399999999
 31
0.0
  0
LINE
  5
42C9
  8
250
  6
CONTINUOUS
 10
-62.368409054727742
 20
-28.062341383847201
 30
0.0
 11
-61.575281830000002
 21
-25.945271399999999
 31
0.0
  0
LINE
  5
42CA
  8
250
  6
CONTINUOUS
 10
-61.575281830000002
 20
-25.945271399999999
 30
0.0
 11
-62.690281829818439
 21
-27.876508050544128
 31
0.0
  0
TEXT
  5
42CB
  8
250
  6
CONTINUOUS
 10
96.000000000000043
 20
-3.933333333333314
 30
0.0
 40
2.799999999999998
  1
\U+220550
 50
90.0
  0
LINE
  5
42CC
  8
250
  6
CONTINUOUS
 10
96.628333333333345
 20
22.77
 30
0.0
 11
97.000000000000043
 21
25.0
 31
0.0
  0
LINE
  5
42CD
  8
250
  6
CONTINUOUS
 10
97.371666666666655
 20
22.77
 30
0.0
 11
97.000000000000043
 21
25.0
 31
0.0
  0
LINE
  5
42CE
  8
250
  6
CONTINUOUS
 10
97.000000000000043
 20
25.0
 30
0.0
 11
97.000000000000043
 21
22.77
 31
0.0
  0
LINE
  5
42CF
  8
250
  6
CONTINUOUS
 10
97.371666666666655
 20
-22.77
 30
0.0
 11
97.000000000000043
 21
-25.0
 31
0.0
  0
LINE
  5
42D0
  8
250
  6
CONTINUOUS
 10
96.628333333333345
 20
-22.77
 30
0.0
 11
97.000000000000043
 21
-25.0
 31
0.0
  0
LINE
  5
42D1
  8
250
  6
CONTINUOUS
 10
97.000000000000043
 20
-25.0
 30
0.0
 11
97.000000000000043
 21
-22.77
 31
0.0
  0
TEXT
  5
42D2
  8
250
  6
CONTINUOUS
 10
40.724690172765662
 20
61.0
 30
0.0
 40
2.799999999999998
  1
83
  0
LINE
  5
42D3
  8
250
  6
CONTINUOUS
 10
80.770000000000053
 20
60.37166666666667
 30
0.0
 11
83.000000000000043
 21
60.0
 31
0.0
  0
LINE
  5
42D4
  8
250
  6
CONTINUOUS
 10
80.770000000000053
 20
59.62833333333333
 30
0.0
 11
83.000000000000043
 21
60.0
 31
0.0
  0
LINE
  5
42D5
  8
250
  6
CONTINUOUS
 10
83.000000000000043
 20
60.0
 30
0.0
 11
80.770000000000053
 21
60.0
 31
0.0
  0
LINE
  5
42D6
  8
250
  6
CONTINUOUS
 10
2.2299999999999991
 20
59.62833333333333
 30
0.0
 11
0.0000000000000015
 21
60.0
 31
0.0
  0
LINE
  5
42D7
  8
250
  6
CONTINUOUS
 10
2.2299999999999991
 20
60.37166666666667
 30
0.0
 11
0.0000000000000015
 21
60.0
 31
0.0
  0
LINE
  5
42D8
  8
250
  6
CONTINUOUS
 10
0.0000000000000015
 20
60.0
 30
0.0
 11
2.2299999999999991
 21
60.0
 31
0.0
  0
LINE
  5
4300
  8
247
  6
CONTINUOUS
 10
6.6999999999999442
 20
-24.25
 30
0.0
 11
6.7000000000000011
 21
-19.61538461567002
 31
0.0
  0
LINE
  5
4301
  8
247
  6
CONTINUOUS
 10
4.2000000000000011
 20
-23.454893499987929
 30
0.0
 11
6.2999999999160092
 21
-24.057058810057359
 31
0.0
  0
LINE
  5
4302
  8
247
  6
CONTINUOUS
 10
5.1961538461139991
 20
-22.825151403519019
 30
0.0
 11
5.1961538461139991
 21
-23.74053601886704
 31
0.0
  0
ARC
  5
4303
  8
247
  6
CONTINUOUS
 10
4.5847190672940972
 20
-22.587263401946782
 30
0.0
 40
0.3876715809326743
 50
72.997889675291987
 51
172.92416621851359
  0
ARC
  5
4304
  8
247
  6
CONTINUOUS
 10
4.5052231310280142
 20
-22.882477556804101
 30
0.0
 40
0.6933047965358772
 50
4.7429368522022122
 51
73.849226273266538
1001
GENIUS_GENOBJ-N-FIL_13
1002
{
1000
OWNER
1000
GEN
1002
}
1001
GENIUS_GENODEF_13
1002
{
1000
HIER
1070
     0
1002
}
1002
{
1000
MANEDIT
1070
     0
1002
}
1002
{
1000
NOSEL
1070
     0
1002
}
1002
{
1000
BEHIND
1070
     0
1002
}
1002
{
1000
OTHER
1070
     0
1002
}
1002
{
1000
REACTOR
1002
}
  0
LINE
  5
4305
  8
247
  6
CONTINUOUS
 10
6.2999999999160092
 20
-23.141674194709331
 30
0.0
 11
6.2999999999160092
 21
-24.057058810057359
 31
0.0
  0
LINE
  5
4306
  8
247
  6
CONTINUOUS
 10
4.2000000000000011
 20
-23.454893499987929
 30
0.0
 11
4.2000000000000011
 21
-22.539508884639961
 31
0.0
  0
ARC
  5
4307
  8
247
  6
CONTINUOUS
 10
5.58741696276787
 20
-22.878306476266829
 30
0.0
 40
0.394857301075386
 50
65.990941652528889
 51
172.26344345906909
  0
ARC
  5
4308
  8
247
  6
CONTINUOUS
 10
5.5912003273325661
 20
-23.212446610426898
 30
0.0
 40
0.7123241612361686
 50
5.7019851642580814
 51
77.277338436822205
1001
GENIUS_GENOBJ-N-FIL_13
1002
{
1000
OWNER
1000
GEN
1002
}
1001
GENIUS_GENODEF_13
1002
{
1000
HIER
1070
     0
1002
}
1002
{
1000
MANEDIT
1070
     0
1002
}
1002
{
1000
NOSEL
1070
     0
1002
}
1002
{
1000
BEHIND
1070
     0
1002
}
1002
{
1000
OTHER
1070
     0
1002
}
1002
{
1000
REACTOR
1002
}
  0
LINE
  5
4309
  8
247
  6
CONTINUOUS
 10
6.2999999999160092
 20
-22.183981887063361
 30
0.0
 11
4.2000000000000011
 21
-21.581816576993958
 31
0.0
  0
LINE
  5
430A
  8
247
  6
CONTINUOUS
 10
4.2000000000000011
 20
-20.085662730907959
 30
0.0
 11
4.2000000000000011
 21
-20.48167836430358
 31
0.0
  0
LINE
  5
430B
  8
247
  6
CONTINUOUS
 10
6.2999999999160092
 20
-21.10873965394396
 30
0.0
 11
6.2999999999160092
 21
-20.677970423191969
 31
0.0
  0
ARC
  5
430C
  8
247
  6
CONTINUOUS
 10
5.6582995950833581
 20
-19.881816577069941
 30
0.0
 40
1.576855057639547
 50
202.35948814152911
 51
254.993248542846
  0
ARC
  5
430D
  8
247
  6
CONTINUOUS
 10
4.765818858538136
 20
-20.347511366133212
 30
0.0
 40
0.6234706797009447
 50
94.994589319075374
 51
155.1663289573039
1001
GENIUS_GENOBJ-N-FIL_13
1002
{
1000
OWNER
1000
GEN
1002
}
1001
GENIUS_GENODEF_13
1002
{
1000
HIER
1070
     0
1002
}
1002
{
1000
MANEDIT
1070
     0
1002
}
1002
{
1000
NOSEL
1070
     0
1002
}
1002
{
1000
BEHIND
1070
     0
1002
}
1002
{
1000
OTHER
1070
     0
1002
}
1002
{
1000
REACTOR
1002
}
  0
ARC
  5
430E
  8
247
  6
CONTINUOUS
 10
5.3621021219694391
 20
-20.944183951032791
 30
0.0
 40
0.9749472149106983
 50
15.8460965557808
 51
82.325137004169065
  0
ARC
  5
430F
  8
247
  6
CONTINUOUS
 10
5.571470401971065
 20
-20.535211638772211
 30
0.0
 40
0.9271945638692009
 50
249.7136016704969
 51
321.78874565640928
1001
GENIUS_GENOBJ-N-FIL_13
1002
{
1000
OWNER
1000
GEN
1002
}
1001
GENIUS_GENODEF_13
1002
{
1000
HIER
1070
     0
1002
}
1002
{
1000
MANEDIT
1070
     0
1002
}
1002
{
1000
NOSEL
1070
     0
1002
}
1002
{
1000
BEHIND
1070
     0
1002
}
1002
{
1000
OTHER
1070
     0
1002
}
1002
{
1000
REACTOR
1002
}
  0
LINE
  5
4310
  8
247
  6
CONTINUOUS
 10
5.4923076922559746
 20
-20.462585807815941
 30
0.0
 11
5.4923076922559746
 21
-19.97797042321994
 31
0.0
  0
ARC
  5
4311
  8
247
  6
CONTINUOUS
 10
5.4500000000000011
 20
-24.25
 30
0.0
 40
1.25
 50
180.0
 51
0.0
  0
LINE
  5
4312
  8
247
  6
CONTINUOUS
 10
4.2000000000000011
 20
-24.25
 30
0.0
 11
4.2000000000000011
 21
-23.803846153914009
 31
0.0
  0
ARC
  5
4313
  8
247
  6
CONTINUOUS
 10
5.4500000000000011
 20
-19.61538461567002
 30
0.0
 40
1.25
 50
0.0
 51
180.0
  0
LINE
  5
4369
  8
243
  6
HIDDEN2
 10
83.000000000000043
 20
14.0
 30
0.0
 11
50.95000000000001
 21
14.0
 31
0.0
1001
GRPNAME
1000
PASTMD01
  0
LINE
  5
436A
  8
243
  6
HIDDEN2
 10
83.000000000000043
 20
-14.0
 30
0.0
 11
50.95000000000001
 21
-14.0
 31
0.0
1001
GRPNAME
1000
PASTMD01
  0
LINE
  5
436B
  8
250
  6
CONTINUOUS
 10
79.541476454990544
 20
26.745403317174048
 30
0.0
 11
78.104603680000025
 21
25.0
 31
0.0
  0
LINE
  5
436C
  8
250
  6
CONTINUOUS
 10
78.897730904826446
 20
27.117069983810229
 30
0.0
 11
78.104603680000025
 21
25.0
 31
0.0
  0
LINE
  5
436D
  8
250
  6
CONTINUOUS
 10
78.104603680000025
 20
25.0
 30
0.0
 11
79.219603679908545
 21
26.931236650492139
 31
0.0
  0
POLYLINE
  5
436E
  8
250
  6
CONTINUOUS
 66
     1
 10
0.0
 20
0.0
 30
0.0
1001
ACAD
1000
DSTYLE
1002
{
1070
     6
1000
OPEN
1070
   343
1005
0
1002
}
  0
VERTEX
  5
436F
  8
250
  6
CONTINUOUS
 10
79.219603679908545
 20
26.931236650492139
 30
0.0
  0
VERTEX
  5
4370
  8
250
  6
CONTINUOUS
 10
90.114115980000037
 20
45.801085479999998
 30
0.0
  0
SEQEND
  5
4371
  8
250
  6
CONTINUOUS
  0
TEXT
  5
4372
  8
250
  6
CONTINUOUS
 10
92.514115980000042
 20
46.801085479999983
 30
0.0
 40
2.799999999999998
  1
CK5
  7
YOKO
1001
ITEMNAME
1000
LNSP3
1001
ACAD
1000
MTEXTBEGIN
1070
    73
1070
     1
1070
    44
1040
1.0
1070
    74
1070
     0
1000
MTEXTEND
1000
MTEXTBEGIN
1070
    73
1070
     1
1070
    44
1040
1.0
1070
    74
1070
     0
1000
MTEXTEND
  0
LINE
  5
4373
  8
250
  6
CONTINUOUS
 10
90.114115980000037
 20
45.801085479999998
 30
0.0
 11
103.18078265
 21
45.801085479999998
 31
0.0
1001
ITEMNAME
1000
LNSP2
  0
POLYLINE
  5
4374
  8
241
  6
CONTINUOUS
 66
     1
 10
0.0
 20
0.0
 30
0.0
 70
     1
  0
VERTEX
  5
4375
  8
241
  6
CONTINUOUS
 10
67.500000000000071
 20
-1.443375669999998
 30
0.0
  0
VERTEX
  5
4376
  8
241
  6
CONTINUOUS
 10
70.000000000000043
 20
-2.8867513499999991
 30
0.0
  0
VERTEX
  5
4377
  8
241
  6
CONTINUOUS
 10
72.500000000000028
 20
-1.443375669999998
 30
0.0
  0
VERTEX
  5
4378
  8
241
  6
CONTINUOUS
 10
72.500000000000028
 20
1.443375669999998
 30
0.0
  0
VERTEX
  5
4379
  8
241
  6
CONTINUOUS
 10
70.000000000000043
 20
2.8867513499999991
 30
0.0
  0
VERTEX
  5
437A
  8
241
  6
CONTINUOUS
 10
67.500000000000071
 20
1.443375669999998
 30
0.0
  0
SEQEND
  5
437B
  8
241
  6
CONTINUOUS
  0
CIRCLE
  5
437C
  8
242
  6
CONTINUOUS
 10
70.000000000000043
 20
0.0
 30
0.0
 40
4.5
  0
CIRCLE
  5
437D
  8
241
  6
CONTINUOUS
 10
70.000000000000043
 20
0.0
 30
0.0
 40
5.1500000000000004
  0
LINE
  5
437E
  8
245
  6
CENTER2
 10
70.000000000000043
 20
6.1982482399999981
 30
0.0
 11
70.000000000000043
 21
-6.1500000000000004
 31
0.0
  0
ARC
  5
4CFC
  8
240
  6
CONTINUOUS
 10
24.100000000000019
 20
30.0
 30
0.0
 40
5.0
 50
180.0
 51
270.0
1001
GENIUS_GENOBJ-N-FIL_13
1002
{
1000
OWNER
1000
GEN
1002
}
1001
GENIUS_GENODEF_13
1002
{
1000
HIER
1070
     0
1002
}
1002
{
1000
MANEDIT
1070
     0
1002
}
1002
{
1000
NOSEL
1070
     0
1002
}
1002
{
1000
BEHIND
1070
     0
1002
}
1002
{
1000
OTHER
1070
     0
1002
}
1002
{
1000
REACTOR
1002
}
  0
ARC
  5
4CFD
  8
240
  6
CONTINUOUS
 10
24.100000000000001
 20
-30.0
 30
0.0
 40
5.0
 50
90.0
 51
180.0
1001
GENIUS_GENOBJ-N-FIL_13
1002
{
1000
OWNER
1000
GEN
1002
}
1001
GENIUS_GENODEF_13
1002
{
1000
HIER
1070
     0
1002
}
1002
{
1000
MANEDIT
1070
     0
1002
}
1002
{
1000
NOSEL
1070
     0
1002
}
1002
{
1000
BEHIND
1070
     0
1002
}
1002
{
1000
OTHER
1070
     0
1002
}
1002
{
1000
REACTOR
1002
}
  0
VIEWPORT
  5
22
 67
     1
  8
0
 10
261.51769911504419
 20
148.5
 30
0.0
 40
523.0353982300885
 41
297.0
 68
     1
 69
     1
1001
ACAD
1000
MVIEW
1002
{
1070
    16
1010
0.0
1020
0.0
1030
0.0
1010
0.0
1020
0.0
1030
1.0
1040
0.0
1040
297.0
1040
261.51769911504419
1040
148.5
1040
50.0
1040
0.0
1040
0.0
1070
     0
1070
   100
1070
     1
1070
     1
1070
     0
1070
     0
1070
     0
1070
     0
1040
0.0
1040
0.0
1040
0.0
1040
1.0
1040
1.0
1040
10.0
1040
10.0
1070
     0
1002
{
1002
}
1002
}
1001
GENIUS_GENODEF_13
1002
{
1000
HIER
1070
     0
1002
}
1002
{
1000
MANEDIT
1070
     0
1002
}
1002
{
1000
NOSEL
1070
     0
1002
}
1002
{
1000
BEHIND
1070
     0
1002
}
1002
{
1000
OTHER
1070
     0
1002
}
1002
{
1000
REACTOR
1002
}
1001
GENIUS_GENOBJ-N-SDF_13
1002
{
1000
OWNER
1000
GEN
1002
}
1001
GENIUS_GENSCREG_15
1000
PF
1040
1.0
1000
DF
1040
1.0
1000
MIN
1011
0.0
1021
0.0
1031
0.0
1021
0.0
1031
0.0
1000
MAX
1011
523.0353982300885
1021
0.0
1031
0.0
1021
297.0
1031
0.0
1000
FLAGS
1070
     4
  0
ENDSEC
  0
EOF
