  0
SECTION
  2
HEADER
  9
$ACADVER
  1
AC1015
  9
$ACADMAINTVER
 70
     6
  9
$DWGCODEPAGE
  3
ANSI_1252
  9
$INSBASE
 10
0.0
 20
0.0
 30
0.0
  9
$EXTMIN
 10
0.0
 20
0.0
 30
0.0
  9
$EXTMAX
 10
210.0
 20
297.0
 30
0.0
  9
$LIMMIN
 10
0.0
 20
0.0
  9
$LIMMAX
 10
0.0
 20
0.0
  9
$ORTHOMODE
 70
     0
  9
$REGENMODE
 70
     1
  9
$FILLMODE
 70
     1
  9
$QTEXTMODE
 70
     0
  9
$MIRRTEXT
 70
     1
  9
$LTSCALE
 40
1.0
  9
$ATTMODE
 70
     1
  9
$TEXTSIZE
 40
0.0
  9
$TRACEWID
 40
0.05
  9
$TEXTSTYLE
  7
STANDARD
  9
$CLAYER
  8
0
  9
$CELTYPE
  6
CONTINUOUS
  9
$CECOLOR
 62
   256
  9
$CELTSCALE
 40
1.0
  9
$DISPSILH
 70
     0
  9
$DIMSCALE
 40
1.0
  9
$DIMASZ
 40
0.0
  9
$DIMEXO
 40
0.0
  9
$DIMDLI
 40
0.38
  9
$DIMRND
 40
0.0
  9
$DIMDLE
 40
0.0
  9
$DIMEXE
 40
0.18
  9
$DIMTP
 40
0.0
  9
$DIMTM
 40
0.0
  9
$DIMTXT
 40
3.5
  9
$DIMCEN
 40
0.09
  9
$DIMTSZ
 40
0.0
  9
$DIMTOL
 70
     0
  9
$DIMLIM
 70
     0
  9
$DIMTIH
 70
     1
  9
$DIMTOH
 70
     1
  9
$DIMSE1
 70
     0
  9
$DIMSE2
 70
     0
  9
$DIMTAD
 70
     1
  9
$DIMZIN
 70
     0
  9
$DIMBLK
  1

  9
$DIMASO
 70
     1
  9
$DIMSHO
 70
     1
  9
$DIMPOST
  1

  9
$DIMAPOST
  1

  9
$DIMALT
 70
     0
  9
$DIMALTD
 70
     2
  9
$DIMALTF
 40
0.0394
  9
$DIMLFAC
 40
1.0
  9
$DIMTOFL
 70
     0
  9
$DIMTVP
 40
0.0
  9
$DIMTIX
 70
     0
  9
$DIMSOXD
 70
     0
  9
$DIMSAH
 70
     0
  9
$DIMBLK1
  1

  9
$DIMBLK2
  1

  9
$DIMSTYLE
  2
STANDARD
  9
$DIMCLRD
 70
     0
  9
$DIMCLRE
 70
     0
  9
$DIMCLRT
 70
     0
  9
$DIMTFAC
 40
1.0
  9
$DIMGAP
 40
0.0
  9
$DIMJUST
 70
     0
  9
$DIMSD1
 70
     0
  9
$DIMSD2
 70
     0
  9
$DIMTOLJ
 70
     1
  9
$DIMTZIN
 70
     0
  9
$DIMALTZ
 70
     0
  9
$DIMALTTZ
 70
     0
  9
$DIMUPT
 70
     0
  9
$DIMDEC
 70
     4
  9
$DIMTDEC
 70
     4
  9
$DIMALTU
 70
     2
  9
$DIMALTTD
 70
     2
  9
$DIMTXSTY
  7
STANDARD
  9
$DIMAUNIT
 70
     0
  9
$DIMADEC
 70
     0
  9
$DIMALTRND
 40
0.0
  9
$DIMAZIN
 70
     0
  9
$DIMDSEP
 70
    46
  9
$DIMATFIT
 70
     3
  9
$DIMFRAC
 70
     0
  9
$DIMLDRBLK
  1

  9
$DIMLUNIT
 70
     2
  9
$DIMLWD
 70
    -2
  9
$DIMLWE
 70
    -2
  9
$DIMTMOVE
 70
     2
  9
$LUNITS
 70
     2
  9
$LUPREC
 70
     2
  9
$SKETCHINC
 40
0.1
  9
$FILLETRAD
 40
0.0
  9
$AUNITS
 70
     0
  9
$AUPREC
 70
     2
  9
$MENU
  1
acad
  9
$ELEVATION
 40
0.0
  9
$PELEVATION
 40
0.0
  9
$THICKNESS
 40
0.0
  9
$LIMCHECK
 70
     0
  9
$CHAMFERA
 40
0.0
  9
$CHAMFERB
 40
0.0
  9
$CHAMFERC
 40
0.0
  9
$CHAMFERD
 40
0.0
  9
$SKPOLY
 70
     0
  9
$TDCREATE
 40
2447893.0
  9
$TDUCREATE
 40
2447892.916666667
  9
$TDUPDATE
 40
2458327.548780463
  9
$TDUUPDATE
 40
2458327.46544713
  9
$TDINDWG
 40
0.0
  9
$TDUSRTIMER
 40
0.0
  9
$USRTIMER
 70
     1
  9
$ANGBASE
 50
0.0
  9
$ANGDIR
 70
     0
  9
$PDMODE
 70
     0
  9
$PDSIZE
 40
-1.0
  9
$PLINEWID
 40
0.0
  9
$SPLFRAME
 70
     0
  9
$SPLINETYPE
 70
     6
  9
$SPLINESEGS
 70
     8
  9
$HANDSEED
  5
4BB
  9
$SURFTAB1
 70
     6
  9
$SURFTAB2
 70
     6
  9
$SURFTYPE
 70
     6
  9
$SURFU
 70
     6
  9
$SURFV
 70
     6
  9
$UCSBASE
  2

  9
$UCSNAME
  2

  9
$UCSORG
 10
0.0
 20
0.0
 30
0.0
  9
$UCSXDIR
 10
1.0
 20
0.0
 30
0.0
  9
$UCSYDIR
 10
0.0
 20
1.0
 30
0.0
  9
$UCSORTHOREF
  2

  9
$UCSORTHOVIEW
 70
     0
  9
$UCSORGTOP
 10
0.0
 20
0.0
 30
0.0
  9
$UCSORGBOTTOM
 10
0.0
 20
0.0
 30
0.0
  9
$UCSORGLEFT
 10
0.0
 20
0.0
 30
0.0
  9
$UCSORGRIGHT
 10
0.0
 20
0.0
 30
0.0
  9
$UCSORGFRONT
 10
0.0
 20
0.0
 30
0.0
  9
$UCSORGBACK
 10
0.0
 20
0.0
 30
0.0
  9
$PUCSBASE
  2

  9
$PUCSNAME
  2

  9
$PUCSORG
 10
0.0
 20
0.0
 30
0.0
  9
$PUCSXDIR
 10
1.0
 20
0.0
 30
0.0
  9
$PUCSYDIR
 10
0.0
 20
1.0
 30
0.0
  9
$PUCSORTHOREF
  2

  9
$PUCSORTHOVIEW
 70
     0
  9
$PUCSORGTOP
 10
0.0
 20
0.0
 30
0.0
  9
$PUCSORGBOTTOM
 10
0.0
 20
0.0
 30
0.0
  9
$PUCSORGLEFT
 10
0.0
 20
0.0
 30
0.0
  9
$PUCSORGRIGHT
 10
0.0
 20
0.0
 30
0.0
  9
$PUCSORGFRONT
 10
0.0
 20
0.0
 30
0.0
  9
$PUCSORGBACK
 10
0.0
 20
0.0
 30
0.0
  9
$USERI1
 70
     0
  9
$USERI2
 70
     0
  9
$USERI3
 70
     0
  9
$USERI4
 70
     0
  9
$USERI5
 70
     0
  9
$USERR1
 40
0.0
  9
$USERR2
 40
0.0
  9
$USERR3
 40
0.0
  9
$USERR4
 40
0.0
  9
$USERR5
 40
0.0
  9
$WORLDVIEW
 70
     1
  9
$SHADEDGE
 70
     3
  9
$SHADEDIF
 70
    70
  9
$TILEMODE
 70
     1
  9
$MAXACTVP
 70
    16
  9
$PINSBASE
 10
0.0
 20
0.0
 30
0.0
  9
$PLIMCHECK
 70
     0
  9
$PEXTMIN
 10
1.000000000000000E+20
 20
1.000000000000000E+20
 30
1.000000000000000E+20
  9
$PEXTMAX
 10
-1.000000000000000E+20
 20
-1.000000000000000E+20
 30
-1.000000000000000E+20
  9
$PLIMMIN
 10
0.0
 20
0.0
  9
$PLIMMAX
 10
12.0
 20
9.0
  9
$UNITMODE
 70
     0
  9
$VISRETAIN
 70
     0
  9
$PLINEGEN
 70
     1
  9
$PSLTSCALE
 70
     1
  9
$TREEDEPTH
 70
  3020
  9
$CMLSTYLE
  2
STANDARD
  9
$CMLJUST
 70
     0
  9
$CMLSCALE
 40
1.0
  9
$PROXYGRAPHICS
 70
     1
  9
$MEASUREMENT
 70
     0
  9
$CELWEIGHT
370
    -1
  9
$ENDCAPS
280
     0
  9
$JOINSTYLE
280
     0
  9
$LWDISPLAY
290
     0
  9
$INSUNITS
 70
     0
  9
$HYPERLINKBASE
  1

  9
$STYLESHEET
  1

  9
$XEDIT
290
     1
  9
$CEPSNTYPE
380
     0
  9
$PSTYLEMODE
290
     1
  9
$FINGERPRINTGUID
  2
{89602C13-44AB-48E9-949A-E2B7B27C244A}
  9
$VERSIONGUID
  2
{FAEB1C32-E019-11D5-929B-00C0DF256EC4}
  9
$EXTNAMES
290
     1
  9
$PSVPSCALE
 40
0.0
  9
$OLESTARTUP
290
     0
  0
ENDSEC
  0
SECTION
  2
CLASSES
  0
CLASS
  1
LWPOLYLINE
  2
AcDbPolyline
  3
ObjectDBX Classes
 90
        0
280
     0
281
     1
  0
CLASS
  1
IMAGE
  2
AcDbRasterImage
  3
ISM
 90
      127
280
     0
281
     1
  0
CLASS
  1
OLE2FRAME
  2
AcDbOle2Frame
  3
ObjectDBX Classes
 90
        0
280
     0
281
     1
  0
CLASS
  1
HATCH
  2
AcDbHatch
  3
ObjectDBX Classes
 90
        0
280
     0
281
     1
  0
CLASS
  1
DICTIONARYVAR
  2
AcDbDictionaryVar
  3
ObjectDBX Classes
 90
        0
280
     0
281
     0
  0
CLASS
  1
RASTERVARIABLES
  2
AcDbRasterVariables
  3
ISM
 90
        0
280
     0
281
     0
  0
CLASS
  1
IMAGEDEF
  2
AcDbRasterImageDef
  3
ISM
 90
        0
280
     0
281
     0
  0
CLASS
  1
IMAGEDEF_REACTOR
  2
AcDbRasterImageDefReactor
  3
ISM
 90
        1
280
     0
281
     0
  0
CLASS
  1
IDBUFFER
  2
AcDbIdBuffer
  3
ObjectDBX Classes
 90
        0
280
     0
281
     0
  0
CLASS
  1
SPATIAL_FILTER
  2
AcDbSpatialFilter
  3
ObjectDBX Classes
 90
        0
280
     0
281
     0
  0
CLASS
  1
XRECORD
  2
AcDbXrecord
  3
ObjectDBX Classes
 90
        0
280
     0
281
     0
  0
CLASS
  1
SORTENTSTABLE
  2
AcDbSortentsTable
  3
ObjectDBX Classes
 90
        0
280
     0
281
     0
  0
CLASS
  1
LAYER_INDEX
  2
AcDbLayerIndex
  3
ObjectDBX Classes
 90
        0
280
     0
281
     0
  0
CLASS
  1
SPATIAL_INDEX
  2
AcDbSpatialIndex
  3
AutoCAD 2000
 90
        0
280
     0
281
     0
  0
CLASS
  1
OBJECT_PTR
  2
CAseDLPNTableRecord
  3
ASE-LPNTableRecord
 90
        1
280
     0
281
     0
  0
CLASS
  1
LAYOUT
  2
AcDbLayout
  3
ObjectDBX Classes
 90
        0
280
     0
281
     0
  0
CLASS
  1
PLOTSETTINGS
  2
AcDbPlotSettings
  3
ObjectDBX Classes
 90
        0
280
     0
281
     0
  0
CLASS
  1
ACDBDICTIONARYWDFLT
  2
AcDbDictionaryWithDefault
  3
ObjectDBX Classes
 90
        0
280
     0
281
     0
  0
CLASS
  1
ACDBPLACEHOLDER
  2
AcDbPlaceHolder
  3
ObjectDBX Classes
 90
        0
280
     0
281
     0
  0
CLASS
  1
VBA_PROJECT
  2
AcDbVbaProject
  3
ObjectDBX Classes
 90
        0
280
     0
281
     0
  0
CLASS
  1
WIPEOUT
  2
AcDbWipeout
  3
WipeOut|AutoCAD Express Tool|expresstools@autodesk.com
 90
      127
280
     0
281
     1
  0
CLASS
  1
WIPEOUTVARIABLES
  2
AcDbWipeoutVariables
  3
WipeOut|AutoCAD Express Tool|expresstools@autodesk.com
 90
        0
280
     0
281
     0
  0
CLASS
  1
RTEXT
  2
RText
  3
RText|AutoCAD Express Tool|expresstools@autodesk.com
 90
        0
280
     0
281
     1
  0
CLASS
  1
ARCALIGNEDTEXT
  2
AcDbArcAlignedText
  3
ATEXT|AutoCAD Express Tool|expresstools@autodesk.com
 90
        0
280
     0
281
     1
  0
CLASS
  1
SCALE
  2
AcDbScale
  3
ObjectDBX Classes
 90
     1153
280
     0
281
     0
  0
CLASS
  1
VISUALSTYLE
  2
AcDbVisualStyle
  3
ObjectDBX Classes
 90
     4095
280
     0
281
     0
  0
CLASS
  1
MATERIAL
  2
AcDbMaterial
  3
ObjectDBX Classes
 90
     1153
280
     0
281
     0
  0
ENDSEC
  0
SECTION
  2
TABLES
  0
TABLE
  2
VPORT
  5
7
102
{ACAD_XDICTIONARY
360
480
102
}
330
0
100
AcDbSymbolTable
 70
     1
  0
VPORT
  5
15
330
7
100
AcDbSymbolTableRecord
100
AcDbViewportTableRecord
  2
*ACTIVE
 70
     0
 10
0.0
 20
0.0
 11
1.0
 21
1.0
 12
105.0
 22
148.5
 13
0.0
 23
0.0
 14
1.0
 24
1.0
 15
0.0
 25
0.0
 16
0.0
 26
0.0
 36
1.0
 17
0.0
 27
0.0
 37
0.0
 40
297.0
 41
1.4142857143
 42
50.0
 43
0.0
 44
0.0
 50
0.0
 51
0.0
 71
     0
 72
  2000
 73
     1
 74
     1
 75
     0
 76
     0
 77
     0
 78
     0
281
     0
 65
     1
110
0.0
120
0.0
130
0.0
111
1.0
121
0.0
131
0.0
112
0.0
122
1.0
132
0.0
 79
     0
146
0.0
  0
ENDTAB
  0
TABLE
  2
LTYPE
  5
4
330
0
100
AcDbSymbolTable
 70
     6
  0
LTYPE
  5
11
330
4
100
AcDbSymbolTableRecord
100
AcDbLinetypeTableRecord
  2
BYBLOCK
 70
     0
  3

 72
    65
 73
     0
 40
0.0
  0
LTYPE
  5
12
330
4
100
AcDbSymbolTableRecord
100
AcDbLinetypeTableRecord
  2
BYLAYER
 70
     0
  3

 72
    65
 73
     0
 40
0.0
  0
LTYPE
  5
13
330
4
100
AcDbSymbolTableRecord
100
AcDbLinetypeTableRecord
  2
CONTINUOUS
 70
     0
  3
Solid line
 72
    65
 73
     0
 40
0.0
  0
LTYPE
  5
1D
330
4
100
AcDbSymbolTableRecord
100
AcDbLinetypeTableRecord
  2
HIDDEN
 70
     0
  3
Hidden __ __ __ __ __ __ __ __ __ __ __ __ __ __
 72
    65
 73
     2
 40
1.905
 49
1.27
 74
     0
 49
-0.635
 74
     0
  0
LTYPE
  5
1E
330
4
100
AcDbSymbolTableRecord
100
AcDbLinetypeTableRecord
  2
PHANTOM
 70
     0
  3
Phantom ______  __  __  ______  __  __  ______
 72
    65
 73
     6
 40
12.7
 49
6.35
 74
     0
 49
-1.27
 74
     0
 49
1.27
 74
     0
 49
-1.27
 74
     0
 49
1.27
 74
     0
 49
-1.27
 74
     0
  0
LTYPE
  5
1F
330
4
100
AcDbSymbolTableRecord
100
AcDbLinetypeTableRecord
  2
CENTER
 70
     0
  3
Center ____ _ ____ _ ____ _ ____ _ ____ _ ____
 72
    65
 73
     4
 40
10.16
 49
6.35
 74
     0
 49
-1.27
 74
     0
 49
1.27
 74
     0
 49
-1.27
 74
     0
  0
LTYPE
  5
20
330
4
100
AcDbSymbolTableRecord
100
AcDbLinetypeTableRecord
  2
CENTERX2
 70
     0
  3
Center (2x) ________  __  ________  __  _____
 72
    65
 73
     4
 40
20.32
 49
12.7
 74
     0
 49
-2.54
 74
     0
 49
2.54
 74
     0
 49
-2.54
 74
     0
  0
LTYPE
  5
21
330
4
100
AcDbSymbolTableRecord
100
AcDbLinetypeTableRecord
  2
DOT2
 70
     0
  3
Dot (.5x) ........................................
 72
    65
 73
     2
 40
0.635
 49
0.0
 74
     0
 49
-0.635
 74
     0
  0
LTYPE
  5
4AA
330
5
100
AcDbSymbolTableRecord
100
AcDbLinetypeTableRecord
  2
DASH
 70
     0
  3
DASH _ _ _ _ _
 72
    65
 73
     2
 40
0.75
 49
0.40
 74
     0
 49
-0.35
 74
     0
  0
LTYPE
  5
4AB
330
5
100
AcDbSymbolTableRecord
100
AcDbLinetypeTableRecord
  2
LONGDASH_DASH
 70
     0
  3
LONGDASH_DASH __ . __ . __
 72
    65
 73
     4
 40
0.85
 49
0.40
 74
     0
 49
-0.20
 74
     0
 49
0.05
 74
     0
 49
-0.20
 74
     0
  0
LTYPE
  5
4AC
330
5
100
AcDbSymbolTableRecord
100
AcDbLinetypeTableRecord
  2
LONGDASH_DASH_DASH
 70
     0
  3
LONGDASH_DASH_DASH __ . . __ . . __
 72
    65
 73
     6
 40
1.10
 49
0.40
 74
     0
 49
-0.20
 74
     0
 49
0.05
 74
     0
 49
-0.20
 74
     0
 49
0.05
 74
     0
 49
-0.20
 74
     0
  0
ENDTAB
  0
TABLE
  2
LAYER
  5
2
330
0
100
AcDbSymbolTable
 70
     8
  0
LAYER
  5
23
330
2
100
AcDbSymbolTableRecord
100
AcDbLayerTableRecord
  2
DEFPOINTS
 70
     0
 62
     7
  6
CONTINUOUS
290
     0
370
    -3
390
0
  0
LAYER
  5
4AD
330
2
100
AcDbSymbolTableRecord
100
AcDbLayerTableRecord
  2
0
 70
     0
 62
     -1
  6
CONTINUOUS
370
    -3
390
F
  0
LAYER
  5
4AE
330
2
100
AcDbSymbolTableRecord
100
AcDbLayerTableRecord
  2
1
 70
     0
 62
     4
  6
CONTINUOUS
370
    50
390
F
  0
LAYER
  5
4AF
330
2
100
AcDbSymbolTableRecord
100
AcDbLayerTableRecord
  2
2
 70
     0
 62
     7
  6
CONTINUOUS
370
    25
390
F
  0
LAYER
  5
4B0
330
2
100
AcDbSymbolTableRecord
100
AcDbLayerTableRecord
  2
3
 70
     0
 62
     1
  6
DASH
370
    35
390
F
  0
LAYER
  5
4B1
330
2
100
AcDbSymbolTableRecord
100
AcDbLayerTableRecord
  2
4
 70
     0
 62
     2
  6
LONGDASH_DASH
370
    25
390
F
  0
LAYER
  5
4B2
330
2
100
AcDbSymbolTableRecord
100
AcDbLayerTableRecord
  2
6
 70
     0
 62
     5
  6
CONTINUOUS
370
    -3
390
F
  0
LAYER
  5
4B3
330
2
100
AcDbSymbolTableRecord
100
AcDbLayerTableRecord
  2
CUT
 70
     0
 62
     1
  6
CONTINUOUS
370
    25
390
F
  0
LAYER
  5
4B4
330
2
100
AcDbSymbolTableRecord
100
AcDbLayerTableRecord
  2
NOCUT
 70
     0
 62
     7
  6
CONTINUOUS
370
    25
390
F
  0
LAYER
  5
4B5
330
2
100
AcDbSymbolTableRecord
100
AcDbLayerTableRecord
  2
SK1
 70
     0
 62
     4
  6
CONTINUOUS
370
    50
390
F
  0
LAYER
  5
4B6
330
2
100
AcDbSymbolTableRecord
100
AcDbLayerTableRecord
  2
SK2
 70
     0
 62
     7
  6
CONTINUOUS
370
    25
390
F
  0
LAYER
  5
4B7
330
2
100
AcDbSymbolTableRecord
100
AcDbLayerTableRecord
  2
SK3
 70
     0
 62
     1
  6
DASH
370
    35
390
F
  0
LAYER
  5
4B8
330
2
100
AcDbSymbolTableRecord
100
AcDbLayerTableRecord
  2
SK4
 70
     0
 62
     2
  6
LONGDASH_DASH
370
    25
390
F
  0
LAYER
  5
4B9
330
2
100
AcDbSymbolTableRecord
100
AcDbLayerTableRecord
  2
SK6
 70
     0
 62
     5
  6
CONTINUOUS
370
    -3
390
F
  0
LAYER
  5
4BA
330
2
100
AcDbSymbolTableRecord
100
AcDbLayerTableRecord
  2
INFTOTAL
 70
     0
 62
     9
  6
CONTINUOUS
370
    18
390
F
  0
ENDTAB
  0
TABLE
  2
STYLE
  5
3
330
0
100
AcDbSymbolTable
 70
     2
  0
STYLE
  5
17
330
3
100
AcDbSymbolTableRecord
100
AcDbTextStyleTableRecord
  2
STANDARD
 70
     0
 40
0.0
 41
1.0
 50
0.0
 71
     0
 42
0.2
  3
txt
  4

  0
STYLE
  5
478
330
3
100
AcDbSymbolTableRecord
100
AcDbTextStyleTableRecord
  2
BMG_Text
 70
     0
 40
3.5
 41
1.0
 50
0.0
 71
     0
 42
0.0
  3
monos.ttf
  4

1001
ACAD
1000
Monospac821 BT
1071
       49
  0
ENDTAB
  0
TABLE
  2
VIEW
  5
5
330
0
100
AcDbSymbolTable
 70
     0
  0
ENDTAB
  0
TABLE
  2
UCS
  5
6
330
0
100
AcDbSymbolTable
 70
     0
  0
ENDTAB
  0
TABLE
  2
APPID
  5
8
330
0
100
AcDbSymbolTable
 70
     1
  0
APPID
  5
16
330
8
100
AcDbSymbolTableRecord
100
AcDbRegAppTableRecord
  2
ACAD
 70
     0
  0
ENDTAB
  0
TABLE
  2
DIMSTYLE
  5
9
330
0
100
AcDbSymbolTable
 70
     1
100
AcDbDimStyleTable
  0
DIMSTYLE
105
18
330
9
100
AcDbSymbolTableRecord
100
AcDbDimStyleTableRecord
  2
STANDARD
 70
     0
178
     0
340
17
  0
ENDTAB
  0
TABLE
  2
BLOCK_RECORD
  5
1
330
0
100
AcDbSymbolTable
 70
     0
  0
BLOCK_RECORD
  5
A
330
1
100
AcDbSymbolTableRecord
100
AcDbBlockTableRecord
  2
*MODEL_SPACE
340
461
  0
BLOCK_RECORD
  5
B
330
1
100
AcDbSymbolTableRecord
100
AcDbBlockTableRecord
  2
*PAPER_SPACE
340
462
  0
ENDTAB
  0
ENDSEC
  0
SECTION
  2
BLOCKS
  0
BLOCK
  5
D
330
A
100
AcDbEntity
  8
0
100
AcDbBlockBegin
  2
*MODEL_SPACE
 70
     0
 10
0.0
 20
0.0
 30
0.0
  3
*MODEL_SPACE
  1

  0
ENDBLK
  5
E
330
A
100
AcDbEntity
  8
0
100
AcDbBlockEnd
  0
BLOCK
  5
F
330
B
100
AcDbEntity
 67
     1
  8
0
100
AcDbBlockBegin
  2
*PAPER_SPACE
 70
     0
 10
0.0
 20
0.0
 30
0.0
  3
*PAPER_SPACE
  1

  0
ENDBLK
  5
10
330
B
100
AcDbEntity
 67
     1
  8
0
100
AcDbBlockEnd
  0
ENDSEC
  0
SECTION
  2
ENTITIES
  0
ARC
  5
29
330
A
100
AcDbEntity
  8
1
  6
CONTINUOUS
370
    50
100
AcDbCircle
 10
124.7096260626
 20
137.838952577
 30
0.0
 40
5.0
100
AcDbArc
 50
79.5919151083
 51
140.9629620286
  0
ARC
  5
2A
330
A
100
AcDbEntity
  8
1
  6
CONTINUOUS
370
    50
100
AcDbCircle
 10
124.7096260626
 20
189.338952577
 30
0.0
 40
5.0
100
AcDbArc
 50
190.9457348333
 51
280.4080848917
  0
ARC
  5
2B
330
A
100
AcDbEntity
  8
1
  6
CONTINUOUS
370
    50
100
AcDbCircle
 10
101.4596260626
 20
141.163952577
 30
0.0
 40
0.5
100
AcDbArc
 50
66.4218215218
 51
90.0
  0
ARC
  5
2C
330
A
100
AcDbEntity
  8
1
  6
CONTINUOUS
370
    50
100
AcDbCircle
 10
101.4596260626
 20
186.013952577
 30
0.0
 40
0.5
100
AcDbArc
 50
270.0
 51
293.5781784782001
  0
LINE
  5
2D
330
A
100
AcDbEntity
  8
1
  6
CONTINUOUS
370
    50
100
AcDbLine
 10
100.6596260626
 20
141.363952577
 30
0.0
 11
101.2025163392
 21
141.6171064705
 31
0.0
  0
LINE
  5
2E
330
A
100
AcDbEntity
  8
1
  6
CONTINUOUS
370
    50
100
AcDbLine
 10
101.2025163392
 20
185.5607986834
 30
0.0
 11
100.6596260626
 21
185.813952577
 31
0.0
  0
LINE
  5
2F
330
A
100
AcDbEntity
  8
1
  6
CONTINUOUS
370
    50
100
AcDbLine
 10
100.6596260626
 20
185.813952577
 30
0.0
 11
33.1921474211
 21
175.9749452749
 31
0.0
  0
LINE
  5
30
330
A
100
AcDbEntity
  8
1
  6
CONTINUOUS
370
    50
100
AcDbLine
 10
33.1921474211
 20
151.202959879
 30
0.0
 11
100.6596260626
 21
141.363952577
 31
0.0
  0
ARC
  5
31
330
A
100
AcDbEntity
  8
1
  6
CONTINUOUS
370
    50
100
AcDbCircle
 10
101.41382547
 20
141.163952577
 30
0.0
 40
0.5
100
AcDbArc
 50
90.0
 51
115.0
  0
ARC
  5
32
330
A
100
AcDbEntity
  8
1
  6
CONTINUOUS
370
    50
100
AcDbCircle
 10
101.41382547
 20
186.013952577
 30
0.0
 40
0.5
100
AcDbArc
 50
245.0
 51
270.0
  0
LINE
  5
33
330
A
100
AcDbEntity
  8
1
  6
CONTINUOUS
370
    50
100
AcDbLine
 10
125.6129157287
 20
142.7566825186
 30
0.0
 11
179.6264979586
 21
147.0076436318
 31
0.0
  0
LINE
  5
34
330
A
100
AcDbEntity
  8
1
  6
CONTINUOUS
370
    50
100
AcDbLine
 10
179.6264979586
 20
180.1702615221
 30
0.0
 11
125.6129157287
 21
184.4212226353
 31
0.0
  0
ARC
  5
35
330
A
100
AcDbEntity
  8
1
  6
CONTINUOUS
370
    50
100
AcDbCircle
 10
178.6596260626
 20
148.7584031061
 30
0.0
 40
2.0
100
AcDbArc
 50
298.9100507074999
 51
0.0
  0
ARC
  5
36
330
A
100
AcDbEntity
  8
1
  6
CONTINUOUS
370
    50
100
AcDbCircle
 10
178.6596260626
 20
178.4195020478
 30
0.0
 40
2.0
100
AcDbArc
 50
0.0
 51
61.08994929250002
  0
ARC
  5
37
330
A
100
AcDbEntity
  8
1
  6
CONTINUOUS
370
    50
100
AcDbCircle
 10
33.3596260626
 20
152.13858476
 30
0.0
 40
0.95
100
AcDbArc
 50
180.0
 51
258.0
  0
ARC
  5
38
330
A
100
AcDbEntity
  8
1
  6
CONTINUOUS
370
    50
100
AcDbCircle
 10
33.3596260626
 20
175.0393203939
 30
0.0
 40
0.95
100
AcDbArc
 50
102.0
 51
180.0
  0
LINE
  5
39
330
A
100
AcDbEntity
  8
1
  6
CONTINUOUS
370
    50
100
AcDbLine
 10
115.2814627046
 20
133.1118710245
 30
0.0
 11
114.6759638793
 21
133.961871027
 31
0.0
  0
LWPOLYLINE
  5
3A
330
A
100
AcDbEntity
  8
1
  6
CONTINUOUS
370
    50
100
AcDbPolyline
 90
        3
 70
   128
 43
0.0
 10
113.6846260626
 20
135.745080318
 10
114.2637914543
 20
134.7023092694
 10
114.6759638793
 20
133.961871027
  0
LINE
  5
3F
330
A
100
AcDbEntity
  8
1
  6
CONTINUOUS
370
    50
100
AcDbLine
 10
113.6846260626
 20
181.938952577
 30
0.0
 11
113.6846260626
 21
135.745080318
 31
0.0
  0
LINE
  5
40
330
A
100
AcDbEntity
  8
1
  6
CONTINUOUS
370
    50
100
AcDbLine
 10
115.2814627046
 20
181.938952577
 30
0.0
 11
113.6846260626
 21
181.938952577
 31
0.0
  0
LINE
  5
41
330
A
100
AcDbEntity
  8
1
  6
CONTINUOUS
370
    50
100
AcDbLine
 10
115.2814627046
 20
133.1118710245
 30
0.0
 11
115.2814627046
 21
181.938952577
 31
0.0
  0
LINE
  5
42
330
A
100
AcDbEntity
  8
1
  6
CONTINUOUS
370
    50
100
AcDbLine
 10
108.2377894205
 20
133.1118710245
 30
0.0
 11
108.2377894205
 21
181.938952577
 31
0.0
  0
LINE
  5
43
330
A
100
AcDbEntity
  8
1
  6
CONTINUOUS
370
    50
100
AcDbLine
 10
108.2377894205
 20
133.1118710245
 30
0.0
 11
103.5096260601
 21
133.1118710245
 31
0.0
  0
LWPOLYLINE
  5
44
330
A
100
AcDbEntity
  8
1
  6
CONTINUOUS
370
    50
100
AcDbPolyline
 90
        3
 70
   128
 43
0.0
 10
102.1596260626
 20
133.5389941743
 10
102.8322447101
 20
133.3179059081
 10
103.5096260601
 20
133.1118710245
  0
LINE
  5
49
330
A
100
AcDbEntity
  8
1
  6
CONTINUOUS
370
    50
100
AcDbLine
 10
102.1596260626
 20
181.938952577
 30
0.0
 11
102.1596260626
 21
133.5389941743
 31
0.0
  0
LINE
  5
4A
330
A
100
AcDbEntity
  8
1
  6
CONTINUOUS
370
    50
100
AcDbLine
 10
108.2377894205
 20
181.938952577
 30
0.0
 11
102.1596260626
 21
181.938952577
 31
0.0
  0
LINE
  5
4B
330
A
100
AcDbEntity
  8
1
  6
CONTINUOUS
370
    50
100
AcDbLine
 10
108.8432882458
 20
133.961871027
 30
0.0
 11
108.2377894205
 21
133.1118710245
 31
0.0
  0
LINE
  5
4C
330
A
100
AcDbEntity
  8
1
  6
CONTINUOUS
370
    50
100
AcDbLine
 10
109.8346260626
 20
181.938952577
 30
0.0
 11
108.2377894205
 21
181.938952577
 31
0.0
  0
LINE
  5
4D
330
A
100
AcDbEntity
  8
1
  6
CONTINUOUS
370
    50
100
AcDbLine
 10
109.8346260626
 20
135.745080318
 30
0.0
 11
109.8346260626
 21
181.938952577
 31
0.0
  0
LWPOLYLINE
  5
4E
330
A
100
AcDbEntity
  8
1
  6
CONTINUOUS
370
    50
100
AcDbPolyline
 90
        3
 70
   128
 43
0.0
 10
108.8432882458
 20
133.961871027
 10
109.2554606708
 20
134.7023092694
 10
109.8346260626
 20
135.745080318
  0
LINE
  5
53
330
A
100
AcDbEntity
  8
1
  6
CONTINUOUS
370
    50
100
AcDbLine
 10
119.7096260626
 20
181.938952577
 30
0.0
 11
119.7096260626
 21
133.5159974228
 31
0.0
  0
LINE
  5
54
330
A
100
AcDbEntity
  8
1
  6
CONTINUOUS
370
    50
100
AcDbLine
 10
119.7096260626
 20
133.5159974228
 30
0.0
 11
119.2096260626
 21
133.1118710245
 31
0.0
  0
LINE
  5
55
330
A
100
AcDbEntity
  8
1
  6
CONTINUOUS
370
    50
100
AcDbLine
 10
119.2096260626
 20
133.1118710245
 30
0.0
 11
119.2096260626
 21
181.938952577
 31
0.0
  0
LINE
  5
56
330
A
100
AcDbEntity
  8
1
  6
CONTINUOUS
370
    50
100
AcDbLine
 10
119.2096260626
 20
181.938952577
 30
0.0
 11
119.7096260626
 21
181.938952577
 31
0.0
  0
LINE
  5
57
330
A
100
AcDbEntity
  8
1
  6
CONTINUOUS
370
    50
100
AcDbLine
 10
102.1596260626
 20
133.5389941743
 30
0.0
 11
101.6596260626
 21
134.2461510747
 31
0.0
  0
LINE
  5
58
330
A
100
AcDbEntity
  8
1
  6
CONTINUOUS
370
    50
100
AcDbLine
 10
101.6596260626
 20
134.2461510747
 30
0.0
 11
101.6596260626
 21
181.938952577
 31
0.0
  0
LINE
  5
59
330
A
100
AcDbEntity
  8
1
  6
CONTINUOUS
370
    50
100
AcDbLine
 10
101.6596260626
 20
181.938952577
 30
0.0
 11
102.1596260626
 21
181.938952577
 31
0.0
  0
LINE
  5
5A
330
A
100
AcDbEntity
  8
1
  6
CONTINUOUS
370
    50
100
AcDbLine
 10
119.2096260626
 20
181.938952577
 30
0.0
 11
115.2814627046
 21
181.938952577
 31
0.0
  0
LINE
  5
5B
330
A
100
AcDbEntity
  8
1
  6
CONTINUOUS
370
    50
100
AcDbLine
 10
119.2096260626
 20
133.1118710245
 30
0.0
 11
115.2814627046
 21
133.1118710245
 31
0.0
  0
ARC
  5
5C
330
A
100
AcDbEntity
  8
1
  6
CONTINUOUS
370
    50
100
AcDbCircle
 10
113.1749235721
 20
136.2613461388
 30
0.0
 40
0.5098409115
100
AcDbArc
 50
358.6648465171
 51
88.9095710033
  0
LINE
  5
5D
330
A
100
AcDbEntity
  8
1
  6
CONTINUOUS
370
    50
100
AcDbLine
 10
113.1846260626
 20
181.938952577
 30
0.0
 11
113.1846260626
 21
136.7710947207
 31
0.0
  0
LINE
  5
5E
330
A
100
AcDbEntity
  8
1
  6
CONTINUOUS
370
    50
100
AcDbLine
 10
113.1846260626
 20
181.938952577
 30
0.0
 11
113.6846260626
 21
181.938952577
 31
0.0
  0
ARC
  5
5F
330
A
100
AcDbEntity
  8
1
  6
CONTINUOUS
370
    50
100
AcDbCircle
 10
110.3460220013
 20
136.2597229058
 30
0.0
 40
0.5114987785
100
AcDbArc
 50
91.27662714099999
 51
181.1489553386
  0
LINE
  5
60
330
A
100
AcDbEntity
  8
1
  6
CONTINUOUS
370
    50
100
AcDbLine
 10
109.8346260626
 20
181.938952577
 30
0.0
 11
110.3346260626
 21
181.938952577
 31
0.0
  0
LINE
  5
61
330
A
100
AcDbEntity
  8
1
  6
CONTINUOUS
370
    50
100
AcDbLine
 10
110.3346260626
 20
181.938952577
 30
0.0
 11
110.3346260626
 21
136.7710947207
 31
0.0
  0
ARC
  5
62
330
A
100
AcDbEntity
  8
1
  6
CONTINUOUS
370
    50
100
AcDbCircle
 10
112.6326175285
 20
154.8045011474
 30
0.0
 40
7.2856565304
100
AcDbArc
 50
346.2547599658
 51
13.7452400342
  0
LINE
  5
63
330
A
100
AcDbEntity
  8
1
  6
CONTINUOUS
370
    50
100
AcDbLine
 10
113.1846260626
 20
136.7710947207
 30
0.0
 11
110.3346260626
 21
136.7710947207
 31
0.0
  0
LINE
  5
64
330
A
100
AcDbEntity
  8
1
  6
CONTINUOUS
370
    50
100
AcDbLine
 10
110.3346260626
 20
181.938952577
 30
0.0
 11
113.1846260626
 21
181.938952577
 31
0.0
  0
LINE
  5
65
330
A
100
AcDbEntity
  8
1
  6
CONTINUOUS
370
    50
100
AcDbLine
 10
125.6129157287
 20
142.7566825186
 30
0.0
 11
125.6129157287
 21
184.4212226353
 31
0.0
  0
LINE
  5
66
330
A
100
AcDbEntity
  8
1
  6
CONTINUOUS
370
    50
100
AcDbLine
 10
119.7096260626
 20
188.388952577
 30
0.0
 11
119.8005887652
 21
188.3895565514
 31
0.0
  0
LINE
  5
67
330
A
100
AcDbEntity
  8
1
  6
CONTINUOUS
370
    50
100
AcDbLine
 10
120.8266503995
 20
140.988952577
 30
0.0
 11
120.1271652288
 21
140.988952577
 31
0.0
  0
LINE
  5
68
330
A
100
AcDbEntity
  8
1
  6
CONTINUOUS
370
    50
100
AcDbLine
 10
120.1271652288
 20
140.988952577
 30
0.0
 11
119.8214019436
 21
140.238952577
 31
0.0
  0
LINE
  5
69
330
A
100
AcDbEntity
  8
1
  6
CONTINUOUS
370
    50
100
AcDbLine
 10
100.6596260626
 20
141.363952577
 30
0.0
 11
100.6596260626
 21
185.813952577
 31
0.0
  0
LINE
  5
6A
330
A
100
AcDbEntity
  8
1
  6
CONTINUOUS
370
    50
100
AcDbLine
 10
33.1921474211
 20
175.9749452749
 30
0.0
 11
33.1921474211
 21
151.202959879
 31
0.0
  0
LINE
  5
6B
330
A
100
AcDbEntity
  8
1
  6
CONTINUOUS
370
    50
100
AcDbLine
 10
179.6264979586
 20
180.1702615221
 30
0.0
 11
179.6264979586
 21
147.0076436318
 31
0.0
  0
LINE
  5
6C
330
A
100
AcDbEntity
  8
1
  6
CONTINUOUS
370
    50
100
AcDbLine
 10
102.1596260626
 20
189.499182217
 30
0.0
 11
101.6596260626
 21
188.884011383
 31
0.0
  0
LINE
  5
6D
330
A
100
AcDbEntity
  8
1
  6
CONTINUOUS
370
    50
100
AcDbLine
 10
102.1596260626
 20
189.499182217
 30
0.0
 11
108.2377894205
 21
189.499182217
 31
0.0
  0
LINE
  5
6E
330
A
100
AcDbEntity
  8
1
  6
CONTINUOUS
370
    50
100
AcDbLine
 10
108.2377894205
 20
189.499182217
 30
0.0
 11
109.8346260626
 21
186.0246656785
 31
0.0
  0
LINE
  5
6F
330
A
100
AcDbEntity
  8
1
  6
CONTINUOUS
370
    50
100
AcDbLine
 10
109.8346260626
 20
185.3955456167
 30
0.0
 11
109.8346260626
 21
186.0246656785
 31
0.0
  0
ARC
  5
70
330
A
100
AcDbEntity
  8
1
  6
CONTINUOUS
370
    50
100
AcDbCircle
 10
110.4083463734
 20
185.3128335802
 30
0.0
 40
0.5796518576
100
AcDbArc
 50
171.7963139136
 51
262.6933157894001
  0
LINE
  5
71
330
A
100
AcDbEntity
  8
1
  6
CONTINUOUS
370
    50
100
AcDbLine
 10
113.1846260626
 20
184.7378887204
 30
0.0
 11
110.3346260626
 21
184.7378887204
 31
0.0
  0
LWPOLYLINE
  5
72
330
A
100
AcDbEntity
  8
1
  6
CONTINUOUS
370
    50
100
AcDbPolyline
 90
        7
 70
   128
 43
0.0
 10
113.6846260626
 20
185.3955456167
 10
113.6401175343
 20
185.1253258255
 10
113.5352327788
 20
184.9275434293
 10
113.4133251597
 20
184.8111397858
 10
113.3423216465
 20
184.7716630256
 10
113.2158433876
 20
184.7391801747
 10
113.1846260626
 20
184.7378887204
  0
LINE
  5
7B
330
A
100
AcDbEntity
  8
1
  6
CONTINUOUS
370
    50
100
AcDbLine
 10
113.6846260626
 20
186.0246656785
 30
0.0
 11
113.6846260626
 21
185.3955456167
 31
0.0
  0
LINE
  5
7C
330
A
100
AcDbEntity
  8
1
  6
CONTINUOUS
370
    50
100
AcDbLine
 10
113.6846260626
 20
186.0246656785
 30
0.0
 11
115.2814627046
 21
189.499182217
 31
0.0
  0
LINE
  5
7D
330
A
100
AcDbEntity
  8
1
  6
CONTINUOUS
370
    50
100
AcDbLine
 10
115.2814627046
 20
189.499182217
 30
0.0
 11
119.2096260626
 21
189.499182217
 31
0.0
  0
LINE
  5
7E
330
A
100
AcDbEntity
  8
1
  6
CONTINUOUS
370
    50
100
AcDbLine
 10
119.7096260626
 20
188.884011383
 30
0.0
 11
119.2096260626
 21
189.499182217
 31
0.0
  0
LINE
  5
7F
330
A
100
AcDbEntity
  8
1
  6
CONTINUOUS
370
    50
100
AcDbLine
 10
101.6596260626
 20
188.884011383
 30
0.0
 11
101.6596260626
 21
181.938952577
 31
0.0
  0
LINE
  5
80
330
A
100
AcDbEntity
  8
1
  6
CONTINUOUS
370
    50
100
AcDbLine
 10
119.7096260626
 20
188.884011383
 30
0.0
 11
119.7096260626
 21
181.938952577
 31
0.0
  0
LINE
  5
81
330
A
100
AcDbEntity
  8
1
  6
CONTINUOUS
370
    50
100
AcDbLine
 10
110.3346260626
 20
190.4068104332
 30
0.0
 11
110.3346260626
 21
184.7378887204
 31
0.0
  0
ARC
  5
82
330
A
100
AcDbEntity
  8
1
  6
CONTINUOUS
370
    50
100
AcDbCircle
 10
110.3469197162
 20
190.9190427411
 30
0.0
 40
0.5123798114
100
AcDbArc
 50
178.9492610521
 51
268.6251564683
  0
LINE
  5
83
330
A
100
AcDbEntity
  8
1
  6
CONTINUOUS
370
    50
100
AcDbLine
 10
113.1846260626
 20
190.4068104332
 30
0.0
 11
113.1846260626
 21
184.7378887204
 31
0.0
  0
ARC
  5
84
330
A
100
AcDbEntity
  8
1
  6
CONTINUOUS
370
    50
100
AcDbCircle
 10
113.1739926543
 20
190.9174513343
 30
0.0
 40
0.5107516023
100
AcDbArc
 50
271.1929349480999
 51
1.2326475315
  0
LINE
  5
85
330
A
100
AcDbEntity
  8
1
  6
CONTINUOUS
370
    50
100
AcDbLine
 10
113.1846260626
 20
190.4068104332
 30
0.0
 11
110.3346260626
 21
190.4068104332
 31
0.0
  0
LINE
  5
86
330
A
100
AcDbEntity
  8
1
  6
CONTINUOUS
370
    50
100
AcDbLine
 10
114.6759638793
 20
193.216034127
 30
0.0
 11
115.2814627046
 21
194.0660341294
 31
0.0
  0
LINE
  5
87
330
A
100
AcDbEntity
  8
1
  6
CONTINUOUS
370
    50
100
AcDbLine
 10
115.2814627046
 20
189.499182217
 30
0.0
 11
115.2814627046
 21
194.0660341294
 31
0.0
  0
LINE
  5
88
330
A
100
AcDbEntity
  8
1
  6
CONTINUOUS
370
    50
100
AcDbLine
 10
113.6846260626
 20
191.4328248359
 30
0.0
 11
114.6759638793
 21
193.216034127
 31
0.0
  0
LINE
  5
89
330
A
100
AcDbEntity
  8
1
  6
CONTINUOUS
370
    50
100
AcDbLine
 10
113.6846260626
 20
191.4328248359
 30
0.0
 11
113.6846260626
 21
186.0246656785
 31
0.0
  0
LINE
  5
8A
330
A
100
AcDbEntity
  8
1
  6
CONTINUOUS
370
    50
100
AcDbLine
 10
108.2377894205
 20
194.0660341294
 30
0.0
 11
108.8432882458
 21
193.216034127
 31
0.0
  0
LINE
  5
8B
330
A
100
AcDbEntity
  8
1
  6
CONTINUOUS
370
    50
100
AcDbLine
 10
108.8432882458
 20
193.216034127
 30
0.0
 11
109.8346260626
 21
191.4328248359
 31
0.0
  0
LINE
  5
8C
330
A
100
AcDbEntity
  8
1
  6
CONTINUOUS
370
    50
100
AcDbLine
 10
108.2377894205
 20
189.499182217
 30
0.0
 11
108.2377894205
 21
194.0660341294
 31
0.0
  0
LINE
  5
8D
330
A
100
AcDbEntity
  8
1
  6
CONTINUOUS
370
    50
100
AcDbLine
 10
109.8346260626
 20
186.0246656785
 30
0.0
 11
109.8346260626
 21
191.4328248359
 31
0.0
  0
LINE
  5
8E
330
A
100
AcDbEntity
  8
1
  6
CONTINUOUS
370
    50
100
AcDbLine
 10
102.1596260626
 20
193.6389109796
 30
0.0
 11
102.1596260626
 21
189.499182217
 31
0.0
  0
LINE
  5
8F
330
A
100
AcDbEntity
  8
1
  6
CONTINUOUS
370
    50
100
AcDbLine
 10
101.6596260626
 20
192.9317540792
 30
0.0
 11
102.1596260626
 21
193.6389109796
 31
0.0
  0
LINE
  5
90
330
A
100
AcDbEntity
  8
1
  6
CONTINUOUS
370
    50
100
AcDbLine
 10
101.6596260626
 20
188.884011383
 30
0.0
 11
101.6596260626
 21
192.9317540792
 31
0.0
  0
LINE
  5
91
330
A
100
AcDbEntity
  8
1
  6
CONTINUOUS
370
    50
100
AcDbLine
 10
103.5096260601
 20
194.0660341294
 30
0.0
 11
108.2377894205
 21
194.0660341294
 31
0.0
  0
LWPOLYLINE
  5
92
330
A
100
AcDbEntity
  8
1
  6
CONTINUOUS
370
    50
100
AcDbPolyline
 90
        3
 70
   128
 43
0.0
 10
102.1596260626
 20
193.6389109796
 10
102.8322447101
 20
193.8599992458
 10
103.5096260601
 20
194.0660341294
  0
LINE
  5
97
330
A
100
AcDbEntity
  8
1
  6
CONTINUOUS
370
    50
100
AcDbLine
 10
115.2814627046
 20
194.0660341294
 30
0.0
 11
119.2096260626
 21
194.0660341294
 31
0.0
  0
LINE
  5
98
330
A
100
AcDbEntity
  8
1
  6
CONTINUOUS
370
    50
100
AcDbLine
 10
119.2096260626
 20
189.499182217
 30
0.0
 11
119.2096260626
 21
194.0660341294
 31
0.0
  0
LINE
  5
99
330
A
100
AcDbEntity
  8
1
  6
CONTINUOUS
370
    50
100
AcDbLine
 10
119.2096260626
 20
194.0660341294
 30
0.0
 11
119.7096260626
 21
193.6619077311
 31
0.0
  0
LINE
  5
9A
330
A
100
AcDbEntity
  8
1
  6
CONTINUOUS
370
    50
100
AcDbLine
 10
119.7096260626
 20
193.6619077311
 30
0.0
 11
119.7096260626
 21
188.884011383
 31
0.0
  0
LINE
  5
9B
330
A
100
AcDbEntity
  8
1
  6
CONTINUOUS
370
    50
100
AcDbLine
 10
180.6596260626
 20
148.758403112
 30
0.0
 11
180.6596260626
 21
178.4195020478
 31
0.0
  0
LINE
  5
9C
330
A
100
AcDbEntity
  8
1
  6
CONTINUOUS
370
    50
100
AcDbLine
 10
32.4096260626
 20
152.1385847601
 30
0.0
 11
32.4096260626
 21
175.0393203939
 31
0.0
  0
LINE
  5
9D
330
A
100
AcDbEntity
  8
1
  6
CONTINUOUS
370
    50
100
AcDbLine
 10
101.4596260626
 20
141.663952577
 30
0.0
 11
101.4596260626
 21
185.513952577
 31
0.0
  0
LINE
  5
9E
330
A
100
AcDbEntity
  8
1
  6
CONTINUOUS
370
    50
100
AcDbLine
 10
101.2025163392
 20
141.6171064705
 30
0.0
 11
101.2025163392
 21
185.5607986834
 31
0.0
  0
LINE
  5
9F
330
A
100
AcDbEntity
  8
1
  6
CONTINUOUS
370
    50
100
AcDbLine
 10
101.41382547
 20
141.663952577
 30
0.0
 11
101.41382547
 21
185.513952577
 31
0.0
  0
LINE
  5
A0
330
A
100
AcDbEntity
  8
1
  6
CONTINUOUS
370
    50
100
AcDbLine
 10
33.1621099563
 20
151.2093445393
 30
0.0
 11
33.1621099563
 21
175.9685606146
 31
0.0
  0
LWPOLYLINE
  5
A1
330
A
100
AcDbEntity
  8
1
  6
CONTINUOUS
370
    50
100
AcDbPolyline
 90
       22
 70
   128
 43
0.0
 10
118.7096260626
 20
156.5506106867
 10
118.4916113069
 20
156.8110400589
 10
118.2230160076
 20
156.9650054832
 10
117.9192618597
 20
157.0036668652
 10
117.5977892423
 20
156.924804419
 10
117.2770558599
 20
156.7329461189
 10
116.9754769729
 20
156.4391077205
 10
116.7103680654
 20
156.0601602792
 10
116.4969506574
 20
155.6178614799
 10
116.3474783445
 20
155.1376063953
 10
116.2705332442
 20
154.6469694002
 10
116.2705332442
 20
154.1741209582
 10
116.3474783445
 20
153.7462101836
 10
116.4969506574
 20
153.3878060449
 10
116.7103680654
 20
153.1194867106
 10
116.9754769729
 20
152.9566580308
 10
117.2770558599
 20
152.9086689937
 10
117.5977892423
 20
152.9782749425
 10
117.9192618597
 20
153.1614793752
 10
118.2230160076
 20
153.4477634073
 10
118.4916113069
 20
153.8206897257
 10
118.7096260626
 20
154.2588463551
  0
LWPOLYLINE
  5
B9
330
A
100
AcDbEntity
  8
1
  6
CONTINUOUS
370
    50
100
AcDbPolyline
 90
        9
 70
   128
 43
0.0
 10
118.7096260626
 20
156.5527929319
 10
118.8180728704
 20
156.3348474738
 10
118.8974575955
 20
156.083676767
 10
118.945866903
 20
155.8053345412
 10
118.9621340292
 20
155.5065294157
 10
118.945866903
 20
155.1944632073
 10
118.8974575955
 20
154.8766573525
 10
118.8180728704
 20
154.5607716249
 10
118.7096260626
 20
154.2544195191
  0
LWPOLYLINE
  5
C4
330
A
100
AcDbEntity
  8
1
  6
CONTINUOUS
370
    50
100
AcDbPolyline
 90
       18
 70
   128
 43
0.0
 10
111.4989541992
 20
155.1602881942
 10
111.4822846806
 20
155.0561067868
 10
111.4661828224
 20
155.0082733259
 10
111.4511969542
 20
155.0184167225
 10
111.4378374016
 20
155.0861915554
 10
111.4265591083
 20
155.2092898341
 10
111.417746143
 20
155.3835195941
 10
111.4116986206
 20
155.6029476501
 10
111.4086224823
 20
155.8601016428
 10
111.4086224823
 20
156.1462245013
 10
111.4116986206
 20
156.4515726549
 10
111.417746143
 20
156.7657478384
 10
111.4265591083
 20
157.0780511928
 10
111.4378374016
 20
157.3778476019
 10
111.4511969542
 20
157.6549278586
 10
111.4661828224
 20
157.899856327
 10
111.4822846806
 20
158.1042922619
 10
111.4989541992
 20
158.2612738428
  0
LWPOLYLINE
  5
D8
330
A
100
AcDbEntity
  8
1
  6
CONTINUOUS
370
    50
100
AcDbPolyline
 90
       18
 70
   128
 43
0.0
 10
111.4989541992
 20
158.2612738428
 10
111.0013895977
 20
158.2423038494
 10
110.520768962
 20
158.1711796828
 10
110.0734592513
 20
158.0503233913
 10
109.6746930613
 20
157.8838505909
 10
109.3380498965
 20
157.6774303131
 10
109.0749937359
 20
157.438091953
 10
108.8944826417
 20
157.1739858913
 10
108.8026637027
 20
156.8941059433
 10
108.8026637027
 20
156.6079830848
 10
108.8944826417
 20
156.3253608866
 10
109.0749937359
 20
156.0558637087
 10
109.3380498965
 20
155.8086689544
 10
109.6746930613
 20
155.5921945444
 10
110.0734592513
 20
155.4138122552
 10
110.520768962
 20
155.2795966817
 10
111.0013895977
 20
155.1941183743
 10
111.4989541992
 20
155.1602881942
  0
ARC
  5
EC
330
A
100
AcDbEntity
  8
1
  6
CONTINUOUS
370
    50
100
AcDbCircle
 10
112.6326175284
 20
172.3734040065
 30
0.0
 40
7.2856565304
100
AcDbArc
 50
346.2547599659001
 51
13.7452400341
  0
LWPOLYLINE
  5
ED
330
A
100
AcDbEntity
  8
1
  6
CONTINUOUS
370
    50
100
AcDbPolyline
 90
       12
 70
   128
 43
0.0
 10
119.7096260626
 20
169.6018393342
 10
119.716116122
 20
169.4954839342
 10
119.8495945618
 20
168.935955881
 10
120.1091407726
 20
168.1530918843
 10
120.4159415241
 20
167.062505186
 10
120.5328542508
 20
166.0862815242
 10
120.4508352419
 20
165.1259744024
 10
120.2260310688
 20
164.2975029289
 10
119.9180091591
 20
163.5102130292
 10
119.7919780674
 20
163.202196277
 10
119.7186701861
 20
162.9800585934
 10
119.7096260626
 20
162.9131806812
  0
LWPOLYLINE
  5
FB
330
A
100
AcDbEntity
  8
1
  6
CONTINUOUS
370
    50
100
AcDbPolyline
 90
       11
 70
   128
 43
0.0
 10
119.7096260626
 20
162.018665553
 10
119.8046740402
 20
161.7823924076
 10
120.0510908781
 20
161.2605260484
 10
120.3613504211
 20
160.4186932315
 10
120.5235298215
 20
159.5003217659
 10
120.4792723591
 20
158.4854182295
 10
120.2767360929
 20
157.5646080587
 10
119.9755766733
 20
156.587375886
 10
119.8334540968
 20
156.1139951678
 10
119.7365676963
 20
155.6944677669
 10
119.7096260626
 20
155.4167303063
  0
LWPOLYLINE
  5
108
330
A
100
AcDbEntity
  8
1
  6
CONTINUOUS
370
    50
100
AcDbPolyline
 90
       22
 70
   128
 43
0.0
 10
118.7096260626
 20
154.2818374735
 10
118.4938817028
 20
153.8415381095
 10
118.2268177662
 20
153.4658393617
 10
117.9238897064
 20
153.1764835691
 10
117.6026284963
 20
152.9902162536
 10
117.2816260798
 20
152.9178170284
 10
116.9794594243
 20
152.9634757622
 10
116.7136154387
 20
153.1245501048
 10
116.499478976
 20
153.3917184045
 10
116.3494424851
 20
153.7495191677
 10
116.2721888384
 20
154.1772458431
 10
116.2721888384
 20
154.6501451453
 10
116.3494424851
 20
155.1408495706
 10
116.499478976
 20
155.6209612018
 10
116.7136154387
 20
156.0626951452
 10
116.9794594243
 20
156.4404874906
 10
117.2816260798
 20
156.7324747389
 10
117.6026284963
 20
156.9217590811
 10
117.9238897064
 20
156.9973863037
 10
118.2268177662
 20
156.954979728
 10
118.4938817028
 20
156.7969934961
 10
118.7096260626
 20
156.5325705456
  0
LINE
  5
120
330
A
100
AcDbEntity
  8
1
  6
CONTINUOUS
370
    50
100
AcDbLine
 10
118.7096260626
 20
154.2818374735
 30
0.0
 11
118.7096260626
 21
154.2544195191
 31
0.0
  0
LINE
  5
121
330
A
100
AcDbEntity
  8
1
  6
CONTINUOUS
370
    50
100
AcDbLine
 10
118.7096260626
 20
156.5527929319
 30
0.0
 11
118.7096260626
 21
156.5325705456
 31
0.0
  0
LWPOLYLINE
  5
122
330
A
100
AcDbEntity
  8
1
  6
CONTINUOUS
370
    50
100
AcDbPolyline
 90
       24
 70
   128
 43
0.0
 10
118.3446579255
 20
155.0393367233
 10
118.229921732
 20
154.6050632182
 10
118.047925203
 20
154.2029977924
 10
117.8121661884
 20
153.8629597991
 10
117.5401298559
 20
153.6101683006
 10
117.2519918958
 20
153.4633716861
 10
116.9691221823
 20
153.4334571888
 10
116.7124998682
 20
153.5226434302
 10
116.5011574564
 20
153.7243158747
 10
116.3507692469
 20
154.0235173997
 10
116.2724888451
 20
154.3980575969
 10
116.2721219503
 20
154.8201585333
 10
116.3496957736
 20
155.2585149133
 10
116.4994570191
 20
155.6806158496
 10
116.7102985806
 20
156.0551560468
 10
116.9665833038
 20
156.3543575719
 10
117.2493037234
 20
156.5560300164
 10
117.5374917591
 20
156.6452162578
 10
117.8097738228
 20
156.6153017605
 10
118.0459559993
 20
156.4685051459
 10
118.228521737
 20
156.2157136475
 10
118.3439309705
 20
155.8756756542
 10
118.3836243248
 20
155.4736102283
 10
118.3446579255
 20
155.0393367233
  0
ARC
  5
13C
330
A
100
AcDbEntity
  8
1
  6
CONTINUOUS
370
    50
100
AcDbCircle
 10
113.0709729535
 20
158.0662532881
 30
0.0
 40
1.5840694368
100
AcDbArc
 50
169.583782059
 51
172.928166102
  0
ARC
  5
13D
330
A
100
AcDbEntity
  8
1
  6
CONTINUOUS
370
    50
100
AcDbCircle
 10
107.2729368431
 20
148.3062359091
 30
0.0
 40
10.9045232035
100
AcDbArc
 50
65.7827110029
 51
67.1179062878
  0
ARC
  5
13E
330
A
100
AcDbEntity
  8
1
  6
CONTINUOUS
370
    50
100
AcDbCircle
 10
111.4285647909
 20
153.5389785269
 30
0.0
 40
4.7228198906
100
AcDbArc
 50
86.1466391331
 51
89.1460260104
  0
ARC
  5
13F
330
A
100
AcDbEntity
  8
1
  6
CONTINUOUS
370
    50
100
AcDbCircle
 10
111.5694817563
 20
159.8759374833
 30
0.0
 40
4.7161766671
100
AcDbArc
 50
269.1431444843
 51
272.1444122423
  0
ARC
  5
140
330
A
100
AcDbEntity
  8
1
  6
CONTINUOUS
370
    50
100
AcDbCircle
 10
117.5193493484
 20
166.111742463
 30
0.0
 40
12.3776278999
100
AcDbArc
 50
240.9706336714
 51
242.1966722693
  0
ARC
  5
141
330
A
100
AcDbEntity
  8
1
  6
CONTINUOUS
370
    50
100
AcDbCircle
 10
107.2436589187
 20
155.689735773
 30
0.0
 40
4.2881059529
100
AcDbArc
 50
352.9076566908
 51
354.6390928971
  0
LWPOLYLINE
  5
142
330
A
100
AcDbEntity
  8
1
  6
CONTINUOUS
370
    50
100
AcDbPolyline
 90
       24
 70
   128
 43
0.0
 10
108.1625431132
 20
157.375097012
 10
108.1235767138
 20
156.9408235069
 10
108.1632700681
 20
156.5387580811
 10
108.2786793016
 20
156.1987200877
 10
108.4612450394
 20
155.9459285893
 10
108.6974272159
 20
155.7991319748
 10
108.9697092795
 20
155.7692174775
 10
109.2578973152
 20
155.8584037189
 10
109.5406177348
 20
156.0600761634
 10
109.796902458
 20
156.3592776884
 10
110.0077440195
 20
156.7338178856
 10
110.1575052651
 20
157.1559188219
 10
110.2350790883
 20
157.594275202
 10
110.2347121935
 20
158.0163761383
 10
110.1564317918
 20
158.3909163355
 10
110.0060435822
 20
158.6901178605
 10
109.7947011704
 20
158.8917903051
 10
109.5380788563
 20
158.9809765464
 10
109.2552091429
 20
158.9510620491
 10
108.9670711827
 20
158.8042654346
 10
108.6950348502
 20
158.5514739362
 10
108.4592758357
 20
158.2114359428
 10
108.2772793067
 20
157.809370517
 10
108.1625431132
 20
157.375097012
  0
LINE
  5
15C
330
A
100
AcDbEntity
  8
1
  6
CONTINUOUS
370
    50
100
AcDbLine
 10
101.9127799561
 20
140.988952577
 30
0.0
 11
101.9127799561
 21
186.5816116083
 31
0.0
  0
LINE
  5
15D
330
A
100
AcDbEntity
  8
1
  6
CONTINUOUS
370
    50
100
AcDbLine
 10
101.9596260626
 20
140.988952577
 30
0.0
 11
101.9596260626
 21
186.3703024774
 31
0.0
  0
LWPOLYLINE
  5
15E
330
A
100
AcDbEntity
  8
1
  6
CONTINUOUS
370
    50
100
AcDbPolyline
 90
        9
 70
   128
 43
0.0
 10
111.7459531494
 20
158.2511216008
 10
111.7168311995
 20
158.2689751772
 10
111.6876547704
 20
158.2853814559
 10
111.6584516482
 20
158.3003248124
 10
111.6292496445
 20
158.3137910156
 10
111.6000765698
 20
158.3257672408
 10
111.5709602068
 20
158.3362420825
 10
111.5419282846
 20
158.3452055652
 10
111.5130084515
 20
158.3526491523
  0
LWPOLYLINE
  5
169
330
A
100
AcDbEntity
  8
1
  6
CONTINUOUS
370
    50
100
AcDbPolyline
 90
       26
 70
   128
 43
0.0
 10
107.9381727867
 20
157.3772954751
 10
107.8912120986
 20
156.8920843356
 10
107.9250117169
 20
156.4373607966
 10
108.0374478873
 20
156.0416968102
 10
108.2214558316
 20
155.7299533999
 10
108.4654736541
 20
155.5217185507
 10
108.7541688174
 20
155.430076424
 10
109.0694015428
 20
155.4607852317
 10
109.3913645987
 20
155.6119154264
 10
109.6998278623
 20
155.8739709421
 10
109.9754094522
 20
156.2304858671
 10
110.2007935636
 20
156.6590590574
 10
110.361818484
 20
157.1327616834
 10
110.4483664253
 20
157.6218292668
 10
110.4549992621
 20
158.0955318927
 10
110.3813002289
 20
158.524105083
 10
110.231900107
 20
158.880620008
 10
110.0161862554
 20
159.1426755238
 10
109.7477127689
 20
159.2938057184
 10
109.4433488239
 20
159.3245145261
 10
109.1222187265
 20
159.2328723994
 10
108.8045002618
 20
159.0246375502
 10
108.5101568493
 20
158.7128941399
 10
108.2576831683
 20
158.3172301536
 10
108.0629430685
 20
157.8625066145
 10
107.9381727867
 20
157.3772954751
  0
LWPOLYLINE
  5
185
330
A
100
AcDbEntity
  8
1
  6
CONTINUOUS
370
    50
100
AcDbPolyline
 90
       26
 70
   128
 43
0.0
 10
107.9458332311
 20
157.375097012
 10
107.898872543
 20
156.8898858725
 10
107.9326721613
 20
156.4351623335
 10
108.0451083317
 20
156.0394983471
 10
108.229116276
 20
155.7277549368
 10
108.4731340985
 20
155.5195200876
 10
108.7618292618
 20
155.4278779609
 10
109.0770619872
 20
155.4585867686
 10
109.3990250431
 20
155.6097169632
 10
109.7074883067
 20
155.871772479
 10
109.9830698966
 20
156.228287404
 10
110.2084540081
 20
156.6568605943
 10
110.3694789284
 20
157.1305632203
 10
110.4560268697
 20
157.6196308037
 10
110.4626597066
 20
158.0933334296
 10
110.3889606733
 20
158.5219066199
 10
110.2395605514
 20
158.8784215449
 10
110.0238466998
 20
159.1404770607
 10
109.7553732133
 20
159.2916072553
 10
109.4510092683
 20
159.322316063
 10
109.129879171
 20
159.2306739363
 10
108.8121607062
 20
159.0224390871
 10
108.5178172938
 20
158.7106956768
 10
108.2653436127
 20
158.3150316905
 10
108.0706035129
 20
157.8603081514
 10
107.9458332311
 20
157.375097012
  0
LWPOLYLINE
  5
1A1
330
A
100
AcDbEntity
  8
1
  6
CONTINUOUS
370
    50
100
AcDbPolyline
 90
       24
 70
   128
 43
0.0
 10
108.1548826687
 20
157.3772954751
 10
108.1159162694
 20
156.94302197
 10
108.1556096237
 20
156.5409565442
 10
108.2710188571
 20
156.2009185508
 10
108.4535845949
 20
155.9481270524
 10
108.6897667714
 20
155.8013304379
 10
108.9620488351
 20
155.7714159406
 10
109.2502368708
 20
155.860602182
 10
109.5329572903
 20
156.0622746265
 10
109.7892420136
 20
156.3614761515
 10
110.0000835751
 20
156.7360163487
 10
110.1498448206
 20
157.1581172851
 10
110.2274186438
 20
157.5964736651
 10
110.2270517491
 20
158.0185746014
 10
110.1487713473
 20
158.3931147986
 10
109.9983831378
 20
158.6923163236
 10
109.787040726
 20
158.8939887682
 10
109.5304184119
 20
158.9831750095
 10
109.2475486984
 20
158.9532605122
 10
108.9594107383
 20
158.8064638977
 10
108.6873744058
 20
158.5536723993
 10
108.4516153912
 20
158.2136344059
 10
108.2696188622
 20
157.8115689801
 10
108.1548826687
 20
157.3772954751
  0
LINE
  5
1BB
330
A
100
AcDbEntity
  8
1
  6
CONTINUOUS
370
    50
100
AcDbLine
 10
98.6596260626
 20
159.7275118375
 30
0.0
 11
98.6496260626
 21
159.7229470778
 31
0.0
  0
LINE
  5
1BC
330
A
100
AcDbEntity
  8
1
  6
CONTINUOUS
370
    50
100
AcDbLine
 10
98.6596260626
 20
160.2822716243
 30
0.0
 11
98.6596260626
 21
159.7275118375
 31
0.0
  0
ARC
  5
1BD
330
A
100
AcDbEntity
  8
1
  6
CONTINUOUS
370
    50
100
AcDbCircle
 10
98.0886041061
 20
161.0386158903
 30
0.0
 40
0.94769337
100
AcDbArc
 50
307.0519377513
 51
52.9480622487
  0
LINE
  5
1BE
330
A
100
AcDbEntity
  8
1
  6
CONTINUOUS
370
    50
100
AcDbLine
 10
98.6596260626
 20
162.0433774574
 30
0.0
 11
98.6596260626
 21
161.7949601564
 31
0.0
  0
LINE
  5
1BF
330
A
100
AcDbEntity
  8
1
  6
CONTINUOUS
370
    50
100
AcDbLine
 10
98.6496260626
 20
162.04849263
 30
0.0
 11
98.6596260626
 21
162.0433774574
 31
0.0
  0
LINE
  5
1C0
330
A
100
AcDbEntity
  8
1
  6
CONTINUOUS
370
    50
100
AcDbLine
 10
98.6496260626
 20
161.8046716394
 30
0.0
 11
98.6496260626
 21
162.04849263
 31
0.0
  0
LWPOLYLINE
  5
1C1
330
A
100
AcDbEntity
  8
1
  6
CONTINUOUS
370
    50
100
AcDbPolyline
 90
       19
 70
   128
 43
0.0
 10
98.6496260626
 20
160.2732987873
 10
97.9551833963
 20
159.8569961759
 10
97.3667404969
 20
159.6678924726
 10
96.733637387
 20
159.56071386
 10
96.0855657229
 20
159.5391639592
 10
95.4233456092
 20
159.6171541026
 10
94.7170814297
 20
159.8598664668
 10
94.2536026246
 20
160.1974223265
 10
93.9997040647
 20
160.5699395633
 10
93.9035463132
 20
161.0122159302
 10
93.9725164965
 20
161.4182844192
 10
94.170427088
 20
161.7848957813
 10
94.5002483807
 20
162.1167496756
 10
95.1438897562
 20
162.4594125256
 10
96.1719213773
 20
162.636331216
 10
96.849199581
 20
162.5928538169
 10
97.5288778487
 20
162.4340680597
 10
98.3753361773
 20
162.0269603691
 10
98.6496260626
 20
161.8046716394
  0
LINE
  5
1D6
330
A
100
AcDbEntity
  8
1
  6
CONTINUOUS
370
    50
100
AcDbLine
 10
98.6496260626
 20
159.7229470778
 30
0.0
 11
98.6496260626
 21
160.2732987873
 31
0.0
  0
LWPOLYLINE
  5
1D7
330
A
100
AcDbEntity
  8
1
  6
CONTINUOUS
370
    50
100
AcDbPolyline
 90
        9
 70
   128
 43
0.0
 10
111.5130084515
 20
155.2891022372
 10
111.5419282846
 20
155.2682937279
 10
111.5709602068
 20
155.2488956129
 10
111.6000765698
 20
155.2309263661
 10
111.6292496445
 20
155.2144031003
 10
111.6584516482
 20
155.1993415514
 10
111.6876547704
 20
155.1857560634
 10
111.7168311995
 20
155.1736595742
 10
111.7459531494
 20
155.163063604
  0
LINE
  5
1E2
330
A
100
AcDbEntity
  8
1
  6
CONTINUOUS
370
    50
100
AcDbLine
 10
179.5964040382
 20
153.588952577
 30
0.0
 11
179.5964040382
 21
173.588952577
 31
0.0
  0
LINE
  5
1E3
330
A
100
AcDbEntity
  8
1
  6
CONTINUOUS
370
    50
100
AcDbLine
 10
101.6596260626
 20
140.238952577
 30
0.0
 11
104.3596260626
 21
140.238952577
 31
0.0
  0
LINE
  5
1E4
330
A
100
AcDbEntity
  8
1
  6
CONTINUOUS
370
    50
100
AcDbLine
 10
104.3596260626
 20
189.138952577
 30
0.0
 11
101.6596260626
 21
189.138952577
 31
0.0
  0
LINE
  5
1E5
330
A
100
AcDbEntity
  8
1
  6
CONTINUOUS
370
    50
100
AcDbLine
 10
138.6596260664
 20
173.588952577
 30
0.0
 11
138.6596260664
 21
153.588952577
 31
0.0
  0
LINE
  5
1E6
330
A
100
AcDbEntity
  8
1
  6
CONTINUOUS
370
    50
100
AcDbLine
 10
138.5441560126
 20
153.388952577
 30
0.0
 11
138.5441560126
 21
173.788952577
 31
0.0
  0
LINE
  5
1E7
330
A
100
AcDbEntity
  8
1
  6
CONTINUOUS
370
    50
100
AcDbLine
 10
129.1596260626
 20
173.788952577
 30
0.0
 11
129.1596260626
 21
153.388952577
 31
0.0
  0
LINE
  5
1E8
330
A
100
AcDbEntity
  8
1
  6
CONTINUOUS
370
    50
100
AcDbLine
 10
128.6596260626
 20
153.8889526105
 30
0.0
 11
128.6596260626
 21
173.288952577
 31
0.0
  0
LINE
  5
1E9
330
A
100
AcDbEntity
  8
1
  6
CONTINUOUS
370
    50
100
AcDbLine
 10
104.0489658908
 20
140.988952577
 30
0.0
 11
101.6596260626
 21
140.988952577
 31
0.0
  0
LINE
  5
1EA
330
A
100
AcDbEntity
  8
1
  6
CONTINUOUS
370
    50
100
AcDbLine
 10
101.6596260626
 20
188.388952577
 30
0.0
 11
104.0489658908
 21
188.388952577
 31
0.0
  0
LINE
  5
1EB
330
A
100
AcDbEntity
  8
1
  6
CONTINUOUS
370
    50
100
AcDbLine
 10
32.6809125087
 20
154.7737712072
 30
0.0
 11
32.6809125087
 21
172.4041339467
 31
0.0
  0
LINE
  5
1EC
330
A
100
AcDbEntity
  8
1
  6
CONTINUOUS
370
    50
100
AcDbLine
 10
103.5096260601
 20
133.1118710245
 30
0.0
 11
104.3596260626
 21
133.961871027
 31
0.0
  0
LINE
  5
1ED
330
A
100
AcDbEntity
  8
1
  6
CONTINUOUS
370
    50
100
AcDbLine
 10
103.5096260601
 20
194.0660341294
 30
0.0
 11
104.3596260626
 21
193.216034127
 31
0.0
  0
LINE
  5
1EE
330
A
100
AcDbEntity
  8
1
  6
CONTINUOUS
370
    50
100
AcDbLine
 10
33.1809125087
 20
155.0624463418
 30
0.0
 11
33.1809125087
 21
172.1154588121
 31
0.0
  0
LINE
  5
1EF
330
A
100
AcDbEntity
  8
1
  6
CONTINUOUS
370
    50
100
AcDbLine
 10
40.9096260626
 20
172.238952577
 30
0.0
 11
40.9096260626
 21
154.938952577
 31
0.0
  0
LINE
  5
1F0
330
A
100
AcDbEntity
  8
1
  6
CONTINUOUS
370
    50
100
AcDbLine
 10
38.5993374943
 20
172.238952577
 30
0.0
 11
38.5993374943
 21
154.938952577
 31
0.0
  0
LINE
  5
1F1
330
A
100
AcDbEntity
  8
1
  6
CONTINUOUS
370
    50
100
AcDbLine
 10
38.3395298731
 20
172.088952577
 30
0.0
 11
38.3395298731
 21
155.088952577
 31
0.0
  0
LINE
  5
1F2
330
A
100
AcDbEntity
  8
1
  6
CONTINUOUS
370
    50
100
AcDbLine
 10
41.8189527365
 20
170.663952577
 30
0.0
 11
41.8189527365
 21
156.513952577
 31
0.0
  0
LINE
  5
1F3
330
A
100
AcDbEntity
  8
1
  6
CONTINUOUS
370
    50
100
AcDbLine
 10
33.4096260626
 20
172.088952577
 30
0.0
 11
33.4096260626
 21
155.103880857
 31
0.0
  0
LINE
  5
1F4
330
A
100
AcDbEntity
  8
1
  6
CONTINUOUS
370
    50
100
AcDbLine
 10
114.6759638793
 20
133.961871027
 30
0.0
 11
119.7096260626
 21
133.961871027
 31
0.0
  0
LINE
  5
1F5
330
A
100
AcDbEntity
  8
1
  6
CONTINUOUS
370
    50
100
AcDbLine
 10
104.3596260626
 20
133.961871027
 30
0.0
 11
108.8432882458
 21
133.961871027
 31
0.0
  0
LINE
  5
1F6
330
A
100
AcDbEntity
  8
1
  6
CONTINUOUS
370
    50
100
AcDbLine
 10
104.3596260626
 20
133.961871027
 30
0.0
 11
104.3596260626
 21
140.238952577
 31
0.0
  0
LINE
  5
1F7
330
A
100
AcDbEntity
  8
1
  6
CONTINUOUS
370
    50
100
AcDbLine
 10
104.3596260626
 20
140.238952577
 30
0.0
 11
119.8214019436
 21
140.238952577
 31
0.0
  0
LINE
  5
1F8
330
A
100
AcDbEntity
  8
1
  6
CONTINUOUS
370
    50
100
AcDbLine
 10
120.1271652288
 20
140.988952577
 30
0.0
 11
104.0489658908
 21
140.988952577
 31
0.0
  0
LINE
  5
1F9
330
A
100
AcDbEntity
  8
1
  6
CONTINUOUS
370
    50
100
AcDbLine
 10
104.3596260626
 20
140.238952577
 30
0.0
 11
104.0489658908
 21
140.988952577
 31
0.0
  0
LINE
  5
1FA
330
A
100
AcDbEntity
  8
1
  6
CONTINUOUS
370
    50
100
AcDbLine
 10
104.0489658908
 20
188.388952577
 30
0.0
 11
119.7096260626
 21
188.388952577
 31
0.0
  0
LINE
  5
1FB
330
A
100
AcDbEntity
  8
1
  6
CONTINUOUS
370
    50
100
AcDbLine
 10
104.3596260626
 20
189.138952577
 30
0.0
 11
104.0489658908
 21
188.388952577
 31
0.0
  0
LINE
  5
1FC
330
A
100
AcDbEntity
  8
1
  6
CONTINUOUS
370
    50
100
AcDbLine
 10
119.7096260626
 20
189.138952577
 30
0.0
 11
104.3596260626
 21
189.138952577
 31
0.0
  0
LINE
  5
1FD
330
A
100
AcDbEntity
  8
1
  6
CONTINUOUS
370
    50
100
AcDbLine
 10
114.6759638793
 20
193.216034127
 30
0.0
 11
119.7096260626
 21
193.216034127
 31
0.0
  0
LINE
  5
1FE
330
A
100
AcDbEntity
  8
1
  6
CONTINUOUS
370
    50
100
AcDbLine
 10
104.3596260626
 20
193.216034127
 30
0.0
 11
108.8432882458
 21
193.216034127
 31
0.0
  0
LINE
  5
1FF
330
A
100
AcDbEntity
  8
1
  6
CONTINUOUS
370
    50
100
AcDbLine
 10
104.3596260626
 20
193.216034127
 30
0.0
 11
104.3596260626
 21
189.138952577
 31
0.0
  0
LINE
  5
200
330
A
100
AcDbEntity
  8
1
  6
CONTINUOUS
370
    50
100
AcDbLine
 10
66.4096260626
 20
171.588952577
 30
0.0
 11
66.4096260626
 21
155.588952577
 31
0.0
  0
LINE
  5
201
330
A
100
AcDbEntity
  8
1
  6
CONTINUOUS
370
    50
100
AcDbLine
 10
66.3996260626
 20
171.588952577
 30
0.0
 11
66.3996260626
 21
155.588952577
 31
0.0
  0
LINE
  5
202
330
A
100
AcDbEntity
  8
1
  6
CONTINUOUS
370
    50
100
AcDbLine
 10
98.6496260626
 20
162.04849263
 30
0.0
 11
98.6496260626
 21
171.588952577
 31
0.0
  0
LINE
  5
203
330
A
100
AcDbEntity
  8
1
  6
CONTINUOUS
370
    50
100
AcDbLine
 10
98.6596260626
 20
162.0433774574
 30
0.0
 11
98.6596260626
 21
171.588952577
 31
0.0
  0
ARC
  5
204
330
A
100
AcDbEntity
  8
1
  6
CONTINUOUS
370
    50
100
AcDbCircle
 10
98.0886041061
 20
166.1392892636
 30
0.0
 40
0.94769337
100
AcDbArc
 50
307.0519377513
 51
52.9480622487
  0
LINE
  5
205
330
A
100
AcDbEntity
  8
1
  6
CONTINUOUS
370
    50
100
AcDbLine
 10
98.6596260626
 20
161.7923144599
 30
0.0
 11
98.6596260626
 21
160.2822716243
 31
0.0
  0
LINE
  5
206
330
A
100
AcDbEntity
  8
1
  6
CONTINUOUS
370
    50
100
AcDbLine
 10
90.6596260626
 20
156.088952577
 30
0.0
 11
90.6596260626
 21
171.088952577
 31
0.0
  0
LINE
  5
207
330
A
100
AcDbEntity
  8
1
  6
CONTINUOUS
370
    50
100
AcDbLine
 10
90.3853846847
 20
170.613952577
 30
0.0
 11
90.3853846847
 21
156.563952577
 31
0.0
  0
LWPOLYLINE
  5
208
330
A
100
AcDbEntity
  8
1
  6
CONTINUOUS
370
    50
100
AcDbPolyline
 90
       19
 70
   128
 43
0.0
 10
98.6496260626
 20
166.9046063666
 10
97.9551833963
 20
167.320908978
 10
97.358760024
 20
167.5123987057
 10
96.733637387
 20
167.6171912939
 10
96.0749344608
 20
167.63861304
 10
95.4233456092
 20
167.5607510513
 10
94.7170814297
 20
167.3180386871
 10
94.2536026246
 20
166.9804828274
 10
93.9997040647
 20
166.6079655906
 10
93.9035463132
 20
166.1656892237
 10
93.9725164965
 20
165.7596207347
 10
94.170427088
 20
165.3930093726
 10
94.5002483807
 20
165.0611554783
 10
95.1438897562
 20
164.7184926283
 10
96.1719213773
 20
164.5415739379
 10
96.8589766883
 20
164.5861708622
 10
97.5288778487
 20
164.7438370942
 10
98.3753361773
 20
165.1509447848
 10
98.6496260626
 20
165.3732335145
  0
LINE
  5
21D
330
A
100
AcDbEntity
  8
1
  6
CONTINUOUS
370
    50
100
AcDbLine
 10
98.6496260626
 20
161.7921537998
 30
0.0
 11
98.6496260626
 21
160.2768368713
 31
0.0
  0
LINE
  5
21E
330
A
100
AcDbEntity
  8
1
  6
CONTINUOUS
370
    50
100
AcDbLine
 10
77.4096260626
 20
170.663952577
 30
0.0
 11
77.4096260626
 21
156.513952577
 31
0.0
  0
LINE
  5
21F
330
A
100
AcDbEntity
  8
1
  6
CONTINUOUS
370
    50
100
AcDbLine
 10
77.4278245743
 20
170.613952577
 30
0.0
 11
77.4278245743
 21
156.563952577
 31
0.0
  0
LINE
  5
220
330
A
100
AcDbEntity
  8
1
  6
CONTINUOUS
370
    50
100
AcDbLine
 10
98.6496260626
 20
155.588952577
 30
0.0
 11
98.6496260626
 21
159.7229470778
 31
0.0
  0
LINE
  5
221
330
A
100
AcDbEntity
  8
1
  6
CONTINUOUS
370
    50
100
AcDbLine
 10
98.6596260626
 20
155.588952577
 30
0.0
 11
98.6596260626
 21
159.7275118375
 31
0.0
  0
LINE
  5
222
330
A
100
AcDbEntity
  8
1
  6
CONTINUOUS
370
    50
100
AcDbLine
 10
106.7596260626
 20
188.188952577
 30
0.0
 11
116.7596260626
 21
188.188952577
 31
0.0
  0
LINE
  5
223
330
A
100
AcDbEntity
  8
1
  6
CONTINUOUS
370
    50
100
AcDbLine
 10
107.0596261293
 20
183.688952577
 30
0.0
 11
116.4596260626
 21
183.688952577
 31
0.0
  0
LINE
  5
224
330
A
100
AcDbEntity
  8
1
  6
CONTINUOUS
370
    50
100
AcDbLine
 10
116.7596260626
 20
183.988952577
 30
0.0
 11
106.7596260626
 21
183.988952577
 31
0.0
  0
LINE
  5
225
330
A
100
AcDbEntity
  8
1
  6
CONTINUOUS
370
    50
100
AcDbLine
 10
110.6596260626
 20
183.288952577
 30
0.0
 11
112.8596260626
 21
183.288952577
 31
0.0
  0
LINE
  5
226
330
A
100
AcDbEntity
  8
1
  6
CONTINUOUS
370
    50
100
AcDbLine
 10
110.5096260626
 20
179.888952577
 30
0.0
 11
113.0096260626
 21
179.888952577
 31
0.0
  0
LINE
  5
227
330
A
100
AcDbEntity
  8
1
  6
CONTINUOUS
370
    50
100
AcDbLine
 10
110.5096260626
 20
179.878952577
 30
0.0
 11
113.0096260626
 21
179.878952577
 31
0.0
  0
LINE
  5
228
330
A
100
AcDbEntity
  8
1
  6
CONTINUOUS
370
    50
100
AcDbLine
 10
110.6596260626
 20
177.288952577
 30
0.0
 11
112.8596260626
 21
177.288952577
 31
0.0
  0
LWPOLYLINE
  5
229
330
A
100
AcDbEntity
  8
1
  6
CONTINUOUS
370
    50
100
AcDbPolyline
 90
       24
 70
   128
 43
0.0
 10
108.1548826687
 20
169.8006096788
 10
108.1159162694
 20
170.2348831839
 10
108.1556096237
 20
170.6369486097
 10
108.2710188571
 20
170.9769866031
 10
108.4535845949
 20
171.2297781015
 10
108.6897667714
 20
171.376574716
 10
108.9620488351
 20
171.4064892133
 10
109.2502368708
 20
171.3173029719
 10
109.5329572903
 20
171.1156305274
 10
109.7892420136
 20
170.8164290024
 10
110.0000835751
 20
170.4418888052
 10
110.1498448206
 20
170.0197878689
 10
110.2274186438
 20
169.5814314888
 10
110.2270517491
 20
169.1593305525
 10
110.1487713473
 20
168.7847903553
 10
109.9983831378
 20
168.4855888303
 10
109.787040726
 20
168.2839163857
 10
109.5304184119
 20
168.1947301444
 10
109.2475486984
 20
168.2246446417
 10
108.9594107383
 20
168.3714412562
 10
108.6873744058
 20
168.6242327546
 10
108.4516153912
 20
168.964270748
 10
108.2696188622
 20
169.3663361738
 10
108.1548826687
 20
169.8006096788
  0
LINE
  5
243
330
A
100
AcDbEntity
  8
1
  6
CONTINUOUS
370
    50
100
AcDbLine
 10
113.1846260626
 20
136.7710947207
 30
0.0
 11
113.1846260626
 21
190.4068104332
 31
0.0
  0
LINE
  5
244
330
A
100
AcDbEntity
  8
1
  6
CONTINUOUS
370
    50
100
AcDbLine
 10
113.6846260626
 20
181.938952577
 30
0.0
 11
113.6846260626
 21
185.3955456167
 31
0.0
  0
LINE
  5
245
330
A
100
AcDbEntity
  8
1
  6
CONTINUOUS
370
    50
100
AcDbLine
 10
109.8346260626
 20
181.938952577
 30
0.0
 11
109.8346260626
 21
185.3955456167
 31
0.0
  0
LINE
  5
246
330
A
100
AcDbEntity
  8
1
  6
CONTINUOUS
370
    50
100
AcDbLine
 10
110.3346260626
 20
136.7710947207
 30
0.0
 11
110.3346260626
 21
190.4068104332
 31
0.0
  0
LINE
  5
247
330
A
100
AcDbEntity
  8
1
  6
CONTINUOUS
370
    50
100
AcDbLine
 10
108.2377894205
 20
189.499182217
 30
0.0
 11
108.2377894205
 21
181.938952577
 31
0.0
  0
LINE
  5
248
330
A
100
AcDbEntity
  8
1
  6
CONTINUOUS
370
    50
100
AcDbLine
 10
119.2096260626
 20
189.499182217
 30
0.0
 11
119.2096260626
 21
181.938952577
 31
0.0
  0
LINE
  5
249
330
A
100
AcDbEntity
  8
1
  6
CONTINUOUS
370
    50
100
AcDbLine
 10
115.2814627046
 20
189.499182217
 30
0.0
 11
115.2814627046
 21
181.938952577
 31
0.0
  0
LINE
  5
24A
330
A
100
AcDbEntity
  8
1
  6
CONTINUOUS
370
    50
100
AcDbLine
 10
102.1596260626
 20
181.938952577
 30
0.0
 11
102.1596260626
 21
189.499182217
 31
0.0
  0
LWPOLYLINE
  5
24B
330
A
100
AcDbEntity
  8
1
  6
CONTINUOUS
370
    50
100
AcDbPolyline
 90
       26
 70
   128
 43
0.0
 10
107.9458332311
 20
169.8028081419
 10
107.898872543
 20
170.2880192814
 10
107.9326721613
 20
170.7427428204
 10
108.0451083317
 20
171.1384068068
 10
108.229116276
 20
171.4501502171
 10
108.4731340985
 20
171.6583850663
 10
108.7618292618
 20
171.750027193
 10
109.0770619872
 20
171.7193183853
 10
109.3990250431
 20
171.5681881907
 10
109.7074883067
 20
171.3061326749
 10
109.9830698966
 20
170.9496177499
 10
110.2084540081
 20
170.5210445596
 10
110.3694789284
 20
170.0473419336
 10
110.4560268697
 20
169.5582743502
 10
110.4626597066
 20
169.0845717243
 10
110.3889606733
 20
168.655998534
 10
110.2395605514
 20
168.299483609
 10
110.0238466998
 20
168.0374280932
 10
109.7553732133
 20
167.8862978986
 10
109.4510092683
 20
167.8555890909
 10
109.129879171
 20
167.9472312176
 10
108.8121607062
 20
168.1554660668
 10
108.5178172938
 20
168.4672094771
 10
108.2653436127
 20
168.8628734635
 10
108.0706035129
 20
169.3175970025
 10
107.9458332311
 20
169.8028081419
  0
LWPOLYLINE
  5
267
330
A
100
AcDbEntity
  8
1
  6
CONTINUOUS
370
    50
100
AcDbPolyline
 90
       26
 70
   128
 43
0.0
 10
107.9381727867
 20
169.8006096788
 10
107.8912120986
 20
170.2858208183
 10
107.9250117169
 20
170.7405443573
 10
108.0374478873
 20
171.1362083437
 10
108.2214558316
 20
171.447951754
 10
108.4654736541
 20
171.6561866032
 10
108.7541688174
 20
171.7478287299
 10
109.0694015428
 20
171.7171199222
 10
109.3913645987
 20
171.5659897276
 10
109.6998278623
 20
171.3039342118
 10
109.9754094522
 20
170.9474192868
 10
110.2007935636
 20
170.5188460965
 10
110.361818484
 20
170.0451434705
 10
110.4483664253
 20
169.5560758871
 10
110.4549992621
 20
169.0823732612
 10
110.3813002289
 20
168.6538000709
 10
110.231900107
 20
168.2972851459
 10
110.0161862554
 20
168.0352296301
 10
109.7477127689
 20
167.8840994355
 10
109.4433488239
 20
167.8533906278
 10
109.1222187265
 20
167.9450327545
 10
108.8045002618
 20
168.1532676037
 10
108.5101568493
 20
168.465011014
 10
108.2576831683
 20
168.8606750003
 10
108.0629430685
 20
169.3153985394
 10
107.9381727867
 20
169.8006096788
  0
LWPOLYLINE
  5
283
330
A
100
AcDbEntity
  8
1
  6
CONTINUOUS
370
    50
100
AcDbPolyline
 90
       24
 70
   128
 43
0.0
 10
108.1625431132
 20
169.8028081419
 10
108.1235767138
 20
170.237081647
 10
108.1632700681
 20
170.6391470728
 10
108.2786793016
 20
170.9791850662
 10
108.4612450394
 20
171.2319765646
 10
108.6974272159
 20
171.3787731791
 10
108.9697092795
 20
171.4086876764
 10
109.2578973152
 20
171.319501435
 10
109.5406177348
 20
171.1178289905
 10
109.796902458
 20
170.8186274655
 10
110.0077440195
 20
170.4440872683
 10
110.1575052651
 20
170.021986332
 10
110.2350790883
 20
169.5836299519
 10
110.2347121935
 20
169.1615290156
 10
110.1564317918
 20
168.7869888184
 10
110.0060435822
 20
168.4877872934
 10
109.7947011704
 20
168.2861148489
 10
109.5380788563
 20
168.1969286075
 10
109.2552091429
 20
168.2268431048
 10
108.9670711827
 20
168.3736397193
 10
108.6950348502
 20
168.6264312177
 10
108.4592758357
 20
168.9664692111
 10
108.2772793067
 20
169.3685346369
 10
108.1625431132
 20
169.8028081419
  0
LWPOLYLINE
  5
29D
330
A
100
AcDbEntity
  8
1
  6
CONTINUOUS
370
    50
100
AcDbPolyline
 90
       24
 70
   128
 43
0.0
 10
118.3446579255
 20
172.1385684306
 10
118.229921732
 20
172.5728419357
 10
118.047925203
 20
172.9749073615
 10
117.8121661884
 20
173.3149453548
 10
117.5401298559
 20
173.5677368533
 10
117.2519918958
 20
173.7145334678
 10
116.9691221823
 20
173.7444479651
 10
116.7124998682
 20
173.6552617237
 10
116.5011574564
 20
173.4535892792
 10
116.3507692469
 20
173.1543877542
 10
116.2724888451
 20
172.779847557
 10
116.2721219503
 20
172.3577466206
 10
116.3496957736
 20
171.9193902406
 10
116.4994570191
 20
171.4972893043
 10
116.7102985806
 20
171.1227491071
 10
116.9665833038
 20
170.823547582
 10
117.2493037234
 20
170.6218751375
 10
117.5374917591
 20
170.5326888962
 10
117.8097738228
 20
170.5626033934
 10
118.0459559993
 20
170.709400008
 10
118.228521737
 20
170.9621915064
 10
118.3439309705
 20
171.3022294997
 10
118.3836243248
 20
171.7042949256
 10
118.3446579255
 20
172.1385684306
  0
ARC
  5
2B7
330
A
100
AcDbEntity
  8
1
  6
CONTINUOUS
370
    50
100
AcDbCircle
 10
113.0709729553
 20
169.111651866
 30
0.0
 40
1.5840694386
100
AcDbArc
 50
187.0718338999
 51
190.4162179391
  0
ARC
  5
2B8
330
A
100
AcDbEntity
  8
1
  6
CONTINUOUS
370
    50
100
AcDbCircle
 10
107.2729368433
 20
178.8716692442
 30
0.0
 40
10.904523203
100
AcDbArc
 50
292.8820937122
 51
294.2172889972
  0
ARC
  5
2B9
330
A
100
AcDbEntity
  8
1
  6
CONTINUOUS
370
    50
100
AcDbCircle
 10
111.428564791
 20
173.6389266257
 30
0.0
 40
4.7228198893
100
AcDbArc
 50
270.8539739892
 51
273.8533608673
  0
LWPOLYLINE
  5
2BA
330
A
100
AcDbEntity
  8
1
  6
CONTINUOUS
370
    50
100
AcDbPolyline
 90
       18
 70
   128
 43
0.0
 10
111.4989541992
 20
172.0176169597
 10
111.4822846806
 20
172.1217983671
 10
111.4661828224
 20
172.169631828
 10
111.4511969542
 20
172.1594884314
 10
111.4378374016
 20
172.0917135985
 10
111.4265591083
 20
171.9686153198
 10
111.417746143
 20
171.7943855598
 10
111.4116986206
 20
171.5749575038
 10
111.4086224823
 20
171.3178035111
 10
111.4086224823
 20
171.0316806526
 10
111.4116986206
 20
170.726332499
 10
111.417746143
 20
170.4121573155
 10
111.4265591083
 20
170.0998539611
 10
111.4378374016
 20
169.800057552
 10
111.4511969542
 20
169.5229772953
 10
111.4661828224
 20
169.2780488269
 10
111.4822846806
 20
169.073612892
 10
111.4989541992
 20
168.9166313111
  0
ARC
  5
2CE
330
A
100
AcDbEntity
  8
1
  6
CONTINUOUS
370
    50
100
AcDbCircle
 10
111.5694817563
 20
167.3019676705
 30
0.0
 40
4.7161766671
100
AcDbArc
 50
87.8555877577
 51
90.85685551569999
  0
ARC
  5
2CF
330
A
100
AcDbEntity
  8
1
  6
CONTINUOUS
370
    50
100
AcDbCircle
 10
117.5193493468
 20
161.0661626939
 30
0.0
 40
12.3776278964
100
AcDbArc
 50
117.8033277306
 51
119.0293663287
  0
ARC
  5
2D0
330
A
100
AcDbEntity
  8
1
  6
CONTINUOUS
370
    50
100
AcDbCircle
 10
107.2436589246
 20
171.4881693815
 30
0.0
 40
4.288105947
100
AcDbArc
 50
5.3609071018
 51
7.0923433104
  0
LWPOLYLINE
  5
2D1
330
A
100
AcDbEntity
  8
1
  6
CONTINUOUS
370
    50
100
AcDbPolyline
 90
       18
 70
   128
 43
0.0
 10
111.4989541992
 20
168.9166313111
 10
111.0013895977
 20
168.9356013045
 10
110.520768962
 20
169.0067254711
 10
110.0734592513
 20
169.1275817626
 10
109.6746930613
 20
169.294054563
 10
109.3380498965
 20
169.5004748408
 10
109.0749937359
 20
169.7398132009
 10
108.8944826417
 20
170.0039192626
 10
108.8026637027
 20
170.2837992106
 10
108.8026637027
 20
170.5699220692
 10
108.8944826417
 20
170.8525442673
 10
109.0749937359
 20
171.1220414452
 10
109.3380498965
 20
171.3692361995
 10
109.6746930613
 20
171.5857106095
 10
110.0734592513
 20
171.7640928987
 10
110.520768962
 20
171.8983084722
 10
111.0013895977
 20
171.9837867796
 10
111.4989541992
 20
172.0176169597
  0
LWPOLYLINE
  5
2E5
330
A
100
AcDbEntity
  8
1
  6
CONTINUOUS
370
    50
100
AcDbPolyline
 90
        9
 70
   128
 43
0.0
 10
111.5130084515
 20
171.8888029168
 10
111.5419282846
 20
171.909611426
 10
111.5709602068
 20
171.929009541
 10
111.6000765698
 20
171.9469787878
 10
111.6292496445
 20
171.9635020536
 10
111.6584516482
 20
171.9785636025
 10
111.6876547704
 20
171.9921490905
 10
111.7168311995
 20
172.0042455797
 10
111.7459531494
 20
172.0148415499
  0
LWPOLYLINE
  5
2F0
330
A
100
AcDbEntity
  8
1
  6
CONTINUOUS
370
    50
100
AcDbPolyline
 90
        9
 70
   128
 43
0.0
 10
111.7459531494
 20
168.9267835531
 10
111.7168311995
 20
168.9089299767
 10
111.6876547704
 20
168.892523698
 10
111.6584516482
 20
168.8775803415
 10
111.6292496445
 20
168.8641141383
 10
111.6000765698
 20
168.8521379131
 10
111.5709602068
 20
168.8416630714
 10
111.5419282846
 20
168.8326995888
 10
111.5130084515
 20
168.8252560016
  0
LINE
  5
2FB
330
A
100
AcDbEntity
  8
1
  6
CONTINUOUS
370
    50
100
AcDbLine
 10
118.7096260626
 20
170.6272944672
 30
0.0
 11
118.7096260626
 21
170.625112222
 31
0.0
  0
LWPOLYLINE
  5
2FC
330
A
100
AcDbEntity
  8
1
  6
CONTINUOUS
370
    50
100
AcDbPolyline
 90
       22
 70
   128
 43
0.0
 10
118.7096260626
 20
170.6272944672
 10
118.4916113069
 20
170.366865095
 10
118.2230160076
 20
170.2128996707
 10
117.9192618597
 20
170.1742382887
 10
117.5977892423
 20
170.2531007349
 10
117.2770558599
 20
170.444959035
 10
116.9754769729
 20
170.7387974334
 10
116.7103680654
 20
171.1177448747
 10
116.4969506574
 20
171.560043674
 10
116.3474783445
 20
172.0402987586
 10
116.2705332442
 20
172.5309357537
 10
116.2705332442
 20
173.0037841957
 10
116.3474783445
 20
173.4316949703
 10
116.4969506574
 20
173.790099109
 10
116.7103680654
 20
174.0584184433
 10
116.9754769729
 20
174.2212471231
 10
117.2770558599
 20
174.2692361602
 10
117.5977892423
 20
174.1996302114
 10
117.9192618597
 20
174.0164257787
 10
118.2230160076
 20
173.7301417466
 10
118.4916113069
 20
173.3572154282
 10
118.7096260626
 20
172.9190587988
  0
LINE
  5
314
330
A
100
AcDbEntity
  8
1
  6
CONTINUOUS
370
    50
100
AcDbLine
 10
118.7096260626
 20
172.9234856348
 30
0.0
 11
118.7096260626
 21
172.9190587988
 31
0.0
  0
LWPOLYLINE
  5
315
330
A
100
AcDbEntity
  8
1
  6
CONTINUOUS
370
    50
100
AcDbPolyline
 90
        9
 70
   128
 43
0.0
 10
118.7096260626
 20
170.625112222
 10
118.8180728704
 20
170.8430576801
 10
118.8974575955
 20
171.0942283869
 10
118.945866903
 20
171.3725706127
 10
118.9621340292
 20
171.6713757382
 10
118.945866903
 20
171.9834419466
 10
118.8974575955
 20
172.3012478014
 10
118.8180728704
 20
172.617133529
 10
118.7096260626
 20
172.9234856348
  0
LWPOLYLINE
  5
320
330
A
100
AcDbEntity
  8
1
  6
CONTINUOUS
370
    50
100
AcDbPolyline
 90
       22
 70
   128
 43
0.0
 10
118.7096260626
 20
172.8960676804
 10
118.4938817028
 20
173.3363670444
 10
118.2268177662
 20
173.7120657922
 10
117.9238897064
 20
174.0014215849
 10
117.6026284963
 20
174.1876889003
 10
117.2816260798
 20
174.2600881255
 10
116.9794594243
 20
174.2144293917
 10
116.7136154386
 20
174.0533550491
 10
116.499478976
 20
173.7861867494
 10
116.3494424851
 20
173.4283859862
 10
116.2721888383
 20
173.0006593108
 10
116.2721888384
 20
172.5277600086
 10
116.3494424851
 20
172.0370555833
 10
116.499478976
 20
171.5569439521
 10
116.7136154387
 20
171.1152100087
 10
116.9794594243
 20
170.7374176633
 10
117.2816260798
 20
170.445430415
 10
117.6026284963
 20
170.2561460728
 10
117.9238897064
 20
170.1805188502
 10
118.2268177662
 20
170.2229254259
 10
118.4938817028
 20
170.3809116578
 10
118.7096260626
 20
170.6453346083
  0
LINE
  5
338
330
A
100
AcDbEntity
  8
1
  6
CONTINUOUS
370
    50
100
AcDbLine
 10
118.7096260626
 20
172.9190587988
 30
0.0
 11
118.7096260626
 21
172.8960676804
 31
0.0
  0
LINE
  5
339
330
A
100
AcDbEntity
  8
1
  6
CONTINUOUS
370
    50
100
AcDbLine
 10
115.8096260626
 20
155.0325141995
 30
0.0
 11
115.8096260626
 21
162.0325141995
 31
0.0
  0
LINE
  5
33A
330
A
100
AcDbEntity
  8
1
  6
CONTINUOUS
370
    50
100
AcDbLine
 10
115.8096260626
 20
169.7060234994
 30
0.0
 11
115.8096260626
 21
169.8589568535
 31
0.0
  0
LINE
  5
33B
330
A
100
AcDbEntity
  8
1
  6
CONTINUOUS
370
    50
100
AcDbLine
 10
115.8096260626
 20
162.8589568535
 30
0.0
 11
115.8096260626
 21
169.7060234994
 31
0.0
  0
LINE
  5
33C
330
A
100
AcDbEntity
  8
1
  6
CONTINUOUS
370
    50
100
AcDbLine
 10
118.7096260626
 20
170.6453346083
 30
0.0
 11
118.7096260626
 21
170.6272944672
 31
0.0
  0
LINE
  5
33D
330
A
100
AcDbEntity
  8
1
  6
CONTINUOUS
370
    50
100
AcDbLine
 10
103.4596260626
 20
183.588952577
 30
0.0
 11
103.4596260626
 21
143.588952577
 31
0.0
  0
LINE
  5
33E
330
A
100
AcDbEntity
  8
1
  6
CONTINUOUS
370
    50
100
AcDbLine
 10
103.4596260626
 20
143.588952577
 30
0.0
 11
107.4596260626
 21
143.588952577
 31
0.0
  0
LINE
  5
33F
330
A
100
AcDbEntity
  8
1
  6
CONTINUOUS
370
    50
100
AcDbLine
 10
107.4596260626
 20
143.588952577
 30
0.0
 11
107.4596260626
 21
183.588952577
 31
0.0
  0
LINE
  5
340
330
A
100
AcDbEntity
  8
1
  6
CONTINUOUS
370
    50
100
AcDbLine
 10
116.2596260626
 20
143.588952577
 30
0.0
 11
118.2596260626
 21
143.588952577
 31
0.0
  0
LINE
  5
341
330
A
100
AcDbEntity
  8
1
  6
CONTINUOUS
370
    50
100
AcDbLine
 10
116.2596260626
 20
183.588952577
 30
0.0
 11
116.2596260626
 21
143.588952577
 31
0.0
  0
LINE
  5
342
330
A
100
AcDbEntity
  8
1
  6
CONTINUOUS
370
    50
100
AcDbLine
 10
118.2596260626
 20
143.588952577
 30
0.0
 11
118.2596260626
 21
183.588952577
 31
0.0
  0
LINE
  5
343
330
A
100
AcDbEntity
  8
1
  6
CONTINUOUS
370
    50
100
AcDbLine
 10
118.2596260626
 20
183.588952577
 30
0.0
 11
116.2596260626
 21
183.588952577
 31
0.0
  0
LINE
  5
344
330
A
100
AcDbEntity
  8
1
  6
CONTINUOUS
370
    50
100
AcDbLine
 10
107.4596260626
 20
183.588952577
 30
0.0
 11
103.4596260626
 21
183.588952577
 31
0.0
  0
LINE
  5
345
330
A
100
AcDbEntity
  8
1
  6
CONTINUOUS
370
    50
100
AcDbLine
 10
119.7096260626
 20
156.5391785773
 30
0.0
 11
118.189957056
 21
156.9753068295
 31
0.0
  0
LINE
  5
346
330
A
100
AcDbEntity
  8
1
  6
CONTINUOUS
370
    50
100
AcDbLine
 10
117.0313715208
 20
152.9382683658
 30
0.0
 11
119.7096260626
 21
152.169638837
 31
0.0
  0
LINE
  5
347
330
A
100
AcDbEntity
  8
1
  6
CONTINUOUS
370
    50
100
AcDbLine
 10
101.6596260626
 20
152.6577520454
 30
0.0
 11
111.4621180695
 21
155.0053026532
 31
0.0
  0
LINE
  5
348
330
A
100
AcDbEntity
  8
1
  6
CONTINUOUS
370
    50
100
AcDbLine
 10
110.3994410938
 20
158.1441206933
 30
0.0
 11
101.6596260626
 21
156.0510653689
 31
0.0
  0
LINE
  5
349
330
A
100
AcDbEntity
  8
1
  6
CONTINUOUS
370
    50
100
AcDbLine
 10
116.7577276592
 20
156.1355719587
 30
0.0
 11
116.6530906749
 21
155.9682853891
 31
0.0
  0
LINE
  5
34A
330
A
100
AcDbEntity
  8
1
  6
CONTINUOUS
370
    50
100
AcDbLine
 10
116.2624260685
 20
154.6070323834
 30
0.0
 11
116.2624260685
 21
154.4097161528
 31
0.0
  0
LINE
  5
34B
330
A
100
AcDbEntity
  8
1
  6
CONTINUOUS
370
    50
100
AcDbLine
 10
117.7781842276
 20
156.6253161197
 30
0.0
 11
109.6393340172
 21
158.9610764084
 31
0.0
  0
LINE
  5
34C
330
A
100
AcDbEntity
  8
1
  6
CONTINUOUS
370
    50
100
AcDbLine
 10
111.4600220691
 20
155.0053492127
 30
0.0
 11
116.8678670214
 21
153.4533573268
 31
0.0
  0
LINE
  5
34D
330
A
100
AcDbEntity
  8
1
  6
CONTINUOUS
370
    50
100
AcDbLine
 10
108.729016811
 20
155.7891176155
 30
0.0
 11
110.3368780642
 21
155.3276791607
 31
0.0
  0
LINE
  5
34E
330
A
100
AcDbEntity
  8
1
  6
CONTINUOUS
370
    50
100
AcDbLine
 10
101.9127799561
 20
186.5816116083
 30
0.0
 11
101.6596260626
 21
187.1245018849
 31
0.0
  0
ARC
  5
34F
330
A
100
AcDbEntity
  8
1
  6
CONTINUOUS
370
    50
100
AcDbCircle
 10
101.4596260626
 20
186.3703024774
 30
0.0
 40
0.5
100
AcDbArc
 50
0.0
 51
25.0
  0
ARC
  5
350
330
A
100
AcDbEntity
  8
1
  6
CONTINUOUS
370
    50
100
AcDbCircle
 10
101.4596260626
 20
141.163952577
 30
0.0
 40
0.5
100
AcDbArc
 50
0.0
 51
66.4218215218
  0
ARC
  5
351
330
A
100
AcDbEntity
  8
1
  6
CONTINUOUS
370
    50
100
AcDbCircle
 10
101.4596260626
 20
186.013952577
 30
0.0
 40
0.5
100
AcDbArc
 50
293.5781784782001
 51
0.0
  0
LINE
  5
352
330
A
100
AcDbEntity
  8
1
  6
CONTINUOUS
370
    50
100
AcDbLine
 10
109.6316735728
 20
158.9632748715
 30
0.0
 11
97.3924942936
 21
162.4757844014
 31
0.0
  0
LINE
  5
353
330
A
100
AcDbEntity
  8
1
  6
CONTINUOUS
370
    50
100
AcDbLine
 10
95.2028506299
 20
159.6709781986
 30
0.0
 11
108.7213563665
 21
155.7913160786
 31
0.0
  0
ARC
  5
354
330
A
100
AcDbEntity
  8
1
  6
CONTINUOUS
370
    50
100
AcDbCircle
 10
179.1596260626
 20
152.153952577
 30
0.0
 40
1.5
100
AcDbArc
 50
0.0
 51
73.0710674448
  0
ARC
  5
355
330
A
100
AcDbEntity
  8
1
  6
CONTINUOUS
370
    50
100
AcDbCircle
 10
179.1596260626
 20
175.023952577
 30
0.0
 40
1.5
100
AcDbArc
 50
286.9289325552
 51
0.0
  0
LINE
  5
356
330
A
100
AcDbEntity
  8
1
  6
CONTINUOUS
370
    50
100
AcDbLine
 10
138.5441560126
 20
153.388952577
 30
0.0
 11
138.6596260664
 21
153.588952577
 31
0.0
  0
LINE
  5
357
330
A
100
AcDbEntity
  8
1
  6
CONTINUOUS
370
    50
100
AcDbLine
 10
138.6596260664
 20
173.588952577
 30
0.0
 11
138.5441560126
 21
173.788952577
 31
0.0
  0
LINE
  5
358
330
A
100
AcDbEntity
  8
1
  6
CONTINUOUS
370
    50
100
AcDbLine
 10
129.1596260626
 20
153.388952577
 30
0.0
 11
138.5441560126
 21
153.388952577
 31
0.0
  0
LINE
  5
359
330
A
100
AcDbEntity
  8
1
  6
CONTINUOUS
370
    50
100
AcDbLine
 10
138.5441560126
 20
173.788952577
 30
0.0
 11
129.1596260626
 21
173.788952577
 31
0.0
  0
ARC
  5
35A
330
A
100
AcDbEntity
  8
1
  6
CONTINUOUS
370
    50
100
AcDbCircle
 10
129.1596260626
 20
153.888952577
 30
0.0
 40
0.5
100
AcDbArc
 50
180.0
 51
270.0
  0
ARC
  5
35B
330
A
100
AcDbEntity
  8
1
  6
CONTINUOUS
370
    50
100
AcDbCircle
 10
129.1596260626
 20
173.288952577
 30
0.0
 40
0.5
100
AcDbArc
 50
90.0
 51
180.0
  0
LINE
  5
35C
330
A
100
AcDbEntity
  8
1
  6
CONTINUOUS
370
    50
100
AcDbLine
 10
138.6596260664
 20
153.588952577
 30
0.0
 11
179.5964040382
 21
153.588952577
 31
0.0
  0
LINE
  5
35D
330
A
100
AcDbEntity
  8
1
  6
CONTINUOUS
370
    50
100
AcDbLine
 10
179.5964040382
 20
173.588952577
 30
0.0
 11
138.6596260664
 21
173.588952577
 31
0.0
  0
ARC
  5
35E
330
A
100
AcDbEntity
  8
1
  6
CONTINUOUS
370
    50
100
AcDbCircle
 10
33.4096260626
 20
154.088952577
 30
0.0
 40
1.0
100
AcDbArc
 50
136.778654881
 51
180.0
  0
ARC
  5
35F
330
A
100
AcDbEntity
  8
1
  6
CONTINUOUS
370
    50
100
AcDbCircle
 10
33.4096260626
 20
173.088952577
 30
0.0
 40
1.0
100
AcDbArc
 50
180.0
 51
223.221345119
  0
LINE
  5
360
330
A
100
AcDbEntity
  8
1
  6
CONTINUOUS
370
    50
100
AcDbLine
 10
32.6809125087
 20
154.7737712072
 30
0.0
 11
33.1809125087
 21
155.0624463418
 31
0.0
  0
LINE
  5
361
330
A
100
AcDbEntity
  8
1
  6
CONTINUOUS
370
    50
100
AcDbLine
 10
33.1809125087
 20
172.1154588121
 30
0.0
 11
32.6809125087
 21
172.4041339467
 31
0.0
  0
LINE
  5
362
330
A
100
AcDbEntity
  8
1
  6
CONTINUOUS
370
    50
100
AcDbLine
 10
40.9096260626
 20
172.238952577
 30
0.0
 11
38.5993374943
 21
172.238952577
 31
0.0
  0
LINE
  5
363
330
A
100
AcDbEntity
  8
1
  6
CONTINUOUS
370
    50
100
AcDbLine
 10
38.5993374943
 20
154.938952577
 30
0.0
 11
40.9096260626
 21
154.938952577
 31
0.0
  0
LINE
  5
364
330
A
100
AcDbEntity
  8
1
  6
CONTINUOUS
370
    50
100
AcDbLine
 10
38.5993374943
 20
172.238952577
 30
0.0
 11
38.3395298731
 21
172.088952577
 31
0.0
  0
LINE
  5
365
330
A
100
AcDbEntity
  8
1
  6
CONTINUOUS
370
    50
100
AcDbLine
 10
38.3395298731
 20
155.088952577
 30
0.0
 11
38.5993374943
 21
154.938952577
 31
0.0
  0
LINE
  5
366
330
A
100
AcDbEntity
  8
1
  6
CONTINUOUS
370
    50
100
AcDbLine
 10
40.9096260626
 20
154.938952577
 30
0.0
 11
41.8189527365
 21
156.513952577
 31
0.0
  0
LINE
  5
367
330
A
100
AcDbEntity
  8
1
  6
CONTINUOUS
370
    50
100
AcDbLine
 10
41.8189527365
 20
170.663952577
 30
0.0
 11
40.9096260626
 21
172.238952577
 31
0.0
  0
ARC
  5
368
330
A
100
AcDbEntity
  8
1
  6
CONTINUOUS
370
    50
100
AcDbCircle
 10
33.4096260626
 20
154.088952577
 30
0.0
 40
1.0
100
AcDbArc
 50
90.0
 51
103.221345119
  0
ARC
  5
369
330
A
100
AcDbEntity
  8
1
  6
CONTINUOUS
370
    50
100
AcDbCircle
 10
33.4096260626
 20
173.088952577
 30
0.0
 40
1.0
100
AcDbArc
 50
256.778654881
 51
270.0
  0
LINE
  5
36A
330
A
100
AcDbEntity
  8
1
  6
CONTINUOUS
370
    50
100
AcDbLine
 10
33.4096260626
 20
155.088952577
 30
0.0
 11
38.3395298731
 21
155.088952577
 31
0.0
  0
LINE
  5
36B
330
A
100
AcDbEntity
  8
1
  6
CONTINUOUS
370
    50
100
AcDbLine
 10
38.3395298731
 20
172.088952577
 30
0.0
 11
33.4096260626
 21
172.088952577
 31
0.0
  0
LINE
  5
36C
330
A
100
AcDbEntity
  8
1
  6
CONTINUOUS
370
    50
100
AcDbLine
 10
98.6596260626
 20
156.088952577
 30
0.0
 11
128.6596260626
 21
156.088952577
 31
0.0
  0
LINE
  5
36D
330
A
100
AcDbEntity
  8
1
  6
CONTINUOUS
370
    50
100
AcDbLine
 10
128.6596260626
 20
171.088952577
 30
0.0
 11
98.6596260626
 21
171.088952577
 31
0.0
  0
LINE
  5
36E
330
A
100
AcDbEntity
  8
1
  6
CONTINUOUS
370
    50
100
AcDbLine
 10
90.6596260626
 20
171.088952577
 30
0.0
 11
90.3853846847
 21
170.613952577
 31
0.0
  0
LINE
  5
36F
330
A
100
AcDbEntity
  8
1
  6
CONTINUOUS
370
    50
100
AcDbLine
 10
90.3853846847
 20
156.563952577
 30
0.0
 11
90.6596260626
 21
156.088952577
 31
0.0
  0
LINE
  5
370
330
A
100
AcDbEntity
  8
1
  6
CONTINUOUS
370
    50
100
AcDbLine
 10
90.6596260626
 20
156.088952577
 30
0.0
 11
98.6496260626
 21
156.088952577
 31
0.0
  0
LINE
  5
371
330
A
100
AcDbEntity
  8
1
  6
CONTINUOUS
370
    50
100
AcDbLine
 10
98.6496260626
 20
171.088952577
 30
0.0
 11
90.6596260626
 21
171.088952577
 31
0.0
  0
LINE
  5
372
330
A
100
AcDbEntity
  8
1
  6
CONTINUOUS
370
    50
100
AcDbLine
 10
77.4096260626
 20
170.663952577
 30
0.0
 11
66.4096260626
 21
170.663952577
 31
0.0
  0
LINE
  5
373
330
A
100
AcDbEntity
  8
1
  6
CONTINUOUS
370
    50
100
AcDbLine
 10
66.4096260626
 20
156.513952577
 30
0.0
 11
77.4096260626
 21
156.513952577
 31
0.0
  0
LINE
  5
374
330
A
100
AcDbEntity
  8
1
  6
CONTINUOUS
370
    50
100
AcDbLine
 10
66.3996260626
 20
170.663952577
 30
0.0
 11
41.8189527365
 21
170.663952577
 31
0.0
  0
LINE
  5
375
330
A
100
AcDbEntity
  8
1
  6
CONTINUOUS
370
    50
100
AcDbLine
 10
41.8189527365
 20
156.513952577
 30
0.0
 11
66.3996260626
 21
156.513952577
 31
0.0
  0
LINE
  5
376
330
A
100
AcDbEntity
  8
1
  6
CONTINUOUS
370
    50
100
AcDbLine
 10
90.3853846847
 20
170.613952577
 30
0.0
 11
77.4278245743
 21
170.613952577
 31
0.0
  0
LINE
  5
377
330
A
100
AcDbEntity
  8
1
  6
CONTINUOUS
370
    50
100
AcDbLine
 10
77.4278245743
 20
156.563952577
 30
0.0
 11
90.3853846847
 21
156.563952577
 31
0.0
  0
LINE
  5
378
330
A
100
AcDbEntity
  8
1
  6
CONTINUOUS
370
    50
100
AcDbLine
 10
106.5596260626
 20
188.388952577
 30
0.0
 11
106.7596260626
 21
188.188952577
 31
0.0
  0
LINE
  5
379
330
A
100
AcDbEntity
  8
1
  6
CONTINUOUS
370
    50
100
AcDbLine
 10
116.7596260626
 20
188.188952577
 30
0.0
 11
116.9596260626
 21
188.388952577
 31
0.0
  0
ARC
  5
37A
330
A
100
AcDbEntity
  8
1
  6
CONTINUOUS
370
    50
100
AcDbCircle
 10
107.0596260626
 20
183.988952577
 30
0.0
 40
0.3
100
AcDbArc
 50
180.0
 51
270.0
  0
ARC
  5
37B
330
A
100
AcDbEntity
  8
1
  6
CONTINUOUS
370
    50
100
AcDbCircle
 10
116.4596260626
 20
183.988952577
 30
0.0
 40
0.3
100
AcDbArc
 50
270.0
 51
0.0
  0
LINE
  5
37C
330
A
100
AcDbEntity
  8
1
  6
CONTINUOUS
370
    50
100
AcDbLine
 10
106.7596260626
 20
188.188952577
 30
0.0
 11
106.7596260626
 21
183.988952577
 31
0.0
  0
LINE
  5
37D
330
A
100
AcDbEntity
  8
1
  6
CONTINUOUS
370
    50
100
AcDbLine
 10
116.7596260626
 20
183.988952577
 30
0.0
 11
116.7596260626
 21
188.188952577
 31
0.0
  0
LINE
  5
37E
330
A
100
AcDbEntity
  8
1
  6
CONTINUOUS
370
    50
100
AcDbLine
 10
110.2596260626
 20
183.688952577
 30
0.0
 11
110.6596260626
 21
183.288952577
 31
0.0
  0
LINE
  5
37F
330
A
100
AcDbEntity
  8
1
  6
CONTINUOUS
370
    50
100
AcDbLine
 10
112.8596260626
 20
183.288952577
 30
0.0
 11
113.2596260626
 21
183.688952577
 31
0.0
  0
LINE
  5
380
330
A
100
AcDbEntity
  8
1
  6
CONTINUOUS
370
    50
100
AcDbLine
 10
110.6596260626
 20
177.288952577
 30
0.0
 11
111.7596260626
 21
176.8885853193
 31
0.0
  0
LINE
  5
381
330
A
100
AcDbEntity
  8
1
  6
CONTINUOUS
370
    50
100
AcDbLine
 10
111.7596260626
 20
176.8885853193
 30
0.0
 11
112.8596260626
 21
177.288952577
 31
0.0
  0
LINE
  5
382
330
A
100
AcDbEntity
  8
1
  6
CONTINUOUS
370
    50
100
AcDbLine
 10
110.6596260626
 20
179.878952577
 30
0.0
 11
110.6596260626
 21
177.288952577
 31
0.0
  0
LINE
  5
383
330
A
100
AcDbEntity
  8
1
  6
CONTINUOUS
370
    50
100
AcDbLine
 10
112.8596260626
 20
177.288952577
 30
0.0
 11
112.8596260626
 21
179.878952577
 31
0.0
  0
LINE
  5
384
330
A
100
AcDbEntity
  8
1
  6
CONTINUOUS
370
    50
100
AcDbLine
 10
110.6596260626
 20
183.288952577
 30
0.0
 11
110.6596260626
 21
179.888952577
 31
0.0
  0
LINE
  5
385
330
A
100
AcDbEntity
  8
1
  6
CONTINUOUS
370
    50
100
AcDbLine
 10
112.8596260626
 20
179.888952577
 30
0.0
 11
112.8596260626
 21
183.288952577
 31
0.0
  0
LINE
  5
386
330
A
100
AcDbEntity
  8
1
  6
CONTINUOUS
370
    50
100
AcDbLine
 10
108.7213563665
 20
171.3865890753
 30
0.0
 11
95.2028506299
 21
167.5069269553
 31
0.0
  0
LINE
  5
387
330
A
100
AcDbEntity
  8
1
  6
CONTINUOUS
370
    50
100
AcDbLine
 10
97.3925478369
 20
164.7021361188
 30
0.0
 11
109.6316735728
 21
168.2146302824
 31
0.0
  0
LINE
  5
388
330
A
100
AcDbEntity
  8
1
  6
CONTINUOUS
370
    50
100
AcDbLine
 10
110.3368780642
 20
171.8502259932
 30
0.0
 11
108.729016811
 21
171.3887875384
 31
0.0
  0
LINE
  5
389
330
A
100
AcDbEntity
  8
1
  6
CONTINUOUS
370
    50
100
AcDbLine
 10
116.8678670214
 20
173.7245478271
 30
0.0
 11
111.4600220691
 21
172.1725559412
 31
0.0
  0
LINE
  5
38A
330
A
100
AcDbEntity
  8
1
  6
CONTINUOUS
370
    50
100
AcDbLine
 10
109.6393340172
 20
168.2168287455
 30
0.0
 11
117.7781842276
 21
170.5525890342
 31
0.0
  0
LINE
  5
38B
330
A
100
AcDbEntity
  8
1
  6
CONTINUOUS
370
    50
100
AcDbLine
 10
101.6596260626
 20
171.126839785
 30
0.0
 11
110.3994410938
 21
169.0337844606
 31
0.0
  0
LINE
  5
38C
330
A
100
AcDbEntity
  8
1
  6
CONTINUOUS
370
    50
100
AcDbLine
 10
111.4621180695
 20
172.1726025007
 30
0.0
 11
101.6596260626
 21
174.5201531085
 31
0.0
  0
LINE
  5
38D
330
A
100
AcDbEntity
  8
1
  6
CONTINUOUS
370
    50
100
AcDbLine
 10
119.7096260626
 20
175.0082663169
 30
0.0
 11
117.0313715208
 21
174.2396367881
 31
0.0
  0
LINE
  5
38E
330
A
100
AcDbEntity
  8
1
  6
CONTINUOUS
370
    50
100
AcDbLine
 10
118.189957056
 20
170.2025983244
 30
0.0
 11
119.7096260626
 21
170.6387265766
 31
0.0
  0
LINE
  5
38F
330
A
100
AcDbEntity
  8
1
  6
CONTINUOUS
370
    50
100
AcDbLine
 10
116.2624260685
 20
172.7681890011
 30
0.0
 11
116.2624260685
 21
172.5708727705
 31
0.0
  0
LINE
  5
390
330
A
100
AcDbEntity
  8
1
  6
CONTINUOUS
370
    50
100
AcDbLine
 10
116.6530906749
 20
171.2096197648
 30
0.0
 11
116.7577276592
 21
171.0423331952
 31
0.0
  0
LINE
  5
391
330
A
100
AcDbEntity
  8
1
  6
CONTINUOUS
370
    50
100
AcDbLine
 10
115.8096260626
 20
162.0325141995
 30
0.0
 11
114.5357302426
 21
158.5325141995
 31
0.0
  0
LINE
  5
392
330
A
100
AcDbEntity
  8
1
  6
CONTINUOUS
370
    50
100
AcDbLine
 10
114.5357302426
 20
158.5325141995
 30
0.0
 11
115.8096260626
 21
155.0325141995
 31
0.0
  0
LINE
  5
393
330
A
100
AcDbEntity
  8
1
  6
CONTINUOUS
370
    50
100
AcDbLine
 10
115.8096260626
 20
155.0325141995
 30
0.0
 11
119.7096260626
 21
155.0325141995
 31
0.0
  0
LINE
  5
394
330
A
100
AcDbEntity
  8
1
  6
CONTINUOUS
370
    50
100
AcDbLine
 10
119.7096260626
 20
162.0325141995
 30
0.0
 11
115.8096260626
 21
162.0325141995
 31
0.0
  0
LINE
  5
395
330
A
100
AcDbEntity
  8
1
  6
CONTINUOUS
370
    50
100
AcDbLine
 10
115.8096260626
 20
162.8589568535
 30
0.0
 11
119.7096260626
 21
162.8589568535
 31
0.0
  0
LINE
  5
396
330
A
100
AcDbEntity
  8
1
  6
CONTINUOUS
370
    50
100
AcDbLine
 10
119.7096260626
 20
169.8589568535
 30
0.0
 11
115.8096260626
 21
169.8589568535
 31
0.0
  0
LINE
  5
397
330
A
100
AcDbEntity
  8
1
  6
CONTINUOUS
370
    50
100
AcDbLine
 10
115.8096260626
 20
169.8589568535
 30
0.0
 11
114.5357302426
 21
166.3589568535
 31
0.0
  0
LINE
  5
398
330
A
100
AcDbEntity
  8
1
  6
CONTINUOUS
370
    50
100
AcDbLine
 10
114.5357302426
 20
166.3589568535
 30
0.0
 11
115.8096260626
 21
162.8589568535
 31
0.0
  0
LINE
  5
399
330
A
100
AcDbEntity
  8
1
  6
CONTINUOUS
370
    50
100
AcDbLine
 10
101.4596260626
 20
185.513952577
 30
0.0
 11
101.4596260626
 21
141.663952577
 31
0.0
  0
LINE
  5
39A
330
A
100
AcDbEntity
  8
1
  6
CONTINUOUS
370
    50
100
AcDbLine
 10
101.2025163392
 20
185.5607986834
 30
0.0
 11
101.2025163392
 21
141.6171064705
 31
0.0
  0
LINE
  5
39B
330
A
100
AcDbEntity
  8
1
  6
CONTINUOUS
370
    50
100
AcDbLine
 10
101.41382547
 20
185.513952577
 30
0.0
 11
101.41382547
 21
141.663952577
 31
0.0
  0
LINE
  5
39C
330
A
100
AcDbEntity
  8
1
  6
CONTINUOUS
370
    50
100
AcDbLine
 10
33.1621099563
 20
175.9685606146
 30
0.0
 11
33.1621099563
 21
151.2093445393
 31
0.0
  0
LINE
  5
39D
330
A
100
AcDbEntity
  8
1
  6
CONTINUOUS
370
    50
100
AcDbLine
 10
107.9381727867
 20
169.8006096788
 30
0.0
 11
107.891418348
 21
170.375697374
 31
0.0
  0
LINE
  5
39E
330
A
100
AcDbEntity
  8
1
  6
CONTINUOUS
370
    50
100
AcDbLine
 10
107.891418348
 20
170.375697374
 30
0.0
 11
107.9588503837
 21
170.8996860038
 31
0.0
  0
LINE
  5
39F
330
A
100
AcDbEntity
  8
1
  6
CONTINUOUS
370
    50
100
AcDbLine
 10
107.9588503837
 20
170.8996860038
 30
0.0
 11
108.1344772615
 21
171.3260168789
 31
0.0
  0
LINE
  5
3A0
330
A
100
AcDbEntity
  8
1
  6
CONTINUOUS
370
    50
100
AcDbLine
 10
108.1344772615
 20
171.3260168789
 30
0.0
 11
108.4026937626
 21
171.6168086301
 31
0.0
  0
LINE
  5
3A1
330
A
100
AcDbEntity
  8
1
  6
CONTINUOUS
370
    50
100
AcDbLine
 10
108.4026937626
 20
171.6168086301
 30
0.0
 11
108.7396676738
 21
171.7462231342
 31
0.0
  0
LINE
  5
3A2
330
A
100
AcDbEntity
  8
1
  6
CONTINUOUS
370
    50
100
AcDbLine
 10
108.7396676738
 20
171.7462231342
 30
0.0
 11
109.1154573842
 21
171.7027613446
 31
0.0
  0
LINE
  5
3A3
330
A
100
AcDbEntity
  8
1
  6
CONTINUOUS
370
    50
100
AcDbLine
 10
109.1154573842
 20
171.7027613446
 30
0.0
 11
109.4966723292
 21
171.4902850321
 31
0.0
  0
LINE
  5
3A4
330
A
100
AcDbEntity
  8
1
  6
CONTINUOUS
370
    50
100
AcDbLine
 10
109.4966723292
 20
171.4902850321
 30
0.0
 11
109.8494398877
 21
171.1276736494
 31
0.0
  0
LINE
  5
3A5
330
A
100
AcDbEntity
  8
1
  6
CONTINUOUS
370
    50
100
AcDbLine
 10
109.8494398877
 20
171.1276736494
 30
0.0
 11
110.1424151142
 21
170.6471468092
 31
0.0
  0
LINE
  5
3A6
330
A
100
AcDbEntity
  8
1
  6
CONTINUOUS
370
    50
100
AcDbLine
 10
110.1424151142
 20
170.6471468092
 30
0.0
 11
110.349565874
 21
170.09140143
 31
0.0
  0
LINE
  5
3A7
330
A
100
AcDbEntity
  8
1
  6
CONTINUOUS
370
    50
100
AcDbLine
 10
110.349565874
 20
170.09140143
 30
0.0
 11
110.4524859132
 21
169.5098179276
 31
0.0
  0
LINE
  5
3A8
330
A
100
AcDbEntity
  8
1
  6
CONTINUOUS
370
    50
100
AcDbLine
 10
110.4524859132
 20
169.5098179276
 30
0.0
 11
110.4420303345
 21
168.9540725484
 31
0.0
  0
LINE
  5
3A9
330
A
100
AcDbEntity
  8
1
  6
CONTINUOUS
370
    50
100
AcDbLine
 10
110.4420303345
 20
168.9540725484
 30
0.0
 11
110.319128162
 21
168.4735457083
 31
0.0
  0
LINE
  5
3AA
330
A
100
AcDbEntity
  8
1
  6
CONTINUOUS
370
    50
100
AcDbLine
 10
110.319128162
 20
168.4735457083
 30
0.0
 11
110.0946997932
 21
168.1109343256
 31
0.0
  0
LINE
  5
3AB
330
A
100
AcDbEntity
  8
1
  6
CONTINUOUS
370
    50
100
AcDbLine
 10
110.0946997932
 20
168.1109343256
 30
0.0
 11
109.7886866733
 21
167.8984580131
 31
0.0
  0
LINE
  5
3AC
330
A
100
AcDbEntity
  8
1
  6
CONTINUOUS
370
    50
100
AcDbLine
 10
109.7886866733
 20
167.8984580131
 30
0.0
 11
109.4282794111
 21
167.8549962235
 31
0.0
  0
LINE
  5
3AD
330
A
100
AcDbEntity
  8
1
  6
CONTINUOUS
370
    50
100
AcDbLine
 10
109.4282794111
 20
167.8549962235
 30
0.0
 11
109.0455017735
 21
167.9844107276
 31
0.0
  0
LINE
  5
3AE
330
A
100
AcDbEntity
  8
1
  6
CONTINUOUS
370
    50
100
AcDbLine
 10
109.0455017735
 20
167.9844107276
 30
0.0
 11
108.6743652333
 21
168.2752024788
 31
0.0
  0
LINE
  5
3AF
330
A
100
AcDbEntity
  8
1
  6
CONTINUOUS
370
    50
100
AcDbLine
 10
108.6743652333
 20
168.2752024788
 30
0.0
 11
108.3478469008
 21
168.7015333539
 31
0.0
  0
LINE
  5
3B0
330
A
100
AcDbEntity
  8
1
  6
CONTINUOUS
370
    50
100
AcDbLine
 10
108.3478469008
 20
168.7015333539
 30
0.0
 11
108.0949593627
 21
169.2255219836
 31
0.0
  0
LINE
  5
3B1
330
A
100
AcDbEntity
  8
1
  6
CONTINUOUS
370
    50
100
AcDbLine
 10
108.0949593627
 20
169.2255219836
 30
0.0
 11
107.9381727867
 21
169.8006096788
 31
0.0
  0
LINE
  5
3B2
330
A
100
AcDbEntity
  8
1
  6
CONTINUOUS
370
    50
100
AcDbLine
 10
116.1123722257
 20
173.2642500792
 30
0.0
 11
116.0386882204
 21
172.7445219556
 31
0.0
  0
LINE
  5
3B3
330
A
100
AcDbEntity
  8
1
  6
CONTINUOUS
370
    50
100
AcDbLine
 10
116.0386882204
 20
172.7445219556
 30
0.0
 11
116.0791232297
 21
172.1709522021
 31
0.0
  0
LINE
  5
3B4
330
A
100
AcDbEntity
  8
1
  6
CONTINUOUS
370
    50
100
AcDbLine
 10
116.0791232297
 20
172.1709522021
 30
0.0
 11
116.2300844255
 21
171.5945050084
 31
0.0
  0
LINE
  5
3B5
330
A
100
AcDbEntity
  8
1
  6
CONTINUOUS
370
    50
100
AcDbLine
 10
116.2300844255
 20
171.5945050084
 30
0.0
 11
116.4781582432
 21
171.0664002373
 31
0.0
  0
LINE
  5
3B6
330
A
100
AcDbEntity
  8
1
  6
CONTINUOUS
370
    50
100
AcDbLine
 10
116.4781582432
 20
171.0664002373
 30
0.0
 11
116.8013022353
 21
170.6335623154
 31
0.0
  0
LINE
  5
3B7
330
A
100
AcDbEntity
  8
1
  6
CONTINUOUS
370
    50
100
AcDbLine
 10
116.8013022353
 20
170.6335623154
 30
0.0
 11
117.1708036401
 21
170.3344507914
 31
0.0
  0
LINE
  5
3B8
330
A
100
AcDbEntity
  8
1
  6
CONTINUOUS
370
    50
100
AcDbLine
 10
117.1708036401
 20
170.3344507914
 30
0.0
 11
117.5538306362
 21
170.1956430368
 31
0.0
  0
LINE
  5
3B9
330
A
100
AcDbEntity
  8
1
  6
CONTINUOUS
370
    50
100
AcDbLine
 10
117.5538306362
 20
170.1956430368
 30
0.0
 11
117.9163495942
 21
170.2294727299
 31
0.0
  0
LINE
  5
3BA
330
A
100
AcDbEntity
  8
1
  6
CONTINUOUS
370
    50
100
AcDbLine
 10
117.9163495942
 20
170.2294727299
 30
0.0
 11
118.2261491137
 21
170.432933954
 31
0.0
  0
LINE
  5
3BB
330
A
100
AcDbEntity
  8
1
  6
CONTINUOUS
370
    50
100
AcDbLine
 10
118.2261491137
 20
170.432933954
 30
0.0
 11
118.4557021479
 21
170.7879482863
 31
0.0
  0
LINE
  5
3BC
330
A
100
AcDbEntity
  8
1
  6
CONTINUOUS
370
    50
100
AcDbLine
 10
118.4557021479
 20
170.7879482863
 30
0.0
 11
118.5846119023
 21
171.2629711456
 31
0.0
  0
LINE
  5
3BD
330
A
100
AcDbEntity
  8
1
  6
CONTINUOUS
370
    50
100
AcDbLine
 10
118.5846119023
 20
171.2629711456
 30
0.0
 11
118.6014241796
 21
171.8157946661
 31
0.0
  0
LINE
  5
3BE
330
A
100
AcDbEntity
  8
1
  6
CONTINUOUS
370
    50
100
AcDbLine
 10
118.6014241796
 20
171.8157946661
 30
0.0
 11
118.5046451351
 21
172.3972980521
 31
0.0
  0
LINE
  5
3BF
330
A
100
AcDbEntity
  8
1
  6
CONTINUOUS
370
    50
100
AcDbLine
 10
118.5046451351
 20
172.3972980521
 30
0.0
 11
118.3028740116
 21
172.9558121758
 31
0.0
  0
LINE
  5
3C0
330
A
100
AcDbEntity
  8
1
  6
CONTINUOUS
370
    50
100
AcDbLine
 10
118.3028740116
 20
172.9558121758
 30
0.0
 11
118.0140390589
 21
173.4417106063
 31
0.0
  0
LINE
  5
3C1
330
A
100
AcDbEntity
  8
1
  6
CONTINUOUS
370
    50
100
AcDbLine
 10
118.0140390589
 20
173.4417106063
 30
0.0
 11
117.6638045302
 21
173.8118191358
 31
0.0
  0
LINE
  5
3C2
330
A
100
AcDbEntity
  8
1
  6
CONTINUOUS
370
    50
100
AcDbLine
 10
117.6638045302
 20
173.8118191358
 30
0.0
 11
117.2832903001
 21
174.0332519971
 31
0.0
  0
LINE
  5
3C3
330
A
100
AcDbEntity
  8
1
  6
CONTINUOUS
370
    50
100
AcDbLine
 10
117.2832903001
 20
174.0332519971
 30
0.0
 11
116.9063067281
 21
174.086333909
 31
0.0
  0
LINE
  5
3C4
330
A
100
AcDbEntity
  8
1
  6
CONTINUOUS
370
    50
100
AcDbLine
 10
116.9063067281
 20
174.086333909
 30
0.0
 11
116.5663504587
 21
173.9663483104
 31
0.0
  0
LINE
  5
3C5
330
A
100
AcDbEntity
  8
1
  6
CONTINUOUS
370
    50
100
AcDbLine
 10
116.5663504587
 20
173.9663483104
 30
0.0
 11
116.2936280984
 21
173.6839564484
 31
0.0
  0
LINE
  5
3C6
330
A
100
AcDbEntity
  8
1
  6
CONTINUOUS
370
    50
100
AcDbLine
 10
116.2936280984
 20
173.6839564484
 30
0.0
 11
116.1123722257
 21
173.2642500792
 31
0.0
  0
LINE
  5
3C7
330
A
100
AcDbEntity
  8
1
  6
CONTINUOUS
370
    50
100
AcDbLine
 10
110.4225175971
 20
169.8028081419
 30
0.0
 11
110.4692720358
 21
169.2277204467
 31
0.0
  0
LINE
  5
3C8
330
A
100
AcDbEntity
  8
1
  6
CONTINUOUS
370
    50
100
AcDbLine
 10
110.4692720358
 20
169.2277204467
 30
0.0
 11
110.4018400001
 21
168.703731817
 31
0.0
  0
LINE
  5
3C9
330
A
100
AcDbEntity
  8
1
  6
CONTINUOUS
370
    50
100
AcDbLine
 10
110.4018400001
 20
168.703731817
 30
0.0
 11
110.2262131223
 21
168.2774009419
 31
0.0
  0
LINE
  5
3CA
330
A
100
AcDbEntity
  8
1
  6
CONTINUOUS
370
    50
100
AcDbLine
 10
110.2262131223
 20
168.2774009419
 30
0.0
 11
109.9579966212
 21
167.9866091907
 31
0.0
  0
LINE
  5
3CB
330
A
100
AcDbEntity
  8
1
  6
CONTINUOUS
370
    50
100
AcDbLine
 10
109.9579966212
 20
167.9866091907
 30
0.0
 11
109.62102271
 21
167.8571946866
 31
0.0
  0
LINE
  5
3CC
330
A
100
AcDbEntity
  8
1
  6
CONTINUOUS
370
    50
100
AcDbLine
 10
109.62102271
 20
167.8571946866
 30
0.0
 11
109.2452329995
 21
167.9006564762
 31
0.0
  0
LINE
  5
3CD
330
A
100
AcDbEntity
  8
1
  6
CONTINUOUS
370
    50
100
AcDbLine
 10
109.2452329995
 20
167.9006564762
 30
0.0
 11
108.8640180546
 21
168.1131327887
 31
0.0
  0
LINE
  5
3CE
330
A
100
AcDbEntity
  8
1
  6
CONTINUOUS
370
    50
100
AcDbLine
 10
108.8640180546
 20
168.1131327887
 30
0.0
 11
108.5112504961
 21
168.4757441714
 31
0.0
  0
LINE
  5
3CF
330
A
100
AcDbEntity
  8
1
  6
CONTINUOUS
370
    50
100
AcDbLine
 10
108.5112504961
 20
168.4757441714
 30
0.0
 11
108.2182752696
 21
168.9562710116
 31
0.0
  0
LINE
  5
3D0
330
A
100
AcDbEntity
  8
1
  6
CONTINUOUS
370
    50
100
AcDbLine
 10
108.2182752696
 20
168.9562710116
 30
0.0
 11
108.0111245098
 21
169.5120163907
 31
0.0
  0
LINE
  5
3D1
330
A
100
AcDbEntity
  8
1
  6
CONTINUOUS
370
    50
100
AcDbLine
 10
108.0111245098
 20
169.5120163907
 30
0.0
 11
107.9082044706
 21
170.0935998931
 31
0.0
  0
LINE
  5
3D2
330
A
100
AcDbEntity
  8
1
  6
CONTINUOUS
370
    50
100
AcDbLine
 10
107.9082044706
 20
170.0935998931
 30
0.0
 11
107.9186600493
 21
170.6493452723
 31
0.0
  0
LINE
  5
3D3
330
A
100
AcDbEntity
  8
1
  6
CONTINUOUS
370
    50
100
AcDbLine
 10
107.9186600493
 20
170.6493452723
 30
0.0
 11
108.0415622217
 21
171.1298721125
 31
0.0
  0
LINE
  5
3D4
330
A
100
AcDbEntity
  8
1
  6
CONTINUOUS
370
    50
100
AcDbLine
 10
108.0415622217
 20
171.1298721125
 30
0.0
 11
108.2659905906
 21
171.4924834952
 31
0.0
  0
LINE
  5
3D5
330
A
100
AcDbEntity
  8
1
  6
CONTINUOUS
370
    50
100
AcDbLine
 10
108.2659905906
 20
171.4924834952
 30
0.0
 11
108.5720037105
 21
171.7049598077
 31
0.0
  0
LINE
  5
3D6
330
A
100
AcDbEntity
  8
1
  6
CONTINUOUS
370
    50
100
AcDbLine
 10
108.5720037105
 20
171.7049598077
 30
0.0
 11
108.9324109726
 21
171.7484215973
 31
0.0
  0
LINE
  5
3D7
330
A
100
AcDbEntity
  8
1
  6
CONTINUOUS
370
    50
100
AcDbLine
 10
108.9324109726
 20
171.7484215973
 30
0.0
 11
109.3151886103
 21
171.6190070932
 31
0.0
  0
LINE
  5
3D8
330
A
100
AcDbEntity
  8
1
  6
CONTINUOUS
370
    50
100
AcDbLine
 10
109.3151886103
 20
171.6190070932
 30
0.0
 11
109.6863251505
 21
171.328215342
 31
0.0
  0
LINE
  5
3D9
330
A
100
AcDbEntity
  8
1
  6
CONTINUOUS
370
    50
100
AcDbLine
 10
109.6863251505
 20
171.328215342
 30
0.0
 11
110.012843483
 21
170.9018844669
 31
0.0
  0
LINE
  5
3DA
330
A
100
AcDbEntity
  8
1
  6
CONTINUOUS
370
    50
100
AcDbLine
 10
110.012843483
 20
170.9018844669
 30
0.0
 11
110.265731021
 21
170.3778958371
 31
0.0
  0
LINE
  5
3DB
330
A
100
AcDbEntity
  8
1
  6
CONTINUOUS
370
    50
100
AcDbLine
 10
110.265731021
 20
170.3778958371
 30
0.0
 11
110.4225175971
 21
169.8028081419
 31
0.0
  0
LINE
  5
3DC
330
A
100
AcDbEntity
  8
1
  6
CONTINUOUS
370
    50
100
AcDbLine
 10
107.9381727867
 20
157.3772954751
 30
0.0
 11
107.891418348
 21
156.8022077799
 31
0.0
  0
LINE
  5
3DD
330
A
100
AcDbEntity
  8
1
  6
CONTINUOUS
370
    50
100
AcDbLine
 10
107.891418348
 20
156.8022077799
 30
0.0
 11
107.9588503837
 21
156.2782191501
 31
0.0
  0
LINE
  5
3DE
330
A
100
AcDbEntity
  8
1
  6
CONTINUOUS
370
    50
100
AcDbLine
 10
107.9588503837
 20
156.2782191501
 30
0.0
 11
108.1344772615
 21
155.851888275
 31
0.0
  0
LINE
  5
3DF
330
A
100
AcDbEntity
  8
1
  6
CONTINUOUS
370
    50
100
AcDbLine
 10
108.1344772615
 20
155.851888275
 30
0.0
 11
108.4026937626
 21
155.5610965238
 31
0.0
  0
LINE
  5
3E0
330
A
100
AcDbEntity
  8
1
  6
CONTINUOUS
370
    50
100
AcDbLine
 10
108.4026937626
 20
155.5610965238
 30
0.0
 11
108.7396676738
 21
155.4316820197
 31
0.0
  0
LINE
  5
3E1
330
A
100
AcDbEntity
  8
1
  6
CONTINUOUS
370
    50
100
AcDbLine
 10
108.7396676738
 20
155.4316820197
 30
0.0
 11
109.1154573842
 21
155.4751438093
 31
0.0
  0
LINE
  5
3E2
330
A
100
AcDbEntity
  8
1
  6
CONTINUOUS
370
    50
100
AcDbLine
 10
109.1154573842
 20
155.4751438093
 30
0.0
 11
109.4966723292
 21
155.6876201218
 31
0.0
  0
LINE
  5
3E3
330
A
100
AcDbEntity
  8
1
  6
CONTINUOUS
370
    50
100
AcDbLine
 10
109.4966723292
 20
155.6876201218
 30
0.0
 11
109.8494398877
 21
156.0502315045
 31
0.0
  0
LINE
  5
3E4
330
A
100
AcDbEntity
  8
1
  6
CONTINUOUS
370
    50
100
AcDbLine
 10
109.8494398877
 20
156.0502315045
 30
0.0
 11
110.1424151142
 21
156.5307583447
 31
0.0
  0
LINE
  5
3E5
330
A
100
AcDbEntity
  8
1
  6
CONTINUOUS
370
    50
100
AcDbLine
 10
110.1424151142
 20
156.5307583447
 30
0.0
 11
110.349565874
 21
157.0865037239
 31
0.0
  0
LINE
  5
3E6
330
A
100
AcDbEntity
  8
1
  6
CONTINUOUS
370
    50
100
AcDbLine
 10
110.349565874
 20
157.0865037239
 30
0.0
 11
110.4524859132
 21
157.6680872263
 31
0.0
  0
LINE
  5
3E7
330
A
100
AcDbEntity
  8
1
  6
CONTINUOUS
370
    50
100
AcDbLine
 10
110.4524859132
 20
157.6680872263
 30
0.0
 11
110.4420303345
 21
158.2238326055
 31
0.0
  0
LINE
  5
3E8
330
A
100
AcDbEntity
  8
1
  6
CONTINUOUS
370
    50
100
AcDbLine
 10
110.4420303345
 20
158.2238326055
 30
0.0
 11
110.319128162
 21
158.7043594456
 31
0.0
  0
LINE
  5
3E9
330
A
100
AcDbEntity
  8
1
  6
CONTINUOUS
370
    50
100
AcDbLine
 10
110.319128162
 20
158.7043594456
 30
0.0
 11
110.0946997932
 21
159.0669708283
 31
0.0
  0
LINE
  5
3EA
330
A
100
AcDbEntity
  8
1
  6
CONTINUOUS
370
    50
100
AcDbLine
 10
110.0946997932
 20
159.0669708283
 30
0.0
 11
109.7886866733
 21
159.2794471408
 31
0.0
  0
LINE
  5
3EB
330
A
100
AcDbEntity
  8
1
  6
CONTINUOUS
370
    50
100
AcDbLine
 10
109.7886866733
 20
159.2794471408
 30
0.0
 11
109.4282794111
 21
159.3229089304
 31
0.0
  0
LINE
  5
3EC
330
A
100
AcDbEntity
  8
1
  6
CONTINUOUS
370
    50
100
AcDbLine
 10
109.4282794111
 20
159.3229089304
 30
0.0
 11
109.0455017735
 21
159.1934944263
 31
0.0
  0
LINE
  5
3ED
330
A
100
AcDbEntity
  8
1
  6
CONTINUOUS
370
    50
100
AcDbLine
 10
109.0455017735
 20
159.1934944263
 30
0.0
 11
108.6743652333
 21
158.9027026751
 31
0.0
  0
LINE
  5
3EE
330
A
100
AcDbEntity
  8
1
  6
CONTINUOUS
370
    50
100
AcDbLine
 10
108.6743652333
 20
158.9027026751
 30
0.0
 11
108.3478469008
 21
158.4763718
 31
0.0
  0
LINE
  5
3EF
330
A
100
AcDbEntity
  8
1
  6
CONTINUOUS
370
    50
100
AcDbLine
 10
108.3478469008
 20
158.4763718
 30
0.0
 11
108.0949593627
 21
157.9523831703
 31
0.0
  0
LINE
  5
3F0
330
A
100
AcDbEntity
  8
1
  6
CONTINUOUS
370
    50
100
AcDbLine
 10
108.0949593627
 20
157.9523831703
 30
0.0
 11
107.9381727867
 21
157.3772954751
 31
0.0
  0
LINE
  5
3F1
330
A
100
AcDbEntity
  8
1
  6
CONTINUOUS
370
    50
100
AcDbLine
 10
116.1123722257
 20
153.9136550747
 30
0.0
 11
116.0386882204
 21
154.4333831983
 31
0.0
  0
LINE
  5
3F2
330
A
100
AcDbEntity
  8
1
  6
CONTINUOUS
370
    50
100
AcDbLine
 10
116.0386882204
 20
154.4333831983
 30
0.0
 11
116.0791232297
 21
155.0069529518
 31
0.0
  0
LINE
  5
3F3
330
A
100
AcDbEntity
  8
1
  6
CONTINUOUS
370
    50
100
AcDbLine
 10
116.0791232297
 20
155.0069529518
 30
0.0
 11
116.2300844255
 21
155.5834001455
 31
0.0
  0
LINE
  5
3F4
330
A
100
AcDbEntity
  8
1
  6
CONTINUOUS
370
    50
100
AcDbLine
 10
116.2300844255
 20
155.5834001455
 30
0.0
 11
116.4781582432
 21
156.1115049166
 31
0.0
  0
LINE
  5
3F5
330
A
100
AcDbEntity
  8
1
  6
CONTINUOUS
370
    50
100
AcDbLine
 10
116.4781582432
 20
156.1115049166
 30
0.0
 11
116.8013022353
 21
156.5443428385
 31
0.0
  0
LINE
  5
3F6
330
A
100
AcDbEntity
  8
1
  6
CONTINUOUS
370
    50
100
AcDbLine
 10
116.8013022353
 20
156.5443428385
 30
0.0
 11
117.1708036401
 21
156.8434543625
 31
0.0
  0
LINE
  5
3F7
330
A
100
AcDbEntity
  8
1
  6
CONTINUOUS
370
    50
100
AcDbLine
 10
117.1708036401
 20
156.8434543625
 30
0.0
 11
117.5538306362
 21
156.9822621171
 31
0.0
  0
LINE
  5
3F8
330
A
100
AcDbEntity
  8
1
  6
CONTINUOUS
370
    50
100
AcDbLine
 10
117.5538306362
 20
156.9822621171
 30
0.0
 11
117.9163495942
 21
156.948432424
 31
0.0
  0
LINE
  5
3F9
330
A
100
AcDbEntity
  8
1
  6
CONTINUOUS
370
    50
100
AcDbLine
 10
117.9163495942
 20
156.948432424
 30
0.0
 11
118.2261491137
 21
156.7449711999
 31
0.0
  0
LINE
  5
3FA
330
A
100
AcDbEntity
  8
1
  6
CONTINUOUS
370
    50
100
AcDbLine
 10
118.2261491137
 20
156.7449711999
 30
0.0
 11
118.4557021479
 21
156.3899568676
 31
0.0
  0
LINE
  5
3FB
330
A
100
AcDbEntity
  8
1
  6
CONTINUOUS
370
    50
100
AcDbLine
 10
118.4557021479
 20
156.3899568676
 30
0.0
 11
118.5846119023
 21
155.9149340083
 31
0.0
  0
LINE
  5
3FC
330
A
100
AcDbEntity
  8
1
  6
CONTINUOUS
370
    50
100
AcDbLine
 10
118.5846119023
 20
155.9149340083
 30
0.0
 11
118.6014241796
 21
155.3621104878
 31
0.0
  0
LINE
  5
3FD
330
A
100
AcDbEntity
  8
1
  6
CONTINUOUS
370
    50
100
AcDbLine
 10
118.6014241796
 20
155.3621104878
 30
0.0
 11
118.5046451351
 21
154.7806071018
 31
0.0
  0
LINE
  5
3FE
330
A
100
AcDbEntity
  8
1
  6
CONTINUOUS
370
    50
100
AcDbLine
 10
118.5046451351
 20
154.7806071018
 30
0.0
 11
118.3028740116
 21
154.2220929781
 31
0.0
  0
LINE
  5
3FF
330
A
100
AcDbEntity
  8
1
  6
CONTINUOUS
370
    50
100
AcDbLine
 10
118.3028740116
 20
154.2220929781
 30
0.0
 11
118.0140390589
 21
153.7361945476
 31
0.0
  0
LINE
  5
400
330
A
100
AcDbEntity
  8
1
  6
CONTINUOUS
370
    50
100
AcDbLine
 10
118.0140390589
 20
153.7361945476
 30
0.0
 11
117.6638045302
 21
153.3660860181
 31
0.0
  0
LINE
  5
401
330
A
100
AcDbEntity
  8
1
  6
CONTINUOUS
370
    50
100
AcDbLine
 10
117.6638045302
 20
153.3660860181
 30
0.0
 11
117.2832903001
 21
153.1446531568
 31
0.0
  0
LINE
  5
402
330
A
100
AcDbEntity
  8
1
  6
CONTINUOUS
370
    50
100
AcDbLine
 10
117.2832903001
 20
153.1446531568
 30
0.0
 11
116.9063067281
 21
153.091571245
 31
0.0
  0
LINE
  5
403
330
A
100
AcDbEntity
  8
1
  6
CONTINUOUS
370
    50
100
AcDbLine
 10
116.9063067281
 20
153.091571245
 30
0.0
 11
116.5663504587
 21
153.2115568435
 31
0.0
  0
LINE
  5
404
330
A
100
AcDbEntity
  8
1
  6
CONTINUOUS
370
    50
100
AcDbLine
 10
116.5663504587
 20
153.2115568435
 30
0.0
 11
116.2936280984
 21
153.4939487055
 31
0.0
  0
LINE
  5
405
330
A
100
AcDbEntity
  8
1
  6
CONTINUOUS
370
    50
100
AcDbLine
 10
116.2936280984
 20
153.4939487055
 30
0.0
 11
116.1123722257
 21
153.9136550747
 31
0.0
  0
LINE
  5
406
330
A
100
AcDbEntity
  8
1
  6
CONTINUOUS
370
    50
100
AcDbLine
 10
107.9458332311
 20
157.375097012
 30
0.0
 11
107.8990787925
 21
156.8000093168
 31
0.0
  0
LINE
  5
407
330
A
100
AcDbEntity
  8
1
  6
CONTINUOUS
370
    50
100
AcDbLine
 10
107.8990787925
 20
156.8000093168
 30
0.0
 11
107.9665108282
 21
156.276020687
 31
0.0
  0
LINE
  5
408
330
A
100
AcDbEntity
  8
1
  6
CONTINUOUS
370
    50
100
AcDbLine
 10
107.9665108282
 20
156.276020687
 30
0.0
 11
108.1421377059
 21
155.8496898119
 31
0.0
  0
LINE
  5
409
330
A
100
AcDbEntity
  8
1
  6
CONTINUOUS
370
    50
100
AcDbLine
 10
108.1421377059
 20
155.8496898119
 30
0.0
 11
108.410354207
 21
155.5588980607
 31
0.0
  0
LINE
  5
40A
330
A
100
AcDbEntity
  8
1
  6
CONTINUOUS
370
    50
100
AcDbLine
 10
108.410354207
 20
155.5588980607
 30
0.0
 11
108.7473281182
 21
155.4294835566
 31
0.0
  0
LINE
  5
40B
330
A
100
AcDbEntity
  8
1
  6
CONTINUOUS
370
    50
100
AcDbLine
 10
108.7473281182
 20
155.4294835566
 30
0.0
 11
109.1231178287
 21
155.4729453462
 31
0.0
  0
LINE
  5
40C
330
A
100
AcDbEntity
  8
1
  6
CONTINUOUS
370
    50
100
AcDbLine
 10
109.1231178287
 20
155.4729453462
 30
0.0
 11
109.5043327736
 21
155.6854216587
 31
0.0
  0
LINE
  5
40D
330
A
100
AcDbEntity
  8
1
  6
CONTINUOUS
370
    50
100
AcDbLine
 10
109.5043327736
 20
155.6854216587
 30
0.0
 11
109.8571003321
 21
156.0480330414
 31
0.0
  0
LINE
  5
40E
330
A
100
AcDbEntity
  8
1
  6
CONTINUOUS
370
    50
100
AcDbLine
 10
109.8571003321
 20
156.0480330414
 30
0.0
 11
110.1500755586
 21
156.5285598816
 31
0.0
  0
LINE
  5
40F
330
A
100
AcDbEntity
  8
1
  6
CONTINUOUS
370
    50
100
AcDbLine
 10
110.1500755586
 20
156.5285598816
 30
0.0
 11
110.3572263185
 21
157.0843052608
 31
0.0
  0
LINE
  5
410
330
A
100
AcDbEntity
  8
1
  6
CONTINUOUS
370
    50
100
AcDbLine
 10
110.3572263185
 20
157.0843052608
 30
0.0
 11
110.4601463576
 21
157.6658887632
 31
0.0
  0
LINE
  5
411
330
A
100
AcDbEntity
  8
1
  6
CONTINUOUS
370
    50
100
AcDbLine
 10
110.4601463576
 20
157.6658887632
 30
0.0
 11
110.4496907789
 21
158.2216341424
 31
0.0
  0
LINE
  5
412
330
A
100
AcDbEntity
  8
1
  6
CONTINUOUS
370
    50
100
AcDbLine
 10
110.4496907789
 20
158.2216341424
 30
0.0
 11
110.3267886065
 21
158.7021609825
 31
0.0
  0
LINE
  5
413
330
A
100
AcDbEntity
  8
1
  6
CONTINUOUS
370
    50
100
AcDbLine
 10
110.3267886065
 20
158.7021609825
 30
0.0
 11
110.1023602376
 21
159.0647723652
 31
0.0
  0
LINE
  5
414
330
A
100
AcDbEntity
  8
1
  6
CONTINUOUS
370
    50
100
AcDbLine
 10
110.1023602376
 20
159.0647723652
 30
0.0
 11
109.7963471178
 21
159.2772486777
 31
0.0
  0
LINE
  5
415
330
A
100
AcDbEntity
  8
1
  6
CONTINUOUS
370
    50
100
AcDbLine
 10
109.7963471178
 20
159.2772486777
 30
0.0
 11
109.4359398556
 21
159.3207104673
 31
0.0
  0
LINE
  5
416
330
A
100
AcDbEntity
  8
1
  6
CONTINUOUS
370
    50
100
AcDbLine
 10
109.4359398556
 20
159.3207104673
 30
0.0
 11
109.0531622179
 21
159.1912959632
 31
0.0
  0
LINE
  5
417
330
A
100
AcDbEntity
  8
1
  6
CONTINUOUS
370
    50
100
AcDbLine
 10
109.0531622179
 20
159.1912959632
 30
0.0
 11
108.6820256777
 21
158.900504212
 31
0.0
  0
LINE
  5
418
330
A
100
AcDbEntity
  8
1
  6
CONTINUOUS
370
    50
100
AcDbLine
 10
108.6820256777
 20
158.900504212
 30
0.0
 11
108.3555073452
 21
158.4741733369
 31
0.0
  0
LINE
  5
419
330
A
100
AcDbEntity
  8
1
  6
CONTINUOUS
370
    50
100
AcDbLine
 10
108.3555073452
 20
158.4741733369
 30
0.0
 11
108.1026198072
 21
157.9501847072
 31
0.0
  0
LINE
  5
41A
330
A
100
AcDbEntity
  8
1
  6
CONTINUOUS
370
    50
100
AcDbLine
 10
108.1026198072
 20
157.9501847072
 30
0.0
 11
107.9458332311
 21
157.375097012
 31
0.0
  0
LINE
  5
41B
330
A
100
AcDbEntity
  8
1
  6
CONTINUOUS
370
    50
100
AcDbLine
 10
66.3196260626
 20
171.588952577
 30
0.0
 11
41.2849037375
 21
171.588952577
 31
0.0
  0
LINE
  5
41C
330
A
100
AcDbEntity
  8
1
  6
CONTINUOUS
370
    50
100
AcDbLine
 10
41.2849037375
 20
155.588952577
 30
0.0
 11
66.3196260626
 21
155.588952577
 31
0.0
  0
LINE
  5
41D
330
A
100
AcDbEntity
  8
1
  6
CONTINUOUS
370
    50
100
AcDbLine
 10
66.3196260626
 20
171.588952577
 30
0.0
 11
66.3196260626
 21
171.5665829544
 31
0.0
  0
LINE
  5
41E
330
A
100
AcDbEntity
  8
1
  6
CONTINUOUS
370
    50
100
AcDbLine
 10
66.3196260626
 20
171.5665829544
 30
0.0
 11
66.3196260626
 21
155.588952577
 31
0.0
  0
LINE
  5
41F
330
A
100
AcDbEntity
  8
1
  6
CONTINUOUS
370
    50
100
AcDbLine
 10
66.3196260626
 20
170.663952577
 30
0.0
 11
66.3196260626
 21
170.5768475867
 31
0.0
  0
LINE
  5
420
330
A
100
AcDbEntity
  8
1
  6
CONTINUOUS
370
    50
100
AcDbLine
 10
66.3196260626
 20
170.5768475867
 30
0.0
 11
66.3196260626
 21
163.588952577
 31
0.0
  0
LINE
  5
421
330
A
100
AcDbEntity
  8
1
  6
CONTINUOUS
370
    50
100
AcDbLine
 10
98.6596260626
 20
155.588952577
 30
0.0
 11
128.6596260626
 21
155.588952577
 31
0.0
  0
LINE
  5
422
330
A
100
AcDbEntity
  8
1
  6
CONTINUOUS
370
    50
100
AcDbLine
 10
128.6596260626
 20
171.588952577
 30
0.0
 11
98.6596260626
 21
171.588952577
 31
0.0
  0
LINE
  5
423
330
A
100
AcDbEntity
  8
1
  6
CONTINUOUS
370
    50
100
AcDbLine
 10
98.6596260626
 20
155.588952577
 30
0.0
 11
98.6596260626
 21
155.5911812888
 31
0.0
  0
LINE
  5
424
330
A
100
AcDbEntity
  8
1
  6
CONTINUOUS
370
    50
100
AcDbLine
 10
98.6596260626
 20
155.5911812888
 30
0.0
 11
98.6596260626
 21
159.7275118375
 31
0.0
  0
LINE
  5
425
330
A
100
AcDbEntity
  8
1
  6
CONTINUOUS
370
    50
100
AcDbLine
 10
98.6596260626
 20
162.0433774574
 30
0.0
 11
98.6596260626
 21
163.2262691112
 31
0.0
  0
LINE
  5
426
330
A
100
AcDbEntity
  8
1
  6
CONTINUOUS
370
    50
100
AcDbLine
 10
98.6596260626
 20
163.2262691112
 30
0.0
 11
98.6596260626
 21
171.588952577
 31
0.0
  0
LINE
  5
427
330
A
100
AcDbEntity
  8
1
  6
CONTINUOUS
370
    50
100
AcDbLine
 10
98.6596260626
 20
162.0433774574
 30
0.0
 11
99.3269819671
 21
161.5519526876
 31
0.0
  0
LINE
  5
428
330
A
100
AcDbEntity
  8
1
  6
CONTINUOUS
370
    50
100
AcDbLine
 10
99.3269819671
 20
161.5519526876
 30
0.0
 11
99.5370240752
 21
161.2482359496
 31
0.0
  0
LINE
  5
429
330
A
100
AcDbEntity
  8
1
  6
CONTINUOUS
370
    50
100
AcDbLine
 10
99.5370240752
 20
161.2482359496
 30
0.0
 11
99.6320763789
 21
160.896442929
 31
0.0
  0
LINE
  5
42A
330
A
100
AcDbEntity
  8
1
  6
CONTINUOUS
370
    50
100
AcDbLine
 10
99.6320763789
 20
160.896442929
 30
0.0
 11
99.5889559777
 21
160.5877113988
 31
0.0
  0
LINE
  5
42B
330
A
100
AcDbEntity
  8
1
  6
CONTINUOUS
370
    50
100
AcDbLine
 10
99.5889559777
 20
160.5877113988
 30
0.0
 11
99.4130913698
 21
160.2741703511
 31
0.0
  0
LINE
  5
42C
330
A
100
AcDbEntity
  8
1
  6
CONTINUOUS
370
    50
100
AcDbLine
 10
99.4130913698
 20
160.2741703511
 30
0.0
 11
99.0041734373
 21
159.9153157223
 31
0.0
  0
LINE
  5
42D
330
A
100
AcDbEntity
  8
1
  6
CONTINUOUS
370
    50
100
AcDbLine
 10
99.0041734373
 20
159.9153157223
 30
0.0
 11
98.6596260626
 21
159.7275118375
 31
0.0
  0
LINE
  5
42E
330
A
100
AcDbEntity
  8
1
  6
CONTINUOUS
370
    50
100
AcDbLine
 10
98.6596260626
 20
165.1345276965
 30
0.0
 11
99.3269819671
 21
165.6259524664
 31
0.0
  0
LINE
  5
42F
330
A
100
AcDbEntity
  8
1
  6
CONTINUOUS
370
    50
100
AcDbLine
 10
99.3269819671
 20
165.6259524664
 30
0.0
 11
99.5370240752
 21
165.9296692043
 31
0.0
  0
LINE
  5
430
330
A
100
AcDbEntity
  8
1
  6
CONTINUOUS
370
    50
100
AcDbLine
 10
99.5370240752
 20
165.9296692043
 30
0.0
 11
99.6320763789
 21
166.2814622249
 31
0.0
  0
LINE
  5
431
330
A
100
AcDbEntity
  8
1
  6
CONTINUOUS
370
    50
100
AcDbLine
 10
99.6320763789
 20
166.2814622249
 30
0.0
 11
99.5889559777
 21
166.5901937551
 31
0.0
  0
LINE
  5
432
330
A
100
AcDbEntity
  8
1
  6
CONTINUOUS
370
    50
100
AcDbLine
 10
99.5889559777
 20
166.5901937551
 30
0.0
 11
99.4130913698
 21
166.9037348028
 31
0.0
  0
LINE
  5
433
330
A
100
AcDbEntity
  8
1
  6
CONTINUOUS
370
    50
100
AcDbLine
 10
99.4130913698
 20
166.9037348028
 30
0.0
 11
99.0041734373
 21
167.2625894316
 31
0.0
  0
LINE
  5
434
330
A
100
AcDbEntity
  8
1
  6
CONTINUOUS
370
    50
100
AcDbLine
 10
99.0041734373
 20
167.2625894316
 30
0.0
 11
98.6596260626
 21
167.4503933164
 31
0.0
  0
LINE
  5
435
330
A
100
AcDbEntity
  8
1
  6
CONTINUOUS
370
    50
100
AcDbLine
 10
98.6596260626
 20
171.088952577
 30
0.0
 11
98.6596260626
 21
171.0840916061
 31
0.0
  0
LINE
  5
436
330
A
100
AcDbEntity
  8
1
  6
CONTINUOUS
370
    50
100
AcDbLine
 10
98.6596260626
 20
171.0840916061
 30
0.0
 11
98.6596260626
 21
166.8956335296
 31
0.0
  0
LINE
  5
437
330
A
100
AcDbEntity
  8
1
  6
CONTINUOUS
370
    50
100
AcDbLine
 10
98.6596260626
 20
162.0433774574
 30
0.0
 11
98.6596260626
 21
161.7949601564
 31
0.0
  0
LINE
  5
438
330
A
100
AcDbEntity
  8
1
  6
CONTINUOUS
370
    50
100
AcDbLine
 10
98.6596260626
 20
161.8519611235
 30
0.0
 11
98.6596260626
 21
160.8448859008
 31
0.0
  0
LINE
  5
439
330
A
100
AcDbEntity
  8
1
  6
CONTINUOUS
370
    50
100
AcDbLine
 10
98.6596260626
 20
160.8448859008
 30
0.0
 11
98.6596260626
 21
160.2822716243
 31
0.0
  0
LINE
  5
43A
330
A
100
AcDbEntity
  8
1
  6
CONTINUOUS
370
    50
100
AcDbLine
 10
98.6596260626
 20
156.088952577
 30
0.0
 11
98.6596260626
 21
160.2822716243
 31
0.0
  0
LINE
  5
43B
330
A
100
AcDbEntity
  8
1
  6
CONTINUOUS
370
    50
100
AcDbLine
 10
98.6596260626
 20
160.2822716243
 30
0.0
 11
98.6596260626
 21
159.7275118375
 31
0.0
  0
ENDSEC
  0
SECTION
  2
OBJECTS
  0
DICTIONARY
  5
19
330
0
100
AcDbDictionary
281
     1
  3
ACAD_GROUP
350
1A
  3
ACAD_LAYOUT
350
460
  3
ACAD_MATERIAL
350
474
  3
ACAD_MLEADERSTYLE
350
47C
  3
ACAD_MLINESTYLE
350
1B
  3
ACAD_SCALELIST
350
43E
  3
ACAD_VISUALSTYLE
350
463
  3
ACDB_RECOMPOSE_DATA
350
4A9
  3
AcDbVariableDictionary
350
47A
  0
DICTIONARY
  5
480
330
7
100
AcDbDictionary
280
     1
281
     1
  3
ACAD_XREC_ROUNDTRIP
360
481
  0
DICTIONARY
  5
1A
102
{ACAD_REACTORS
330
19
102
}
330
19
100
AcDbDictionary
281
     1
  0
DICTIONARY
  5
460
102
{ACAD_REACTORS
330
19
102
}
330
19
100
AcDbDictionary
281
     1
  3
Layout1
350
462
  3
Model
350
461
  0
DICTIONARY
  5
474
102
{ACAD_REACTORS
330
19
102
}
330
19
100
AcDbDictionary
281
     1
  3
ByBlock
350
476
  3
ByLayer
350
475
  3
Global
350
477
  0
DICTIONARY
  5
47C
102
{ACAD_REACTORS
330
19
102
}
330
19
100
AcDbDictionary
281
     1
  0
DICTIONARY
  5
1B
102
{ACAD_REACTORS
330
19
102
}
330
19
100
AcDbDictionary
281
     1
  3
STANDARD
350
1C
  0
DICTIONARY
  5
43E
102
{ACAD_REACTORS
330
19
102
}
330
19
100
AcDbDictionary
281
     1
  3
A0
350
43F
  3
A1
350
440
  3
A2
350
441
  3
A3
350
442
  3
A4
350
443
  3
A5
350
444
  3
A6
350
445
  3
A7
350
446
  3
A8
350
447
  3
A9
350
448
  3
B0
350
449
  3
B1
350
44A
  3
B2
350
44B
  3
B3
350
44C
  3
B4
350
44D
  3
B5
350
44E
  3
B6
350
44F
  3
B7
350
450
  3
B8
350
451
  3
B9
350
452
  3
C0
350
453
  3
C1
350
454
  3
C2
350
455
  3
C3
350
456
  3
C4
350
457
  3
C5
350
458
  3
C6
350
459
  3
C7
350
45A
  3
C8
350
45B
  3
C9
350
45C
  3
D0
350
45D
  3
D1
350
45E
  3
D2
350
45F
  0
DICTIONARY
  5
463
102
{ACAD_REACTORS
330
19
102
}
330
19
100
AcDbDictionary
281
     1
  3
2dWireframe
350
468
  3
3D Hidden
350
46A
  3
3dWireframe
350
469
  3
Basic
350
46B
  3
Brighten
350
46F
  3
ColorChange
350
473
  3
Conceptual
350
46D
  3
Dim
350
46E
  3
Facepattern
350
472
  3
Flat
350
464
  3
FlatWithEdges
350
465
  3
Gouraud
350
466
  3
GouraudWithEdges
350
467
  3
Linepattern
350
471
  3
Realistic
350
46C
  3
Thicken
350
470
  0
XRECORD
  5
4A9
102
{ACAD_REACTORS
330
19
102
}
330
19
100
AcDbXrecord
280
     1
  0
DICTIONARY
  5
47A
102
{ACAD_REACTORS
330
19
102
}
330
19
100
AcDbDictionary
281
     1
  3
CANNOSCALE
350
482
  3
DIMASSOC
350
47E
  3
HIDETEXT
350
47F
  3
MSLTSCALE
350
47D
  0
XRECORD
  5
481
102
{ACAD_REACTORS
330
480
102
}
330
480
100
AcDbXrecord
280
     1
102
VTR_0.000_0.000_1.000_1.000_VISUALSTYLE
340
468
102
VTR_0.000_0.000_1.000_1.000_GRIDDISPLAY
 70
     3
102
VTR_0.000_0.000_1.000_1.000_GRIDMAJOR
 70
     5
102
VTR_0.000_0.000_1.000_1.000_DEFAULTLIGHTING
280
     1
102
VTR_0.000_0.000_1.000_1.000_DEFAULTLIGHTINGTYPE
 70
     1
102
VTR_0.000_0.000_1.000_1.000_BRIGHTNESS
141
0.0
102
VTR_0.000_0.000_1.000_1.000_CONTRAST
142
0.0
  0
LAYOUT
  5
462
102
{ACAD_REACTORS
330
460
102
}
330
460
100
AcDbPlotSettings
  1

  2
none_device
  4

  6

 40
0.0
 41
0.0
 42
0.0
 43
0.0
 44
0.0
 45
0.0
 46
0.0
 47
0.0
 48
0.0
 49
0.0
140
0.0
141
0.0
142
1.0
143
1.0
 70
   688
 72
     0
 73
     0
 74
     5
  7

 75
    16
147
1.0
148
0.0
149
0.0
100
AcDbLayout
  1
Layout1
 70
     1
 71
     1
 10
0.0
 20
0.0
 11
12.0
 21
9.0
 12
0.0
 22
0.0
 32
0.0
 14
1.000000000000000E+20
 24
1.000000000000000E+20
 34
1.000000000000000E+20
 15
-1.000000000000000E+20
 25
-1.000000000000000E+20
 35
-1.000000000000000E+20
146
0.0
 13
0.0
 23
0.0
 33
0.0
 16
1.0
 26
0.0
 36
0.0
 17
0.0
 27
1.0
 37
0.0
 76
     0
330
B
  0
LAYOUT
  5
461
102
{ACAD_REACTORS
330
460
102
}
330
460
100
AcDbPlotSettings
  1

  2
none_device
  4

  6

 40
0.0
 41
0.0
 42
0.0
 43
0.0
 44
0.0
 45
0.0
 46
0.0
 47
0.0
 48
0.0
 49
0.0
140
0.0
141
0.0
142
1.0
143
1.0
 70
  1712
 72
     0
 73
     0
 74
     0
  7

 75
     0
147
1.0
148
2667.54428576817
149
0.0
100
AcDbLayout
  1
Model
 70
     1
 71
     0
 10
0.0
 20
0.0
 11
0.0
 21
0.0
 12
0.0
 22
0.0
 32
0.0
 14
0.0
 24
0.0
 34
0.0
 15
210.0
 25
297.0
 35
0.0
146
0.0
 13
0.0
 23
0.0
 33
0.0
 16
1.0
 26
0.0
 36
0.0
 17
0.0
 27
1.0
 37
0.0
 76
     0
330
A
331
15
  0
MATERIAL
  5
476
102
{ACAD_REACTORS
330
474
102
}
102
{ACAD_XDICTIONARY
360
4A5
102
}
330
474
100
AcDbMaterial
  1
ByBlock
  0
MATERIAL
  5
475
102
{ACAD_REACTORS
330
474
102
}
102
{ACAD_XDICTIONARY
360
4A3
102
}
330
474
100
AcDbMaterial
  1
ByLayer
  0
MATERIAL
  5
477
102
{ACAD_REACTORS
330
474
102
}
102
{ACAD_XDICTIONARY
360
4A7
102
}
330
474
100
AcDbMaterial
  1
Global
  0
MLINESTYLE
  5
1C
102
{ACAD_REACTORS
330
1B
102
}
330
1B
100
AcDbMlineStyle
  2
STANDARD
 70
     0
  3

 62
     0
 51
90.0
 52
90.0
 71
     2
 49
0.5
 62
   256
  6
BYLAYER
 49
-0.5
 62
   256
  6
BYLAYER
  0
SCALE
  5
43F
102
{ACAD_REACTORS
330
43E
102
}
330
43E
100
AcDbScale
 70
     0
300
1:1
140
1.0
141
1.0
290
     1
  0
SCALE
  5
440
102
{ACAD_REACTORS
330
43E
102
}
330
43E
100
AcDbScale
 70
     0
300
1:2
140
1.0
141
2.0
290
     0
  0
SCALE
  5
441
102
{ACAD_REACTORS
330
43E
102
}
330
43E
100
AcDbScale
 70
     0
300
1:4
140
1.0
141
4.0
290
     0
  0
SCALE
  5
442
102
{ACAD_REACTORS
330
43E
102
}
330
43E
100
AcDbScale
 70
     0
300
1:5
140
1.0
141
5.0
290
     0
  0
SCALE
  5
443
102
{ACAD_REACTORS
330
43E
102
}
330
43E
100
AcDbScale
 70
     0
300
1:8
140
1.0
141
8.0
290
     0
  0
SCALE
  5
444
102
{ACAD_REACTORS
330
43E
102
}
330
43E
100
AcDbScale
 70
     0
300
1:10
140
1.0
141
10.0
290
     0
  0
SCALE
  5
445
102
{ACAD_REACTORS
330
43E
102
}
330
43E
100
AcDbScale
 70
     0
300
1:16
140
1.0
141
16.0
290
     0
  0
SCALE
  5
446
102
{ACAD_REACTORS
330
43E
102
}
330
43E
100
AcDbScale
 70
     0
300
1:20
140
1.0
141
20.0
290
     0
  0
SCALE
  5
447
102
{ACAD_REACTORS
330
43E
102
}
330
43E
100
AcDbScale
 70
     0
300
1:30
140
1.0
141
30.0
290
     0
  0
SCALE
  5
448
102
{ACAD_REACTORS
330
43E
102
}
330
43E
100
AcDbScale
 70
     0
300
1:40
140
1.0
141
40.0
290
     0
  0
SCALE
  5
449
102
{ACAD_REACTORS
330
43E
102
}
330
43E
100
AcDbScale
 70
     0
300
1:50
140
1.0
141
50.0
290
     0
  0
SCALE
  5
44A
102
{ACAD_REACTORS
330
43E
102
}
330
43E
100
AcDbScale
 70
     0
300
1:100
140
1.0
141
100.0
290
     0
  0
SCALE
  5
44B
102
{ACAD_REACTORS
330
43E
102
}
330
43E
100
AcDbScale
 70
     0
300
2:1
140
2.0
141
1.0
290
     0
  0
SCALE
  5
44C
102
{ACAD_REACTORS
330
43E
102
}
330
43E
100
AcDbScale
 70
     0
300
4:1
140
4.0
141
1.0
290
     0
  0
SCALE
  5
44D
102
{ACAD_REACTORS
330
43E
102
}
330
43E
100
AcDbScale
 70
     0
300
8:1
140
8.0
141
1.0
290
     0
  0
SCALE
  5
44E
102
{ACAD_REACTORS
330
43E
102
}
330
43E
100
AcDbScale
 70
     0
300
10:1
140
10.0
141
1.0
290
     0
  0
SCALE
  5
44F
102
{ACAD_REACTORS
330
43E
102
}
330
43E
100
AcDbScale
 70
     0
300
100:1
140
100.0
141
1.0
290
     0
  0
SCALE
  5
450
102
{ACAD_REACTORS
330
43E
102
}
330
43E
100
AcDbScale
 70
     0
300
1/128" = 1'-0"
140
0.0078125
141
12.0
290
     0
  0
SCALE
  5
451
102
{ACAD_REACTORS
330
43E
102
}
330
43E
100
AcDbScale
 70
     0
300
1/64" = 1'-0"
140
0.015625
141
12.0
290
     0
  0
SCALE
  5
452
102
{ACAD_REACTORS
330
43E
102
}
330
43E
100
AcDbScale
 70
     0
300
1/32" = 1'-0"
140
0.03125
141
12.0
290
     0
  0
SCALE
  5
453
102
{ACAD_REACTORS
330
43E
102
}
330
43E
100
AcDbScale
 70
     0
300
1/16" = 1'-0"
140
0.0625
141
12.0
290
     0
  0
SCALE
  5
454
102
{ACAD_REACTORS
330
43E
102
}
330
43E
100
AcDbScale
 70
     0
300
3/32" = 1'-0"
140
0.09375
141
12.0
290
     0
  0
SCALE
  5
455
102
{ACAD_REACTORS
330
43E
102
}
330
43E
100
AcDbScale
 70
     0
300
1/8" = 1'-0"
140
0.125
141
12.0
290
     0
  0
SCALE
  5
456
102
{ACAD_REACTORS
330
43E
102
}
330
43E
100
AcDbScale
 70
     0
300
3/16" = 1'-0"
140
0.1875
141
12.0
290
     0
  0
SCALE
  5
457
102
{ACAD_REACTORS
330
43E
102
}
330
43E
100
AcDbScale
 70
     0
300
1/4" = 1'-0"
140
0.25
141
12.0
290
     0
  0
SCALE
  5
458
102
{ACAD_REACTORS
330
43E
102
}
330
43E
100
AcDbScale
 70
     0
300
3/8" = 1'-0"
140
0.375
141
12.0
290
     0
  0
SCALE
  5
459
102
{ACAD_REACTORS
330
43E
102
}
330
43E
100
AcDbScale
 70
     0
300
1/2" = 1'-0"
140
0.5
141
12.0
290
     0
  0
SCALE
  5
45A
102
{ACAD_REACTORS
330
43E
102
}
330
43E
100
AcDbScale
 70
     0
300
3/4" = 1'-0"
140
0.75
141
12.0
290
     0
  0
SCALE
  5
45B
102
{ACAD_REACTORS
330
43E
102
}
330
43E
100
AcDbScale
 70
     0
300
1" = 1'-0"
140
1.0
141
12.0
290
     0
  0
SCALE
  5
45C
102
{ACAD_REACTORS
330
43E
102
}
330
43E
100
AcDbScale
 70
     0
300
1-1/2" = 1'-0"
140
1.5
141
12.0
290
     0
  0
SCALE
  5
45D
102
{ACAD_REACTORS
330
43E
102
}
330
43E
100
AcDbScale
 70
     0
300
3" = 1'-0"
140
3.0
141
12.0
290
     0
  0
SCALE
  5
45E
102
{ACAD_REACTORS
330
43E
102
}
330
43E
100
AcDbScale
 70
     0
300
6" = 1'-0"
140
6.0
141
12.0
290
     0
  0
SCALE
  5
45F
102
{ACAD_REACTORS
330
43E
102
}
330
43E
100
AcDbScale
 70
     0
300
1'-0" = 1'-0"
140
12.0
141
12.0
290
     0
  0
VISUALSTYLE
  5
468
102
{ACAD_REACTORS
330
463
102
}
102
{ACAD_XDICTIONARY
360
48B
102
}
330
463
100
AcDbVisualStyle
  2
2dWireframe
 70
     4
 71
     0
 72
     2
 73
     0
 90
        0
 40
-0.6
 41
-30.0
 62
     5
 63
     7
 74
     1
 91
        4
 64
     7
 65
   257
 75
     1
175
     1
 42
1.0
 92
        0
 66
   257
 43
1.0
 76
     1
 77
     6
 78
     2
 67
     7
 79
     5
170
     0
171
     0
290
     0
174
     0
 93
        1
 44
0.0
173
     0
291
     0
 45
0.0
1001
ACAD
1000
AcDbSavedByObjectVersion
1070
     0
  0
VISUALSTYLE
  5
46A
102
{ACAD_REACTORS
330
463
102
}
102
{ACAD_XDICTIONARY
360
48F
102
}
330
463
100
AcDbVisualStyle
  2
3D Hidden
 70
     6
 71
     1
 72
     2
 73
     2
 90
        0
 40
-0.6
 41
-30.0
 62
     5
 63
     7
 74
     2
 91
        2
 64
     7
 65
   257
 75
     2
175
     1
 42
40.0
 92
        0
 66
   257
 43
1.0
 76
     1
 77
     6
 78
     2
 67
     7
 79
     3
170
     0
171
     0
290
     0
174
     0
 93
        1
 44
0.0
173
     0
291
     0
 45
0.0
1001
ACAD
1000
AcDbSavedByObjectVersion
1070
     0
  0
VISUALSTYLE
  5
469
102
{ACAD_REACTORS
330
463
102
}
102
{ACAD_XDICTIONARY
360
48D
102
}
330
463
100
AcDbVisualStyle
  2
3dWireframe
 70
     5
 71
     0
 72
     2
 73
     0
 90
        0
 40
-0.6
 41
-30.0
 62
     5
 63
     7
 74
     1
 91
        4
 64
     7
 65
   257
 75
     1
175
     1
 42
1.0
 92
        0
 66
   257
 43
1.0
 76
     1
 77
     6
 78
     2
 67
     7
 79
     5
170
     0
171
     0
290
     0
174
     0
 93
        1
 44
0.0
173
     0
291
     0
 45
0.0
1001
ACAD
1000
AcDbSavedByObjectVersion
1070
     0
  0
VISUALSTYLE
  5
46B
102
{ACAD_REACTORS
330
463
102
}
102
{ACAD_XDICTIONARY
360
491
102
}
330
463
100
AcDbVisualStyle
  2
Basic
 70
     7
 71
     1
 72
     0
 73
     1
 90
        0
 40
-0.6
 41
-30.0
 62
     5
 63
     7
 74
     0
 91
        4
 64
     7
 65
   257
 75
     1
175
     1
 42
1.0
 92
        8
 66
     7
 43
1.0
 76
     1
 77
     6
 78
     2
 67
     7
 79
     5
170
     0
171
     0
290
     0
174
     0
 93
        1
 44
0.0
173
     0
291
     1
 45
0.0
1001
ACAD
1000
AcDbSavedByObjectVersion
1070
     0
  0
VISUALSTYLE
  5
46F
102
{ACAD_REACTORS
330
463
102
}
102
{ACAD_XDICTIONARY
360
499
102
}
330
463
100
AcDbVisualStyle
  2
Brighten
 70
    12
 71
     2
 72
     2
 73
     0
 90
        0
 40
-0.6
 41
-30.0
 62
     5
 63
     7
 74
     1
 91
        4
 64
     7
 65
   257
 75
     1
175
     1
 42
1.0
 92
        8
 66
     7
 43
1.0
 76
     1
 77
     6
 78
     2
 67
     7
 79
     5
170
     0
171
     0
290
     0
174
     0
 93
        1
 44
50.0
173
     0
291
     1
 45
0.0
1001
ACAD
1000
AcDbSavedByObjectVersion
1070
     0
  0
VISUALSTYLE
  5
473
102
{ACAD_REACTORS
330
463
102
}
102
{ACAD_XDICTIONARY
360
4A1
102
}
330
463
100
AcDbVisualStyle
  2
ColorChange
 70
    16
 71
     2
 72
     2
 73
     3
 90
        0
 40
-0.6
 41
-30.0
 62
     5
 63
     8
 74
     1
 91
        4
 64
     7
 65
   257
 75
     1
175
     1
 42
1.0
 92
        8
 66
     8
 43
1.0
 76
     1
 77
     6
 78
     2
 67
     7
 79
     5
170
     0
171
     0
290
     0
174
     0
 93
        1
 44
0.0
173
     0
291
     1
 45
0.0
1001
ACAD
1000
AcDbSavedByObjectVersion
1070
     0
  0
VISUALSTYLE
  5
46D
102
{ACAD_REACTORS
330
463
102
}
102
{ACAD_XDICTIONARY
360
495
102
}
330
463
100
AcDbVisualStyle
  2
Conceptual
 70
     9
 71
     3
 72
     2
 73
     0
 90
        0
 40
-0.6
 41
-30.0
 62
     5
 63
     7
 74
     2
 91
        2
 64
     7
 65
   257
 75
     1
175
     1
 42
40.0
 92
        8
 66
     7
 43
1.0
 76
     1
 77
     6
 78
     2
 67
     7
 79
     3
170
     0
171
     0
290
     0
174
     0
 93
        1
 44
0.0
173
     0
291
     0
 45
0.0
1001
ACAD
1000
AcDbSavedByObjectVersion
1070
     0
  0
VISUALSTYLE
  5
46E
102
{ACAD_REACTORS
330
463
102
}
102
{ACAD_XDICTIONARY
360
497
102
}
330
463
100
AcDbVisualStyle
  2
Dim
 70
    11
 71
     2
 72
     2
 73
     0
 90
        0
 40
-0.6
 41
-30.0
 62
     5
 63
     7
 74
     1
 91
        4
 64
     7
 65
   257
 75
     1
175
     1
 42
1.0
 92
        8
 66
     7
 43
1.0
 76
     1
 77
     6
 78
     2
 67
     7
 79
     5
170
     0
171
     0
290
     0
174
     0
 93
        1
 44
-50.0
173
     0
291
     1
 45
0.0
1001
ACAD
1000
AcDbSavedByObjectVersion
1070
     0
  0
VISUALSTYLE
  5
472
102
{ACAD_REACTORS
330
463
102
}
102
{ACAD_XDICTIONARY
360
49F
102
}
330
463
100
AcDbVisualStyle
  2
Facepattern
 70
    15
 71
     2
 72
     2
 73
     0
 90
        0
 40
-0.6
 41
-30.0
 62
     5
 63
     7
 74
     1
 91
        4
 64
     7
 65
   257
 75
     1
175
     1
 42
1.0
 92
        8
 66
     7
 43
1.0
 76
     1
 77
     6
 78
     2
 67
     7
 79
     5
170
     0
171
     0
290
     0
174
     0
 93
        1
 44
0.0
173
     0
291
     1
 45
0.0
1001
ACAD
1000
AcDbSavedByObjectVersion
1070
     0
  0
VISUALSTYLE
  5
464
102
{ACAD_REACTORS
330
463
102
}
102
{ACAD_XDICTIONARY
360
483
102
}
330
463
100
AcDbVisualStyle
  2
Flat
 70
     0
 71
     2
 72
     1
 73
     1
 90
        2
 40
-0.6
 41
30.0
 62
     5
 63
     7
 74
     0
 91
        4
 64
     7
 65
   257
 75
     1
175
     1
 42
1.0
 92
        8
 66
     7
 43
1.0
 76
     1
 77
     6
 78
     2
 67
     7
 79
     5
170
     0
171
     0
290
     0
174
     0
 93
       13
 44
0.0
173
     0
291
     1
 45
0.0
1001
ACAD
1000
AcDbSavedByObjectVersion
1070
     0
  0
VISUALSTYLE
  5
465
102
{ACAD_REACTORS
330
463
102
}
102
{ACAD_XDICTIONARY
360
485
102
}
330
463
100
AcDbVisualStyle
  2
FlatWithEdges
 70
     1
 71
     2
 72
     1
 73
     1
 90
        2
 40
-0.6
 41
30.0
 62
     5
 63
     7
 74
     1
 91
        4
 64
     7
 65
   257
 75
     1
175
     1
 42
1.0
 92
        0
 66
   257
 43
1.0
 76
     1
 77
     6
 78
     2
 67
     7
 79
     5
170
     0
171
     0
290
     0
174
     0
 93
       13
 44
0.0
173
     0
291
     1
 45
0.0
1001
ACAD
1000
AcDbSavedByObjectVersion
1070
     0
  0
VISUALSTYLE
  5
466
102
{ACAD_REACTORS
330
463
102
}
102
{ACAD_XDICTIONARY
360
487
102
}
330
463
100
AcDbVisualStyle
  2
Gouraud
 70
     2
 71
     2
 72
     2
 73
     1
 90
        2
 40
-0.6
 41
30.0
 62
     5
 63
     7
 74
     0
 91
        4
 64
     7
 65
   257
 75
     1
175
     1
 42
1.0
 92
        0
 66
     7
 43
1.0
 76
     1
 77
     6
 78
     2
 67
     7
 79
     5
170
     0
171
     0
290
     0
174
     0
 93
       13
 44
0.0
173
     0
291
     1
 45
0.0
1001
ACAD
1000
AcDbSavedByObjectVersion
1070
     0
  0
VISUALSTYLE
  5
467
102
{ACAD_REACTORS
330
463
102
}
102
{ACAD_XDICTIONARY
360
489
102
}
330
463
100
AcDbVisualStyle
  2
GouraudWithEdges
 70
     3
 71
     2
 72
     2
 73
     1
 90
        2
 40
-0.6
 41
30.0
 62
     5
 63
     7
 74
     1
 91
        4
 64
     7
 65
   257
 75
     1
175
     1
 42
1.0
 92
        0
 66
   257
 43
1.0
 76
     1
 77
     6
 78
     2
 67
     7
 79
     5
170
     0
171
     0
290
     0
174
     0
 93
       13
 44
0.0
173
     0
291
     1
 45
0.0
1001
ACAD
1000
AcDbSavedByObjectVersion
1070
     0
  0
VISUALSTYLE
  5
471
102
{ACAD_REACTORS
330
463
102
}
102
{ACAD_XDICTIONARY
360
49D
102
}
330
463
100
AcDbVisualStyle
  2
Linepattern
 70
    14
 71
     2
 72
     2
 73
     0
 90
        0
 40
-0.6
 41
-30.0
 62
     5
 63
     7
 74
     1
 91
        4
 64
     7
 65
   257
 75
     7
175
     7
 42
1.0
 92
        8
 66
     7
 43
1.0
 76
     1
 77
     6
 78
     2
 67
     7
 79
     5
170
     0
171
     0
290
     0
174
     0
 93
        1
 44
0.0
173
     0
291
     1
 45
0.0
1001
ACAD
1000
AcDbSavedByObjectVersion
1070
     0
  0
VISUALSTYLE
  5
46C
102
{ACAD_REACTORS
330
463
102
}
102
{ACAD_XDICTIONARY
360
493
102
}
330
463
100
AcDbVisualStyle
  2
Realistic
 70
     8
 71
     2
 72
     2
 73
     0
 90
        0
 40
-0.6
 41
-30.0
 62
     5
 63
     7
 74
     1
 91
        0
 64
     7
 65
   257
 75
     1
175
     1
 42
1.0
 92
        8
 66
     8
 43
1.0
 76
     1
 77
     6
 78
     2
 67
     7
 79
     5
170
     0
171
     0
290
     0
174
     0
 93
       13
 44
0.0
173
     0
291
     0
 45
0.0
1001
ACAD
1000
AcDbSavedByObjectVersion
1070
     0
  0
VISUALSTYLE
  5
470
102
{ACAD_REACTORS
330
463
102
}
102
{ACAD_XDICTIONARY
360
49B
102
}
330
463
100
AcDbVisualStyle
  2
Thicken
 70
    13
 71
     2
 72
     2
 73
     0
 90
        0
 40
-0.6
 41
-30.0
 62
     5
 63
     7
 74
     1
 91
        4
 64
     7
 65
   257
 75
     1
175
     1
 42
1.0
 92
       12
 66
     7
 43
1.0
 76
     1
 77
     6
 78
     2
 67
     7
 79
     5
170
     0
171
     0
290
     0
174
     0
 93
        1
 44
0.0
173
     0
291
     1
 45
0.0
1001
ACAD
1000
AcDbSavedByObjectVersion
1070
     0
  0
DICTIONARYVAR
  5
482
102
{ACAD_REACTORS
330
47A
102
}
330
47A
100
DictionaryVariables
280
     0
  1
1:1
  0
DICTIONARYVAR
  5
47E
102
{ACAD_REACTORS
330
47A
102
}
330
47A
100
DictionaryVariables
280
     0
  1
2
  0
DICTIONARYVAR
  5
47F
102
{ACAD_REACTORS
330
47A
102
}
330
47A
100
DictionaryVariables
280
     0
  1
1
  0
DICTIONARYVAR
  5
47D
102
{ACAD_REACTORS
330
47A
102
}
330
47A
100
DictionaryVariables
280
     0
  1
0
  0
DICTIONARY
  5
4A5
330
476
100
AcDbDictionary
280
     1
281
     1
  3
ACAD_XREC_ROUNDTRIP
360
4A6
  0
DICTIONARY
  5
4A3
330
475
100
AcDbDictionary
280
     1
281
     1
  3
ACAD_XREC_ROUNDTRIP
360
4A4
  0
DICTIONARY
  5
4A7
330
477
100
AcDbDictionary
280
     1
281
     1
  3
ACAD_XREC_ROUNDTRIP
360
4A8
  0
DICTIONARY
  5
48B
330
468
100
AcDbDictionary
280
     1
281
     1
  3
ACAD_XREC_ROUNDTRIP
360
48C
  0
DICTIONARY
  5
48F
330
46A
100
AcDbDictionary
280
     1
281
     1
  3
ACAD_XREC_ROUNDTRIP
360
490
  0
DICTIONARY
  5
48D
330
469
100
AcDbDictionary
280
     1
281
     1
  3
ACAD_XREC_ROUNDTRIP
360
48E
  0
DICTIONARY
  5
491
330
46B
100
AcDbDictionary
280
     1
281
     1
  3
ACAD_XREC_ROUNDTRIP
360
492
  0
DICTIONARY
  5
499
330
46F
100
AcDbDictionary
280
     1
281
     1
  3
ACAD_XREC_ROUNDTRIP
360
49A
  0
DICTIONARY
  5
4A1
330
473
100
AcDbDictionary
280
     1
281
     1
  3
ACAD_XREC_ROUNDTRIP
360
4A2
  0
DICTIONARY
  5
495
330
46D
100
AcDbDictionary
280
     1
281
     1
  3
ACAD_XREC_ROUNDTRIP
360
496
  0
DICTIONARY
  5
497
330
46E
100
AcDbDictionary
280
     1
281
     1
  3
ACAD_XREC_ROUNDTRIP
360
498
  0
DICTIONARY
  5
49F
330
472
100
AcDbDictionary
280
     1
281
     1
  3
ACAD_XREC_ROUNDTRIP
360
4A0
  0
DICTIONARY
  5
483
330
464
100
AcDbDictionary
280
     1
281
     1
  3
ACAD_XREC_ROUNDTRIP
360
484
  0
DICTIONARY
  5
485
330
465
100
AcDbDictionary
280
     1
281
     1
  3
ACAD_XREC_ROUNDTRIP
360
486
  0
DICTIONARY
  5
487
330
466
100
AcDbDictionary
280
     1
281
     1
  3
ACAD_XREC_ROUNDTRIP
360
488
  0
DICTIONARY
  5
489
330
467
100
AcDbDictionary
280
     1
281
     1
  3
ACAD_XREC_ROUNDTRIP
360
48A
  0
DICTIONARY
  5
49D
330
471
100
AcDbDictionary
280
     1
281
     1
  3
ACAD_XREC_ROUNDTRIP
360
49E
  0
DICTIONARY
  5
493
330
46C
100
AcDbDictionary
280
     1
281
     1
  3
ACAD_XREC_ROUNDTRIP
360
494
  0
DICTIONARY
  5
49B
330
470
100
AcDbDictionary
280
     1
281
     1
  3
ACAD_XREC_ROUNDTRIP
360
49C
  0
XRECORD
  5
4A6
102
{ACAD_REACTORS
330
4A5
102
}
330
4A5
100
AcDbXrecord
280
     1
102
MATERIAL
148
0.0
149
0.0
149
0.0
 93
        0
 94
      127
282
     0
 72
     1
 77
     1
171
     1
175
     1
179
     1
273
     0
  0
XRECORD
  5
4A4
102
{ACAD_REACTORS
330
4A3
102
}
330
4A3
100
AcDbXrecord
280
     1
102
MATERIAL
148
0.0
149
0.0
149
0.0
 93
        0
 94
      127
282
     0
 72
     1
 77
     1
171
     1
175
     1
179
     1
273
     0
  0
XRECORD
  5
4A8
102
{ACAD_REACTORS
330
4A7
102
}
330
4A7
100
AcDbXrecord
280
     1
102
MATERIAL
148
0.0
149
0.0
149
0.0
 93
        0
 94
      127
282
     0
 72
     1
 77
     1
171
     1
175
     1
179
     1
273
     0
  0
XRECORD
  5
48C
102
{ACAD_REACTORS
330
48B
102
}
330
48B
100
AcDbXrecord
280
     1
102
RTVSPropertyOp0
 70
     1
102
RTVSPropertyOp1
 70
     1
102
RTVSPropertyOp2
 70
     1
102
RTVSPropertyOp3
 70
     1
102
RTVSPropertyOp4
 70
     1
102
RTVSPropertyOp5
 70
     1
102
RTVSPropertyOp6
 70
     1
102
RTVSPropertyOp7
 70
     1
102
RTVSPropertyOp8
 70
     1
102
RTVSPropertyOp9
 70
     1
102
RTVSPropertyOp10
 70
     1
102
RTVSPropertyOp11
 70
     1
102
RTVSPropertyOp12
 70
     1
102
RTVSPropertyOp13
 70
     1
102
RTVSPropertyOp14
 70
     1
102
RTVSPropertyOp15
 70
     1
102
RTVSPropertyOp16
 70
     1
102
RTVSPropertyOp17
 70
     1
102
RTVSPropertyOp18
 70
     1
102
RTVSPropertyOp19
 70
     1
102
RTVSPropertyOp20
 70
     1
102
RTVSPropertyOp21
 70
     1
102
RTVSPropertyOp22
 70
     1
102
RTVSPropertyOp23
 70
     1
102
RTVSPropertyOp24
 70
     1
102
RTVSPropertyOp25
 70
     1
102
RTVSPropertyOp26
 70
     1
102
RTVSPropertyOp27
 70
     1
102
RTVSPropertyOp28
 70
     1
102
RTVSPropertyOp29
 70
     1
102
RTVSPropertyOp30
 70
     1
102
RTVSPropertyOp31
 70
     1
102
RTVSPropertyOp32
 70
     1
  0
XRECORD
  5
490
102
{ACAD_REACTORS
330
48F
102
}
330
48F
100
AcDbXrecord
280
     1
102
RTVSPropertyOp0
 70
     1
102
RTVSPropertyOp1
 70
     1
102
RTVSPropertyOp2
 70
     1
102
RTVSPropertyOp3
 70
     1
102
RTVSPropertyOp4
 70
     1
102
RTVSPropertyOp5
 70
     1
102
RTVSPropertyOp6
 70
     1
102
RTVSPropertyOp7
 70
     1
102
RTVSPropertyOp8
 70
     1
102
RTVSPropertyOp9
 70
     1
102
RTVSPropertyOp10
 70
     1
102
RTVSPropertyOp11
 70
     1
102
RTVSPropertyOp12
 70
     1
102
RTVSPropertyOp13
 70
     1
102
RTVSPropertyOp14
 70
     1
102
RTVSPropertyOp15
 70
     1
102
RTVSPropertyOp16
 70
     1
102
RTVSPropertyOp17
 70
     1
102
RTVSPropertyOp18
 70
     1
102
RTVSPropertyOp19
 70
     1
102
RTVSPropertyOp20
 70
     1
102
RTVSPropertyOp21
 70
     1
102
RTVSPropertyOp22
 70
     1
102
RTVSPropertyOp23
 70
     1
102
RTVSPropertyOp24
 70
     1
102
RTVSPropertyOp25
 70
     1
102
RTVSPropertyOp26
 70
     1
102
RTVSPropertyOp27
 70
     1
102
RTVSPropertyOp28
 70
     1
102
RTVSPropertyOp29
 70
     1
102
RTVSPropertyOp30
 70
     1
102
RTVSPropertyOp31
 70
     1
102
RTVSPropertyOp32
 70
     1
  0
XRECORD
  5
48E
102
{ACAD_REACTORS
330
48D
102
}
330
48D
100
AcDbXrecord
280
     1
102
RTVSPropertyOp0
 70
     1
102
RTVSPropertyOp1
 70
     1
102
RTVSPropertyOp2
 70
     1
102
RTVSPropertyOp3
 70
     1
102
RTVSPropertyOp4
 70
     1
102
RTVSPropertyOp5
 70
     1
102
RTVSPropertyOp6
 70
     1
102
RTVSPropertyOp7
 70
     1
102
RTVSPropertyOp8
 70
     1
102
RTVSPropertyOp9
 70
     1
102
RTVSPropertyOp10
 70
     1
102
RTVSPropertyOp11
 70
     1
102
RTVSPropertyOp12
 70
     1
102
RTVSPropertyOp13
 70
     1
102
RTVSPropertyOp14
 70
     1
102
RTVSPropertyOp15
 70
     1
102
RTVSPropertyOp16
 70
     1
102
RTVSPropertyOp17
 70
     1
102
RTVSPropertyOp18
 70
     1
102
RTVSPropertyOp19
 70
     1
102
RTVSPropertyOp20
 70
     1
102
RTVSPropertyOp21
 70
     1
102
RTVSPropertyOp22
 70
     1
102
RTVSPropertyOp23
 70
     1
102
RTVSPropertyOp24
 70
     1
102
RTVSPropertyOp25
 70
     1
102
RTVSPropertyOp26
 70
     1
102
RTVSPropertyOp27
 70
     1
102
RTVSPropertyOp28
 70
     1
102
RTVSPropertyOp29
 70
     1
102
RTVSPropertyOp30
 70
     1
102
RTVSPropertyOp31
 70
     1
102
RTVSPropertyOp32
 70
     1
  0
XRECORD
  5
492
102
{ACAD_REACTORS
330
491
102
}
330
491
100
AcDbXrecord
280
     1
102
RTVSPropertyOp0
 70
     1
102
RTVSPropertyOp1
 70
     1
102
RTVSPropertyOp2
 70
     1
102
RTVSPropertyOp3
 70
     1
102
RTVSPropertyOp4
 70
     1
102
RTVSPropertyOp5
 70
     1
102
RTVSPropertyOp6
 70
     1
102
RTVSPropertyOp7
 70
     1
102
RTVSPropertyOp8
 70
     1
102
RTVSPropertyOp9
 70
     1
102
RTVSPropertyOp10
 70
     1
102
RTVSPropertyOp11
 70
     1
102
RTVSPropertyOp12
 70
     1
102
RTVSPropertyOp13
 70
     1
102
RTVSPropertyOp14
 70
     1
102
RTVSPropertyOp15
 70
     1
102
RTVSPropertyOp16
 70
     1
102
RTVSPropertyOp17
 70
     1
102
RTVSPropertyOp18
 70
     1
102
RTVSPropertyOp19
 70
     1
102
RTVSPropertyOp20
 70
     1
102
RTVSPropertyOp21
 70
     1
102
RTVSPropertyOp22
 70
     1
102
RTVSPropertyOp23
 70
     1
102
RTVSPropertyOp24
 70
     1
102
RTVSPropertyOp25
 70
     1
102
RTVSPropertyOp26
 70
     1
102
RTVSPropertyOp27
 70
     1
102
RTVSPropertyOp28
 70
     1
102
RTVSPropertyOp29
 70
     1
102
RTVSPropertyOp30
 70
     1
102
RTVSPropertyOp31
 70
     1
102
RTVSPropertyOp32
 70
     1
  0
XRECORD
  5
49A
102
{ACAD_REACTORS
330
499
102
}
330
499
100
AcDbXrecord
280
     1
102
RTVSPropertyOp0
 70
     1
102
RTVSPropertyOp1
 70
     1
102
RTVSPropertyOp2
 70
     1
102
RTVSPropertyOp3
 70
     1
102
RTVSPropertyOp4
 70
     1
102
RTVSPropertyOp5
 70
     1
102
RTVSPropertyOp6
 70
     1
102
RTVSPropertyOp7
 70
     1
102
RTVSPropertyOp8
 70
     1
102
RTVSPropertyOp9
 70
     1
102
RTVSPropertyOp10
 70
     1
102
RTVSPropertyOp11
 70
     1
102
RTVSPropertyOp12
 70
     1
102
RTVSPropertyOp13
 70
     1
102
RTVSPropertyOp14
 70
     1
102
RTVSPropertyOp15
 70
     1
102
RTVSPropertyOp16
 70
     1
102
RTVSPropertyOp17
 70
     1
102
RTVSPropertyOp18
 70
     1
102
RTVSPropertyOp19
 70
     1
102
RTVSPropertyOp20
 70
     1
102
RTVSPropertyOp21
 70
     1
102
RTVSPropertyOp22
 70
     1
102
RTVSPropertyOp23
 70
     1
102
RTVSPropertyOp24
 70
     1
102
RTVSPropertyOp25
 70
     1
102
RTVSPropertyOp26
 70
     1
102
RTVSPropertyOp27
 70
     1
102
RTVSPropertyOp28
 70
     1
102
RTVSPropertyOp29
 70
     1
102
RTVSPropertyOp30
 70
     1
102
RTVSPropertyOp31
 70
     1
102
RTVSPropertyOp32
 70
     1
  0
XRECORD
  5
4A2
102
{ACAD_REACTORS
330
4A1
102
}
330
4A1
100
AcDbXrecord
280
     1
102
RTVSPropertyOp0
 70
     1
102
RTVSPropertyOp1
 70
     1
102
RTVSPropertyOp2
 70
     1
102
RTVSPropertyOp3
 70
     1
102
RTVSPropertyOp4
 70
     1
102
RTVSPropertyOp5
 70
     1
102
RTVSPropertyOp6
 70
     1
102
RTVSPropertyOp7
 70
     1
102
RTVSPropertyOp8
 70
     1
102
RTVSPropertyOp9
 70
     1
102
RTVSPropertyOp10
 70
     1
102
RTVSPropertyOp11
 70
     1
102
RTVSPropertyOp12
 70
     1
102
RTVSPropertyOp13
 70
     1
102
RTVSPropertyOp14
 70
     1
102
RTVSPropertyOp15
 70
     1
102
RTVSPropertyOp16
 70
     1
102
RTVSPropertyOp17
 70
     1
102
RTVSPropertyOp18
 70
     1
102
RTVSPropertyOp19
 70
     1
102
RTVSPropertyOp20
 70
     1
102
RTVSPropertyOp21
 70
     1
102
RTVSPropertyOp22
 70
     1
102
RTVSPropertyOp23
 70
     1
102
RTVSPropertyOp24
 70
     1
102
RTVSPropertyOp25
 70
     1
102
RTVSPropertyOp26
 70
     1
102
RTVSPropertyOp27
 70
     1
102
RTVSPropertyOp28
 70
     1
102
RTVSPropertyOp29
 70
     1
102
RTVSPropertyOp30
 70
     1
102
RTVSPropertyOp31
 70
     1
102
RTVSPropertyOp32
 70
     1
  0
XRECORD
  5
496
102
{ACAD_REACTORS
330
495
102
}
330
495
100
AcDbXrecord
280
     1
102
RTVSPropertyOp0
 70
     1
102
RTVSPropertyOp1
 70
     1
102
RTVSPropertyOp2
 70
     1
102
RTVSPropertyOp3
 70
     1
102
RTVSPropertyOp4
 70
     1
102
RTVSPropertyOp5
 70
     1
102
RTVSPropertyOp6
 70
     1
102
RTVSPropertyOp7
 70
     1
102
RTVSPropertyOp8
 70
     1
102
RTVSPropertyOp9
 70
     1
102
RTVSPropertyOp10
 70
     1
102
RTVSPropertyOp11
 70
     1
102
RTVSPropertyOp12
 70
     1
102
RTVSPropertyOp13
 70
     1
102
RTVSPropertyOp14
 70
     1
102
RTVSPropertyOp15
 70
     1
102
RTVSPropertyOp16
 70
     1
102
RTVSPropertyOp17
 70
     1
102
RTVSPropertyOp18
 70
     1
102
RTVSPropertyOp19
 70
     1
102
RTVSPropertyOp20
 70
     1
102
RTVSPropertyOp21
 70
     1
102
RTVSPropertyOp22
 70
     1
102
RTVSPropertyOp23
 70
     1
102
RTVSPropertyOp24
 70
     1
102
RTVSPropertyOp25
 70
     1
102
RTVSPropertyOp26
 70
     1
102
RTVSPropertyOp27
 70
     1
102
RTVSPropertyOp28
 70
     1
102
RTVSPropertyOp29
 70
     1
102
RTVSPropertyOp30
 70
     1
102
RTVSPropertyOp31
 70
     1
102
RTVSPropertyOp32
 70
     1
  0
XRECORD
  5
498
102
{ACAD_REACTORS
330
497
102
}
330
497
100
AcDbXrecord
280
     1
102
RTVSPropertyOp0
 70
     1
102
RTVSPropertyOp1
 70
     1
102
RTVSPropertyOp2
 70
     1
102
RTVSPropertyOp3
 70
     1
102
RTVSPropertyOp4
 70
     1
102
RTVSPropertyOp5
 70
     1
102
RTVSPropertyOp6
 70
     1
102
RTVSPropertyOp7
 70
     1
102
RTVSPropertyOp8
 70
     1
102
RTVSPropertyOp9
 70
     1
102
RTVSPropertyOp10
 70
     1
102
RTVSPropertyOp11
 70
     1
102
RTVSPropertyOp12
 70
     1
102
RTVSPropertyOp13
 70
     1
102
RTVSPropertyOp14
 70
     1
102
RTVSPropertyOp15
 70
     1
102
RTVSPropertyOp16
 70
     1
102
RTVSPropertyOp17
 70
     1
102
RTVSPropertyOp18
 70
     1
102
RTVSPropertyOp19
 70
     1
102
RTVSPropertyOp20
 70
     1
102
RTVSPropertyOp21
 70
     1
102
RTVSPropertyOp22
 70
     1
102
RTVSPropertyOp23
 70
     1
102
RTVSPropertyOp24
 70
     1
102
RTVSPropertyOp25
 70
     1
102
RTVSPropertyOp26
 70
     1
102
RTVSPropertyOp27
 70
     1
102
RTVSPropertyOp28
 70
     1
102
RTVSPropertyOp29
 70
     1
102
RTVSPropertyOp30
 70
     1
102
RTVSPropertyOp31
 70
     1
102
RTVSPropertyOp32
 70
     1
  0
XRECORD
  5
4A0
102
{ACAD_REACTORS
330
49F
102
}
330
49F
100
AcDbXrecord
280
     1
102
RTVSPropertyOp0
 70
     1
102
RTVSPropertyOp1
 70
     1
102
RTVSPropertyOp2
 70
     1
102
RTVSPropertyOp3
 70
     1
102
RTVSPropertyOp4
 70
     1
102
RTVSPropertyOp5
 70
     1
102
RTVSPropertyOp6
 70
     1
102
RTVSPropertyOp7
 70
     1
102
RTVSPropertyOp8
 70
     1
102
RTVSPropertyOp9
 70
     1
102
RTVSPropertyOp10
 70
     1
102
RTVSPropertyOp11
 70
     1
102
RTVSPropertyOp12
 70
     1
102
RTVSPropertyOp13
 70
     1
102
RTVSPropertyOp14
 70
     1
102
RTVSPropertyOp15
 70
     1
102
RTVSPropertyOp16
 70
     1
102
RTVSPropertyOp17
 70
     1
102
RTVSPropertyOp18
 70
     1
102
RTVSPropertyOp19
 70
     1
102
RTVSPropertyOp20
 70
     1
102
RTVSPropertyOp21
 70
     1
102
RTVSPropertyOp22
 70
     1
102
RTVSPropertyOp23
 70
     1
102
RTVSPropertyOp24
 70
     1
102
RTVSPropertyOp25
 70
     1
102
RTVSPropertyOp26
 70
     1
102
RTVSPropertyOp27
 70
     1
102
RTVSPropertyOp28
 70
     1
102
RTVSPropertyOp29
 70
     1
102
RTVSPropertyOp30
 70
     1
102
RTVSPropertyOp31
 70
     1
102
RTVSPropertyOp32
 70
     1
  0
XRECORD
  5
484
102
{ACAD_REACTORS
330
483
102
}
330
483
100
AcDbXrecord
280
     1
102
RTVSPropertyOp0
 70
     1
102
RTVSPropertyOp1
 70
     1
102
RTVSPropertyOp2
 70
     1
102
RTVSPropertyOp3
 70
     1
102
RTVSPropertyOp4
 70
     1
102
RTVSPropertyOp5
 70
     1
102
RTVSPropertyOp6
 70
     1
102
RTVSPropertyOp7
 70
     1
102
RTVSPropertyOp8
 70
     1
102
RTVSPropertyOp9
 70
     1
102
RTVSPropertyOp10
 70
     1
102
RTVSPropertyOp11
 70
     1
102
RTVSPropertyOp12
 70
     1
102
RTVSPropertyOp13
 70
     1
102
RTVSPropertyOp14
 70
     1
102
RTVSPropertyOp15
 70
     1
102
RTVSPropertyOp16
 70
     1
102
RTVSPropertyOp17
 70
     1
102
RTVSPropertyOp18
 70
     1
102
RTVSPropertyOp19
 70
     1
102
RTVSPropertyOp20
 70
     1
102
RTVSPropertyOp21
 70
     1
102
RTVSPropertyOp22
 70
     1
102
RTVSPropertyOp23
 70
     1
102
RTVSPropertyOp24
 70
     1
102
RTVSPropertyOp25
 70
     1
102
RTVSPropertyOp26
 70
     1
102
RTVSPropertyOp27
 70
     1
102
RTVSPropertyOp28
 70
     1
102
RTVSPropertyOp29
 70
     1
102
RTVSPropertyOp30
 70
     1
102
RTVSPropertyOp31
 70
     1
102
RTVSPropertyOp32
 70
     1
  0
XRECORD
  5
486
102
{ACAD_REACTORS
330
485
102
}
330
485
100
AcDbXrecord
280
     1
102
RTVSPropertyOp0
 70
     1
102
RTVSPropertyOp1
 70
     1
102
RTVSPropertyOp2
 70
     1
102
RTVSPropertyOp3
 70
     1
102
RTVSPropertyOp4
 70
     1
102
RTVSPropertyOp5
 70
     1
102
RTVSPropertyOp6
 70
     1
102
RTVSPropertyOp7
 70
     1
102
RTVSPropertyOp8
 70
     1
102
RTVSPropertyOp9
 70
     1
102
RTVSPropertyOp10
 70
     1
102
RTVSPropertyOp11
 70
     1
102
RTVSPropertyOp12
 70
     1
102
RTVSPropertyOp13
 70
     1
102
RTVSPropertyOp14
 70
     1
102
RTVSPropertyOp15
 70
     1
102
RTVSPropertyOp16
 70
     1
102
RTVSPropertyOp17
 70
     1
102
RTVSPropertyOp18
 70
     1
102
RTVSPropertyOp19
 70
     1
102
RTVSPropertyOp20
 70
     1
102
RTVSPropertyOp21
 70
     1
102
RTVSPropertyOp22
 70
     1
102
RTVSPropertyOp23
 70
     1
102
RTVSPropertyOp24
 70
     1
102
RTVSPropertyOp25
 70
     1
102
RTVSPropertyOp26
 70
     1
102
RTVSPropertyOp27
 70
     1
102
RTVSPropertyOp28
 70
     1
102
RTVSPropertyOp29
 70
     1
102
RTVSPropertyOp30
 70
     1
102
RTVSPropertyOp31
 70
     1
102
RTVSPropertyOp32
 70
     1
  0
XRECORD
  5
488
102
{ACAD_REACTORS
330
487
102
}
330
487
100
AcDbXrecord
280
     1
102
RTVSPropertyOp0
 70
     1
102
RTVSPropertyOp1
 70
     1
102
RTVSPropertyOp2
 70
     1
102
RTVSPropertyOp3
 70
     1
102
RTVSPropertyOp4
 70
     1
102
RTVSPropertyOp5
 70
     1
102
RTVSPropertyOp6
 70
     1
102
RTVSPropertyOp7
 70
     1
102
RTVSPropertyOp8
 70
     1
102
RTVSPropertyOp9
 70
     1
102
RTVSPropertyOp10
 70
     1
102
RTVSPropertyOp11
 70
     1
102
RTVSPropertyOp12
 70
     1
102
RTVSPropertyOp13
 70
     1
102
RTVSPropertyOp14
 70
     1
102
RTVSPropertyOp15
 70
     1
102
RTVSPropertyOp16
 70
     1
102
RTVSPropertyOp17
 70
     1
102
RTVSPropertyOp18
 70
     1
102
RTVSPropertyOp19
 70
     1
102
RTVSPropertyOp20
 70
     1
102
RTVSPropertyOp21
 70
     1
102
RTVSPropertyOp22
 70
     1
102
RTVSPropertyOp23
 70
     1
102
RTVSPropertyOp24
 70
     1
102
RTVSPropertyOp25
 70
     1
102
RTVSPropertyOp26
 70
     1
102
RTVSPropertyOp27
 70
     1
102
RTVSPropertyOp28
 70
     1
102
RTVSPropertyOp29
 70
     1
102
RTVSPropertyOp30
 70
     1
102
RTVSPropertyOp31
 70
     1
102
RTVSPropertyOp32
 70
     1
  0
XRECORD
  5
48A
102
{ACAD_REACTORS
330
489
102
}
330
489
100
AcDbXrecord
280
     1
102
RTVSPropertyOp0
 70
     1
102
RTVSPropertyOp1
 70
     1
102
RTVSPropertyOp2
 70
     1
102
RTVSPropertyOp3
 70
     1
102
RTVSPropertyOp4
 70
     1
102
RTVSPropertyOp5
 70
     1
102
RTVSPropertyOp6
 70
     1
102
RTVSPropertyOp7
 70
     1
102
RTVSPropertyOp8
 70
     1
102
RTVSPropertyOp9
 70
     1
102
RTVSPropertyOp10
 70
     1
102
RTVSPropertyOp11
 70
     1
102
RTVSPropertyOp12
 70
     1
102
RTVSPropertyOp13
 70
     1
102
RTVSPropertyOp14
 70
     1
102
RTVSPropertyOp15
 70
     1
102
RTVSPropertyOp16
 70
     1
102
RTVSPropertyOp17
 70
     1
102
RTVSPropertyOp18
 70
     1
102
RTVSPropertyOp19
 70
     1
102
RTVSPropertyOp20
 70
     1
102
RTVSPropertyOp21
 70
     1
102
RTVSPropertyOp22
 70
     1
102
RTVSPropertyOp23
 70
     1
102
RTVSPropertyOp24
 70
     1
102
RTVSPropertyOp25
 70
     1
102
RTVSPropertyOp26
 70
     1
102
RTVSPropertyOp27
 70
     1
102
RTVSPropertyOp28
 70
     1
102
RTVSPropertyOp29
 70
     1
102
RTVSPropertyOp30
 70
     1
102
RTVSPropertyOp31
 70
     1
102
RTVSPropertyOp32
 70
     1
  0
XRECORD
  5
49E
102
{ACAD_REACTORS
330
49D
102
}
330
49D
100
AcDbXrecord
280
     1
102
RTVSPropertyOp0
 70
     1
102
RTVSPropertyOp1
 70
     1
102
RTVSPropertyOp2
 70
     1
102
RTVSPropertyOp3
 70
     1
102
RTVSPropertyOp4
 70
     1
102
RTVSPropertyOp5
 70
     1
102
RTVSPropertyOp6
 70
     1
102
RTVSPropertyOp7
 70
     1
102
RTVSPropertyOp8
 70
     1
102
RTVSPropertyOp9
 70
     1
102
RTVSPropertyOp10
 70
     1
102
RTVSPropertyOp11
 70
     1
102
RTVSPropertyOp12
 70
     1
102
RTVSPropertyOp13
 70
     1
102
RTVSPropertyOp14
 70
     1
102
RTVSPropertyOp15
 70
     1
102
RTVSPropertyOp16
 70
     1
102
RTVSPropertyOp17
 70
     1
102
RTVSPropertyOp18
 70
     1
102
RTVSPropertyOp19
 70
     1
102
RTVSPropertyOp20
 70
     1
102
RTVSPropertyOp21
 70
     1
102
RTVSPropertyOp22
 70
     1
102
RTVSPropertyOp23
 70
     1
102
RTVSPropertyOp24
 70
     1
102
RTVSPropertyOp25
 70
     1
102
RTVSPropertyOp26
 70
     1
102
RTVSPropertyOp27
 70
     1
102
RTVSPropertyOp28
 70
     1
102
RTVSPropertyOp29
 70
     1
102
RTVSPropertyOp30
 70
     1
102
RTVSPropertyOp31
 70
     1
102
RTVSPropertyOp32
 70
     1
  0
XRECORD
  5
494
102
{ACAD_REACTORS
330
493
102
}
330
493
100
AcDbXrecord
280
     1
102
RTVSPropertyOp0
 70
     1
102
RTVSPropertyOp1
 70
     1
102
RTVSPropertyOp2
 70
     1
102
RTVSPropertyOp3
 70
     1
102
RTVSPropertyOp4
 70
     1
102
RTVSPropertyOp5
 70
     1
102
RTVSPropertyOp6
 70
     1
102
RTVSPropertyOp7
 70
     1
102
RTVSPropertyOp8
 70
     1
102
RTVSPropertyOp9
 70
     1
102
RTVSPropertyOp10
 70
     1
102
RTVSPropertyOp11
 70
     1
102
RTVSPropertyOp12
 70
     1
102
RTVSPropertyOp13
 70
     1
102
RTVSPropertyOp14
 70
     1
102
RTVSPropertyOp15
 70
     1
102
RTVSPropertyOp16
 70
     1
102
RTVSPropertyOp17
 70
     1
102
RTVSPropertyOp18
 70
     1
102
RTVSPropertyOp19
 70
     1
102
RTVSPropertyOp20
 70
     1
102
RTVSPropertyOp21
 70
     1
102
RTVSPropertyOp22
 70
     1
102
RTVSPropertyOp23
 70
     1
102
RTVSPropertyOp24
 70
     1
102
RTVSPropertyOp25
 70
     1
102
RTVSPropertyOp26
 70
     1
102
RTVSPropertyOp27
 70
     1
102
RTVSPropertyOp28
 70
     1
102
RTVSPropertyOp29
 70
     1
102
RTVSPropertyOp30
 70
     1
102
RTVSPropertyOp31
 70
     1
102
RTVSPropertyOp32
 70
     1
  0
XRECORD
  5
49C
102
{ACAD_REACTORS
330
49B
102
}
330
49B
100
AcDbXrecord
280
     1
102
RTVSPropertyOp0
 70
     1
102
RTVSPropertyOp1
 70
     1
102
RTVSPropertyOp2
 70
     1
102
RTVSPropertyOp3
 70
     1
102
RTVSPropertyOp4
 70
     1
102
RTVSPropertyOp5
 70
     1
102
RTVSPropertyOp6
 70
     1
102
RTVSPropertyOp7
 70
     1
102
RTVSPropertyOp8
 70
     1
102
RTVSPropertyOp9
 70
     1
102
RTVSPropertyOp10
 70
     1
102
RTVSPropertyOp11
 70
     1
102
RTVSPropertyOp12
 70
     1
102
RTVSPropertyOp13
 70
     1
102
RTVSPropertyOp14
 70
     1
102
RTVSPropertyOp15
 70
     1
102
RTVSPropertyOp16
 70
     1
102
RTVSPropertyOp17
 70
     1
102
RTVSPropertyOp18
 70
     1
102
RTVSPropertyOp19
 70
     1
102
RTVSPropertyOp20
 70
     1
102
RTVSPropertyOp21
 70
     1
102
RTVSPropertyOp22
 70
     1
102
RTVSPropertyOp23
 70
     1
102
RTVSPropertyOp24
 70
     1
102
RTVSPropertyOp25
 70
     1
102
RTVSPropertyOp26
 70
     1
102
RTVSPropertyOp27
 70
     1
102
RTVSPropertyOp28
 70
     1
102
RTVSPropertyOp29
 70
     1
102
RTVSPropertyOp30
 70
     1
102
RTVSPropertyOp31
 70
     1
102
RTVSPropertyOp32
 70
     1
  0
ENDSEC
  0
EOF
