  0
SECTION
  2
HEADER
  9
$ACADVER
  1
AC1015
  9
$ACADMAINTVER
 70
     6
  9
$DWGCODEPAGE
  3
ANSI_1252
  9
$INSBASE
 10
0.0
 20
0.0
 30
0.0
  9
$EXTMIN
 10
0.0
 20
0.0
 30
0.0
  9
$EXTMAX
 10
210.0
 20
297.0
 30
0.0
  9
$LIMMIN
 10
0.0
 20
0.0
  9
$LIMMAX
 10
0.0
 20
0.0
  9
$ORTHOMODE
 70
     0
  9
$REGENMODE
 70
     1
  9
$FILLMODE
 70
     1
  9
$QTEXTMODE
 70
     0
  9
$MIRRTEXT
 70
     1
  9
$LTSCALE
 40
1.0
  9
$ATTMODE
 70
     1
  9
$TEXTSIZE
 40
0.0
  9
$TRACEWID
 40
0.05
  9
$TEXTSTYLE
  7
STANDARD
  9
$CLAYER
  8
0
  9
$CELTYPE
  6
CONTINUOUS
  9
$CECOLOR
 62
   256
  9
$CELTSCALE
 40
1.0
  9
$DISPSILH
 70
     0
  9
$DIMSCALE
 40
1.0
  9
$DIMASZ
 40
0.0
  9
$DIMEXO
 40
0.0
  9
$DIMDLI
 40
0.38
  9
$DIMRND
 40
0.0
  9
$DIMDLE
 40
1000.0
  9
$DIMEXE
 40
0.18
  9
$DIMTP
 40
0.0
  9
$DIMTM
 40
0.0
  9
$DIMTXT
 40
3.5
  9
$DIMCEN
 40
0.09
  9
$DIMTSZ
 40
0.0
  9
$DIMTOL
 70
     0
  9
$DIMLIM
 70
     0
  9
$DIMTIH
 70
     1
  9
$DIMTOH
 70
     1
  9
$DIMSE1
 70
     0
  9
$DIMSE2
 70
     0
  9
$DIMTAD
 70
     1
  9
$DIMZIN
 70
     0
  9
$DIMBLK
  1

  9
$DIMASO
 70
     1
  9
$DIMSHO
 70
     1
  9
$DIMPOST
  1

  9
$DIMAPOST
  1

  9
$DIMALT
 70
     0
  9
$DIMALTD
 70
     2
  9
$DIMALTF
 40
0.0394
  9
$DIMLFAC
 40
1.0
  9
$DIMTOFL
 70
     0
  9
$DIMTVP
 40
0.0
  9
$DIMTIX
 70
     0
  9
$DIMSOXD
 70
     0
  9
$DIMSAH
 70
     0
  9
$DIMBLK1
  1

  9
$DIMBLK2
  1

  9
$DIMSTYLE
  2
STANDARD
  9
$DIMCLRD
 70
     0
  9
$DIMCLRE
 70
     0
  9
$DIMCLRT
 70
     0
  9
$DIMTFAC
 40
1.0
  9
$DIMGAP
 40
0.0
  9
$DIMJUST
 70
     0
  9
$DIMSD1
 70
     0
  9
$DIMSD2
 70
     0
  9
$DIMTOLJ
 70
     1
  9
$DIMTZIN
 70
     0
  9
$DIMALTZ
 70
     0
  9
$DIMALTTZ
 70
     0
  9
$DIMUPT
 70
     0
  9
$DIMDEC
 70
     4
  9
$DIMTDEC
 70
     4
  9
$DIMALTU
 70
     2
  9
$DIMALTTD
 70
     2
  9
$DIMTXSTY
  7
STANDARD
  9
$DIMAUNIT
 70
     0
  9
$DIMADEC
 70
     0
  9
$DIMALTRND
 40
0.0
  9
$DIMAZIN
 70
     0
  9
$DIMDSEP
 70
    46
  9
$DIMATFIT
 70
     3
  9
$DIMFRAC
 70
     0
  9
$DIMLDRBLK
  1

  9
$DIMLUNIT
 70
     2
  9
$DIMLWD
 70
    -2
  9
$DIMLWE
 70
    -2
  9
$DIMTMOVE
 70
     2
  9
$LUNITS
 70
     2
  9
$LUPREC
 70
     2
  9
$SKETCHINC
 40
0.1
  9
$FILLETRAD
 40
0.0
  9
$AUNITS
 70
     0
  9
$AUPREC
 70
     2
  9
$MENU
  1
acad
  9
$ELEVATION
 40
0.0
  9
$PELEVATION
 40
0.0
  9
$THICKNESS
 40
0.0
  9
$LIMCHECK
 70
     0
  9
$CHAMFERA
 40
0.0
  9
$CHAMFERB
 40
0.0
  9
$CHAMFERC
 40
0.0
  9
$CHAMFERD
 40
0.0
  9
$SKPOLY
 70
     0
  9
$TDCREATE
 40
2447893.0
  9
$TDUCREATE
 40
2447892.916666667
  9
$TDUPDATE
 40
2458327.548779039
  9
$TDUUPDATE
 40
2458327.465445706
  9
$TDINDWG
 40
0.0
  9
$TDUSRTIMER
 40
0.0
  9
$USRTIMER
 70
     1
  9
$ANGBASE
 50
0.0
  9
$ANGDIR
 70
     0
  9
$PDMODE
 70
     0
  9
$PDSIZE
 40
-1.0
  9
$PLINEWID
 40
0.0
  9
$SPLFRAME
 70
     0
  9
$SPLINETYPE
 70
     6
  9
$SPLINESEGS
 70
     8
  9
$HANDSEED
  5
473
  9
$SURFTAB1
 70
     6
  9
$SURFTAB2
 70
     6
  9
$SURFTYPE
 70
     6
  9
$SURFU
 70
     6
  9
$SURFV
 70
     6
  9
$UCSBASE
  2

  9
$UCSNAME
  2

  9
$UCSORG
 10
0.0
 20
0.0
 30
0.0
  9
$UCSXDIR
 10
1.0
 20
0.0
 30
0.0
  9
$UCSYDIR
 10
0.0
 20
1.0
 30
0.0
  9
$UCSORTHOREF
  2

  9
$UCSORTHOVIEW
 70
     0
  9
$UCSORGTOP
 10
0.0
 20
0.0
 30
0.0
  9
$UCSORGBOTTOM
 10
0.0
 20
0.0
 30
0.0
  9
$UCSORGLEFT
 10
0.0
 20
0.0
 30
0.0
  9
$UCSORGRIGHT
 10
0.0
 20
0.0
 30
0.0
  9
$UCSORGFRONT
 10
0.0
 20
0.0
 30
0.0
  9
$UCSORGBACK
 10
0.0
 20
0.0
 30
0.0
  9
$PUCSBASE
  2

  9
$PUCSNAME
  2

  9
$PUCSORG
 10
0.0
 20
0.0
 30
0.0
  9
$PUCSXDIR
 10
1.0
 20
0.0
 30
0.0
  9
$PUCSYDIR
 10
0.0
 20
1.0
 30
0.0
  9
$PUCSORTHOREF
  2

  9
$PUCSORTHOVIEW
 70
     0
  9
$PUCSORGTOP
 10
0.0
 20
0.0
 30
0.0
  9
$PUCSORGBOTTOM
 10
0.0
 20
0.0
 30
0.0
  9
$PUCSORGLEFT
 10
0.0
 20
0.0
 30
0.0
  9
$PUCSORGRIGHT
 10
0.0
 20
0.0
 30
0.0
  9
$PUCSORGFRONT
 10
0.0
 20
0.0
 30
0.0
  9
$PUCSORGBACK
 10
0.0
 20
0.0
 30
0.0
  9
$USERI1
 70
     0
  9
$USERI2
 70
     0
  9
$USERI3
 70
     0
  9
$USERI4
 70
     0
  9
$USERI5
 70
     0
  9
$USERR1
 40
0.0
  9
$USERR2
 40
0.0
  9
$USERR3
 40
0.0
  9
$USERR4
 40
0.0
  9
$USERR5
 40
0.0
  9
$WORLDVIEW
 70
     1
  9
$SHADEDGE
 70
     3
  9
$SHADEDIF
 70
    70
  9
$TILEMODE
 70
     1
  9
$MAXACTVP
 70
    16
  9
$PINSBASE
 10
0.0
 20
0.0
 30
0.0
  9
$PLIMCHECK
 70
     0
  9
$PEXTMIN
 10
1.000000000000000E+20
 20
1.000000000000000E+20
 30
1.000000000000000E+20
  9
$PEXTMAX
 10
-1.000000000000000E+20
 20
-1.000000000000000E+20
 30
-1.000000000000000E+20
  9
$PLIMMIN
 10
0.0
 20
0.0
  9
$PLIMMAX
 10
12.0
 20
9.0
  9
$UNITMODE
 70
     0
  9
$VISRETAIN
 70
     0
  9
$PLINEGEN
 70
     1
  9
$PSLTSCALE
 70
     1
  9
$TREEDEPTH
 70
  3020
  9
$CMLSTYLE
  2
STANDARD
  9
$CMLJUST
 70
     0
  9
$CMLSCALE
 40
1.0
  9
$PROXYGRAPHICS
 70
     1
  9
$MEASUREMENT
 70
     0
  9
$CELWEIGHT
370
    -1
  9
$ENDCAPS
280
     0
  9
$JOINSTYLE
280
     0
  9
$LWDISPLAY
290
     0
  9
$INSUNITS
 70
     0
  9
$HYPERLINKBASE
  1

  9
$STYLESHEET
  1

  9
$XEDIT
290
     1
  9
$CEPSNTYPE
380
     0
  9
$PSTYLEMODE
290
     1
  9
$FINGERPRINTGUID
  2
{A9584BD9-2C1C-4ECB-981A-3771C4619EDE}
  9
$VERSIONGUID
  2
{FAEB1C32-E019-11D5-929B-00C0DF256EC4}
  9
$EXTNAMES
290
     1
  9
$PSVPSCALE
 40
0.0
  9
$OLESTARTUP
290
     0
  0
ENDSEC
  0
SECTION
  2
CLASSES
  0
CLASS
  1
LWPOLYLINE
  2
AcDbPolyline
  3
ObjectDBX Classes
 90
        0
280
     0
281
     1
  0
CLASS
  1
IMAGE
  2
AcDbRasterImage
  3
ISM
 90
      127
280
     0
281
     1
  0
CLASS
  1
OLE2FRAME
  2
AcDbOle2Frame
  3
ObjectDBX Classes
 90
        0
280
     0
281
     1
  0
CLASS
  1
HATCH
  2
AcDbHatch
  3
ObjectDBX Classes
 90
        0
280
     0
281
     1
  0
CLASS
  1
DICTIONARYVAR
  2
AcDbDictionaryVar
  3
ObjectDBX Classes
 90
        0
280
     0
281
     0
  0
CLASS
  1
RASTERVARIABLES
  2
AcDbRasterVariables
  3
ISM
 90
        0
280
     0
281
     0
  0
CLASS
  1
IMAGEDEF
  2
AcDbRasterImageDef
  3
ISM
 90
        0
280
     0
281
     0
  0
CLASS
  1
IMAGEDEF_REACTOR
  2
AcDbRasterImageDefReactor
  3
ISM
 90
        1
280
     0
281
     0
  0
CLASS
  1
IDBUFFER
  2
AcDbIdBuffer
  3
ObjectDBX Classes
 90
        0
280
     0
281
     0
  0
CLASS
  1
SPATIAL_FILTER
  2
AcDbSpatialFilter
  3
ObjectDBX Classes
 90
        0
280
     0
281
     0
  0
CLASS
  1
XRECORD
  2
AcDbXrecord
  3
ObjectDBX Classes
 90
        0
280
     0
281
     0
  0
CLASS
  1
SORTENTSTABLE
  2
AcDbSortentsTable
  3
ObjectDBX Classes
 90
        0
280
     0
281
     0
  0
CLASS
  1
LAYER_INDEX
  2
AcDbLayerIndex
  3
ObjectDBX Classes
 90
        0
280
     0
281
     0
  0
CLASS
  1
SPATIAL_INDEX
  2
AcDbSpatialIndex
  3
AutoCAD 2000
 90
        0
280
     0
281
     0
  0
CLASS
  1
OBJECT_PTR
  2
CAseDLPNTableRecord
  3
ASE-LPNTableRecord
 90
        1
280
     0
281
     0
  0
CLASS
  1
LAYOUT
  2
AcDbLayout
  3
ObjectDBX Classes
 90
        0
280
     0
281
     0
  0
CLASS
  1
PLOTSETTINGS
  2
AcDbPlotSettings
  3
ObjectDBX Classes
 90
        0
280
     0
281
     0
  0
CLASS
  1
ACDBDICTIONARYWDFLT
  2
AcDbDictionaryWithDefault
  3
ObjectDBX Classes
 90
        0
280
     0
281
     0
  0
CLASS
  1
ACDBPLACEHOLDER
  2
AcDbPlaceHolder
  3
ObjectDBX Classes
 90
        0
280
     0
281
     0
  0
CLASS
  1
VBA_PROJECT
  2
AcDbVbaProject
  3
ObjectDBX Classes
 90
        0
280
     0
281
     0
  0
CLASS
  1
WIPEOUT
  2
AcDbWipeout
  3
WipeOut|AutoCAD Express Tool|expresstools@autodesk.com
 90
      127
280
     0
281
     1
  0
CLASS
  1
WIPEOUTVARIABLES
  2
AcDbWipeoutVariables
  3
WipeOut|AutoCAD Express Tool|expresstools@autodesk.com
 90
        0
280
     0
281
     0
  0
CLASS
  1
RTEXT
  2
RText
  3
RText|AutoCAD Express Tool|expresstools@autodesk.com
 90
        0
280
     0
281
     1
  0
CLASS
  1
ARCALIGNEDTEXT
  2
AcDbArcAlignedText
  3
ATEXT|AutoCAD Express Tool|expresstools@autodesk.com
 90
        0
280
     0
281
     1
  0
CLASS
  1
SCALE
  2
AcDbScale
  3
ObjectDBX Classes
 90
     1153
280
     0
281
     0
  0
CLASS
  1
VISUALSTYLE
  2
AcDbVisualStyle
  3
ObjectDBX Classes
 90
     4095
280
     0
281
     0
  0
CLASS
  1
MATERIAL
  2
AcDbMaterial
  3
ObjectDBX Classes
 90
     1153
280
     0
281
     0
  0
ENDSEC
  0
SECTION
  2
TABLES
  0
TABLE
  2
VPORT
  5
7
102
{ACAD_XDICTIONARY
360
438
102
}
330
0
100
AcDbSymbolTable
 70
     1
  0
VPORT
  5
15
330
7
100
AcDbSymbolTableRecord
100
AcDbViewportTableRecord
  2
*ACTIVE
 70
     0
 10
0.0
 20
0.0
 11
1.0
 21
1.0
 12
105.0
 22
148.5
 13
0.0
 23
0.0
 14
1.0
 24
1.0
 15
0.0
 25
0.0
 16
0.0
 26
0.0
 36
1.0
 17
0.0
 27
0.0
 37
0.0
 40
297.0
 41
1.4142857143
 42
50.0
 43
0.0
 44
0.0
 50
0.0
 51
0.0
 71
     0
 72
  2000
 73
     1
 74
     1
 75
     0
 76
     0
 77
     0
 78
     0
281
     0
 65
     1
110
0.0
120
0.0
130
0.0
111
1.0
121
0.0
131
0.0
112
0.0
122
1.0
132
0.0
 79
     0
146
0.0
  0
ENDTAB
  0
TABLE
  2
LTYPE
  5
4
330
0
100
AcDbSymbolTable
 70
     6
  0
LTYPE
  5
11
330
4
100
AcDbSymbolTableRecord
100
AcDbLinetypeTableRecord
  2
BYBLOCK
 70
     0
  3

 72
    65
 73
     0
 40
0.0
  0
LTYPE
  5
12
330
4
100
AcDbSymbolTableRecord
100
AcDbLinetypeTableRecord
  2
BYLAYER
 70
     0
  3

 72
    65
 73
     0
 40
0.0
  0
LTYPE
  5
13
330
4
100
AcDbSymbolTableRecord
100
AcDbLinetypeTableRecord
  2
CONTINUOUS
 70
     0
  3
Solid line
 72
    65
 73
     0
 40
0.0
  0
LTYPE
  5
1D
330
4
100
AcDbSymbolTableRecord
100
AcDbLinetypeTableRecord
  2
HIDDEN
 70
     0
  3
Hidden __ __ __ __ __ __ __ __ __ __ __ __ __ __
 72
    65
 73
     2
 40
1.905
 49
1.27
 74
     0
 49
-0.635
 74
     0
  0
LTYPE
  5
1E
330
4
100
AcDbSymbolTableRecord
100
AcDbLinetypeTableRecord
  2
PHANTOM
 70
     0
  3
Phantom ______  __  __  ______  __  __  ______
 72
    65
 73
     6
 40
12.7
 49
6.35
 74
     0
 49
-1.27
 74
     0
 49
1.27
 74
     0
 49
-1.27
 74
     0
 49
1.27
 74
     0
 49
-1.27
 74
     0
  0
LTYPE
  5
1F
330
4
100
AcDbSymbolTableRecord
100
AcDbLinetypeTableRecord
  2
CENTER
 70
     0
  3
Center ____ _ ____ _ ____ _ ____ _ ____ _ ____
 72
    65
 73
     4
 40
10.16
 49
6.35
 74
     0
 49
-1.27
 74
     0
 49
1.27
 74
     0
 49
-1.27
 74
     0
  0
LTYPE
  5
20
330
4
100
AcDbSymbolTableRecord
100
AcDbLinetypeTableRecord
  2
CENTERX2
 70
     0
  3
Center (2x) ________  __  ________  __  _____
 72
    65
 73
     4
 40
20.32
 49
12.7
 74
     0
 49
-2.54
 74
     0
 49
2.54
 74
     0
 49
-2.54
 74
     0
  0
LTYPE
  5
21
330
4
100
AcDbSymbolTableRecord
100
AcDbLinetypeTableRecord
  2
DOT2
 70
     0
  3
Dot (.5x) ........................................
 72
    65
 73
     2
 40
0.635
 49
0.0
 74
     0
 49
-0.635
 74
     0
  0
LTYPE
  5
462
330
5
100
AcDbSymbolTableRecord
100
AcDbLinetypeTableRecord
  2
DASH
 70
     0
  3
DASH _ _ _ _ _
 72
    65
 73
     2
 40
0.75
 49
0.40
 74
     0
 49
-0.35
 74
     0
  0
LTYPE
  5
463
330
5
100
AcDbSymbolTableRecord
100
AcDbLinetypeTableRecord
  2
LONGDASH_DASH
 70
     0
  3
LONGDASH_DASH __ . __ . __
 72
    65
 73
     4
 40
0.85
 49
0.40
 74
     0
 49
-0.20
 74
     0
 49
0.05
 74
     0
 49
-0.20
 74
     0
  0
LTYPE
  5
464
330
5
100
AcDbSymbolTableRecord
100
AcDbLinetypeTableRecord
  2
LONGDASH_DASH_DASH
 70
     0
  3
LONGDASH_DASH_DASH __ . . __ . . __
 72
    65
 73
     6
 40
1.10
 49
0.40
 74
     0
 49
-0.20
 74
     0
 49
0.05
 74
     0
 49
-0.20
 74
     0
 49
0.05
 74
     0
 49
-0.20
 74
     0
  0
ENDTAB
  0
TABLE
  2
LAYER
  5
2
330
0
100
AcDbSymbolTable
 70
     8
  0
LAYER
  5
23
330
2
100
AcDbSymbolTableRecord
100
AcDbLayerTableRecord
  2
DEFPOINTS
 70
     0
 62
     7
  6
CONTINUOUS
290
     0
370
    -3
390
0
  0
LAYER
  5
465
330
2
100
AcDbSymbolTableRecord
100
AcDbLayerTableRecord
  2
0
 70
     0
 62
     -1
  6
CONTINUOUS
370
    -3
390
F
  0
LAYER
  5
466
330
2
100
AcDbSymbolTableRecord
100
AcDbLayerTableRecord
  2
1
 70
     0
 62
     4
  6
CONTINUOUS
370
    50
390
F
  0
LAYER
  5
467
330
2
100
AcDbSymbolTableRecord
100
AcDbLayerTableRecord
  2
2
 70
     0
 62
     7
  6
CONTINUOUS
370
    25
390
F
  0
LAYER
  5
468
330
2
100
AcDbSymbolTableRecord
100
AcDbLayerTableRecord
  2
3
 70
     0
 62
     1
  6
DASH
370
    35
390
F
  0
LAYER
  5
469
330
2
100
AcDbSymbolTableRecord
100
AcDbLayerTableRecord
  2
4
 70
     0
 62
     2
  6
LONGDASH_DASH
370
    25
390
F
  0
LAYER
  5
46A
330
2
100
AcDbSymbolTableRecord
100
AcDbLayerTableRecord
  2
6
 70
     0
 62
     5
  6
CONTINUOUS
370
    -3
390
F
  0
LAYER
  5
46B
330
2
100
AcDbSymbolTableRecord
100
AcDbLayerTableRecord
  2
CUT
 70
     0
 62
     1
  6
CONTINUOUS
370
    25
390
F
  0
LAYER
  5
46C
330
2
100
AcDbSymbolTableRecord
100
AcDbLayerTableRecord
  2
NOCUT
 70
     0
 62
     7
  6
CONTINUOUS
370
    25
390
F
  0
LAYER
  5
46D
330
2
100
AcDbSymbolTableRecord
100
AcDbLayerTableRecord
  2
SK1
 70
     0
 62
     4
  6
CONTINUOUS
370
    50
390
F
  0
LAYER
  5
46E
330
2
100
AcDbSymbolTableRecord
100
AcDbLayerTableRecord
  2
SK2
 70
     0
 62
     7
  6
CONTINUOUS
370
    25
390
F
  0
LAYER
  5
46F
330
2
100
AcDbSymbolTableRecord
100
AcDbLayerTableRecord
  2
SK3
 70
     0
 62
     1
  6
DASH
370
    35
390
F
  0
LAYER
  5
470
330
2
100
AcDbSymbolTableRecord
100
AcDbLayerTableRecord
  2
SK4
 70
     0
 62
     2
  6
LONGDASH_DASH
370
    25
390
F
  0
LAYER
  5
471
330
2
100
AcDbSymbolTableRecord
100
AcDbLayerTableRecord
  2
SK6
 70
     0
 62
     5
  6
CONTINUOUS
370
    -3
390
F
  0
LAYER
  5
472
330
2
100
AcDbSymbolTableRecord
100
AcDbLayerTableRecord
  2
INFTOTAL
 70
     0
 62
     9
  6
CONTINUOUS
370
    18
390
F
  0
ENDTAB
  0
TABLE
  2
STYLE
  5
3
330
0
100
AcDbSymbolTable
 70
     2
  0
STYLE
  5
17
330
3
100
AcDbSymbolTableRecord
100
AcDbTextStyleTableRecord
  2
STANDARD
 70
     0
 40
0.0
 41
1.0
 50
0.0
 71
     0
 42
0.2
  3
txt
  4

  0
STYLE
  5
430
330
3
100
AcDbSymbolTableRecord
100
AcDbTextStyleTableRecord
  2
BMG_Text
 70
     0
 40
3.5
 41
1.0
 50
0.0
 71
     0
 42
0.0
  3
monos.ttf
  4

1001
ACAD
1000
Monospac821 BT
1071
       49
  0
ENDTAB
  0
TABLE
  2
VIEW
  5
5
330
0
100
AcDbSymbolTable
 70
     0
  0
ENDTAB
  0
TABLE
  2
UCS
  5
6
330
0
100
AcDbSymbolTable
 70
     0
  0
ENDTAB
  0
TABLE
  2
APPID
  5
8
330
0
100
AcDbSymbolTable
 70
     1
  0
APPID
  5
16
330
8
100
AcDbSymbolTableRecord
100
AcDbRegAppTableRecord
  2
ACAD
 70
     0
  0
ENDTAB
  0
TABLE
  2
DIMSTYLE
  5
9
330
0
100
AcDbSymbolTable
 70
     1
100
AcDbDimStyleTable
  0
DIMSTYLE
105
18
330
9
100
AcDbSymbolTableRecord
100
AcDbDimStyleTableRecord
  2
STANDARD
 70
     0
178
     0
340
17
  0
ENDTAB
  0
TABLE
  2
BLOCK_RECORD
  5
1
330
0
100
AcDbSymbolTable
 70
     0
  0
BLOCK_RECORD
  5
A
330
1
100
AcDbSymbolTableRecord
100
AcDbBlockTableRecord
  2
*MODEL_SPACE
340
419
  0
BLOCK_RECORD
  5
B
330
1
100
AcDbSymbolTableRecord
100
AcDbBlockTableRecord
  2
*PAPER_SPACE
340
41A
  0
ENDTAB
  0
ENDSEC
  0
SECTION
  2
BLOCKS
  0
BLOCK
  5
D
330
A
100
AcDbEntity
  8
0
100
AcDbBlockBegin
  2
*MODEL_SPACE
 70
     0
 10
0.0
 20
0.0
 30
0.0
  3
*MODEL_SPACE
  1

  0
ENDBLK
  5
E
330
A
100
AcDbEntity
  8
0
100
AcDbBlockEnd
  0
BLOCK
  5
F
330
B
100
AcDbEntity
 67
     1
  8
0
100
AcDbBlockBegin
  2
*PAPER_SPACE
 70
     0
 10
0.0
 20
0.0
 30
0.0
  3
*PAPER_SPACE
  1

  0
ENDBLK
  5
10
330
B
100
AcDbEntity
 67
     1
  8
0
100
AcDbBlockEnd
  0
ENDSEC
  0
SECTION
  2
ENTITIES
  0
ARC
  5
29
330
A
100
AcDbEntity
  8
1
  6
CONTINUOUS
370
    50
100
AcDbCircle
 10
106.1010451968
 20
142.9491137824
 30
0.0
 40
0.5
100
AcDbArc
 50
66.4218215218
 51
90.0
  0
ARC
  5
2A
330
A
100
AcDbEntity
  8
1
  6
CONTINUOUS
370
    50
100
AcDbCircle
 10
106.1010451968
 20
187.7991137824
 30
0.0
 40
0.5
100
AcDbArc
 50
270.0
 51
293.5781784782001
  0
LINE
  5
2B
330
A
100
AcDbEntity
  8
1
  6
CONTINUOUS
370
    50
100
AcDbLine
 10
105.3010451968
 20
187.5991137824
 30
0.0
 11
37.8335665554
 21
177.7601064804
 31
0.0
  0
LINE
  5
2C
330
A
100
AcDbEntity
  8
1
  6
CONTINUOUS
370
    50
100
AcDbLine
 10
37.8335665554
 20
152.9881210845
 30
0.0
 11
105.3010451968
 21
143.1491137824
 31
0.0
  0
LINE
  5
2D
330
A
100
AcDbEntity
  8
1
  6
CONTINUOUS
370
    50
100
AcDbLine
 10
105.3010451968
 20
143.1491137824
 30
0.0
 11
105.8439354734
 21
143.402267676
 31
0.0
  0
LINE
  5
2E
330
A
100
AcDbEntity
  8
1
  6
CONTINUOUS
370
    50
100
AcDbLine
 10
105.8439354734
 20
187.3459598889
 30
0.0
 11
105.3010451968
 21
187.5991137824
 31
0.0
  0
ARC
  5
2F
330
A
100
AcDbEntity
  8
1
  6
CONTINUOUS
370
    50
100
AcDbCircle
 10
106.0552446043
 20
142.9491137824
 30
0.0
 40
0.5
100
AcDbArc
 50
90.0
 51
115.0
  0
ARC
  5
30
330
A
100
AcDbEntity
  8
1
  6
CONTINUOUS
370
    50
100
AcDbCircle
 10
106.0552446043
 20
187.7991137824
 30
0.0
 40
0.5
100
AcDbArc
 50
245.0
 51
270.0
  0
ARC
  5
31
330
A
100
AcDbEntity
  8
1
  6
CONTINUOUS
370
    50
100
AcDbCircle
 10
129.3510451968
 20
143.4241137824
 30
0.0
 40
5.0
100
AcDbArc
 50
81.890385544
 51
180.0
  0
ARC
  5
32
330
A
100
AcDbEntity
  8
1
  6
CONTINUOUS
370
    50
100
AcDbCircle
 10
129.3510451968
 20
187.3241137824
 30
0.0
 40
5.0
100
AcDbArc
 50
180.0
 51
278.109614456
  0
LINE
  5
33
330
A
100
AcDbEntity
  8
1
  6
CONTINUOUS
370
    50
100
AcDbLine
 10
140.8293286202
 20
148.3741137824
 30
0.0
 11
184.2679170928
 21
151.7928048373
 31
0.0
  0
LINE
  5
34
330
A
100
AcDbEntity
  8
1
  6
CONTINUOUS
370
    50
100
AcDbLine
 10
184.2679170928
 20
178.9554227276
 30
0.0
 11
140.8293286202
 21
182.3741137824
 31
0.0
  0
LINE
  5
35
330
A
100
AcDbEntity
  8
1
  6
CONTINUOUS
370
    50
100
AcDbLine
 10
130.0563819958
 20
148.3741137824
 30
0.0
 11
140.8293286202
 21
148.3741137824
 31
0.0
  0
LINE
  5
36
330
A
100
AcDbEntity
  8
1
  6
CONTINUOUS
370
    50
100
AcDbLine
 10
140.8293286202
 20
182.3741137824
 30
0.0
 11
130.0563819958
 21
182.3741137824
 31
0.0
  0
ARC
  5
37
330
A
100
AcDbEntity
  8
1
  6
CONTINUOUS
370
    50
100
AcDbCircle
 10
183.3010451968
 20
153.5435643115
 30
0.0
 40
2.0
100
AcDbArc
 50
298.9100507073
 51
0.0
  0
ARC
  5
38
330
A
100
AcDbEntity
  8
1
  6
CONTINUOUS
370
    50
100
AcDbCircle
 10
183.3010451968
 20
177.2046632533
 30
0.0
 40
2.0
100
AcDbArc
 50
0.0
 51
61.08994929269999
  0
ARC
  5
39
330
A
100
AcDbEntity
  8
1
  6
CONTINUOUS
370
    50
100
AcDbCircle
 10
38.0010451968
 20
153.9237459655
 30
0.0
 40
0.95
100
AcDbArc
 50
180.0
 51
258.0
  0
ARC
  5
3A
330
A
100
AcDbEntity
  8
1
  6
CONTINUOUS
370
    50
100
AcDbCircle
 10
38.0010451968
 20
176.8244815994
 30
0.0
 40
0.95
100
AcDbArc
 50
102.0
 51
180.0
  0
LINE
  5
3B
330
A
100
AcDbEntity
  8
1
  6
CONTINUOUS
370
    50
100
AcDbLine
 10
119.9228818389
 20
134.89703223
 30
0.0
 11
119.3173830136
 21
135.7470322324
 31
0.0
  0
LWPOLYLINE
  5
3C
330
A
100
AcDbEntity
  8
1
  6
CONTINUOUS
370
    50
100
AcDbPolyline
 90
        3
 70
   128
 43
0.0
 10
118.3260451968
 20
137.5302415235
 10
118.9052105886
 20
136.4874704748
 10
119.3173830136
 20
135.7470322324
  0
LINE
  5
41
330
A
100
AcDbEntity
  8
1
  6
CONTINUOUS
370
    50
100
AcDbLine
 10
118.3260451968
 20
183.7241137824
 30
0.0
 11
118.3260451968
 21
137.5302415235
 31
0.0
  0
LINE
  5
42
330
A
100
AcDbEntity
  8
1
  6
CONTINUOUS
370
    50
100
AcDbLine
 10
119.9228818389
 20
183.7241137824
 30
0.0
 11
118.3260451968
 21
183.7241137824
 31
0.0
  0
LINE
  5
43
330
A
100
AcDbEntity
  8
1
  6
CONTINUOUS
370
    50
100
AcDbLine
 10
119.9228818389
 20
134.89703223
 30
0.0
 11
119.9228818389
 21
183.7241137824
 31
0.0
  0
LINE
  5
44
330
A
100
AcDbEntity
  8
1
  6
CONTINUOUS
370
    50
100
AcDbLine
 10
124.3510451968
 20
183.7241137824
 30
0.0
 11
124.3510451968
 21
135.3011586283
 31
0.0
  0
LINE
  5
45
330
A
100
AcDbEntity
  8
1
  6
CONTINUOUS
370
    50
100
AcDbLine
 10
124.3510451968
 20
135.3011586283
 30
0.0
 11
123.8510451968
 21
134.89703223
 31
0.0
  0
LINE
  5
46
330
A
100
AcDbEntity
  8
1
  6
CONTINUOUS
370
    50
100
AcDbLine
 10
123.8510451968
 20
134.89703223
 30
0.0
 11
123.8510451968
 21
183.7241137824
 31
0.0
  0
LINE
  5
47
330
A
100
AcDbEntity
  8
1
  6
CONTINUOUS
370
    50
100
AcDbLine
 10
123.8510451968
 20
183.7241137824
 30
0.0
 11
124.3510451968
 21
183.7241137824
 31
0.0
  0
LINE
  5
48
330
A
100
AcDbEntity
  8
1
  6
CONTINUOUS
370
    50
100
AcDbLine
 10
112.8792085548
 20
134.89703223
 30
0.0
 11
112.8792085548
 21
183.7241137824
 31
0.0
  0
LINE
  5
49
330
A
100
AcDbEntity
  8
1
  6
CONTINUOUS
370
    50
100
AcDbLine
 10
112.8792085548
 20
134.89703223
 30
0.0
 11
108.1510451943
 21
134.89703223
 31
0.0
  0
LWPOLYLINE
  5
4A
330
A
100
AcDbEntity
  8
1
  6
CONTINUOUS
370
    50
100
AcDbPolyline
 90
        3
 70
   128
 43
0.0
 10
106.8010451968
 20
135.3241553798
 10
107.4736638444
 20
135.1030671135
 10
108.1510451943
 20
134.89703223
  0
LINE
  5
4F
330
A
100
AcDbEntity
  8
1
  6
CONTINUOUS
370
    50
100
AcDbLine
 10
106.8010451968
 20
183.7241137824
 30
0.0
 11
106.8010451968
 21
135.3241553798
 31
0.0
  0
LINE
  5
50
330
A
100
AcDbEntity
  8
1
  6
CONTINUOUS
370
    50
100
AcDbLine
 10
112.8792085548
 20
183.7241137824
 30
0.0
 11
106.8010451968
 21
183.7241137824
 31
0.0
  0
LINE
  5
51
330
A
100
AcDbEntity
  8
1
  6
CONTINUOUS
370
    50
100
AcDbLine
 10
113.48470738
 20
135.7470322324
 30
0.0
 11
112.8792085548
 21
134.89703223
 31
0.0
  0
LINE
  5
52
330
A
100
AcDbEntity
  8
1
  6
CONTINUOUS
370
    50
100
AcDbLine
 10
114.4760451968
 20
183.7241137824
 30
0.0
 11
112.8792085548
 21
183.7241137824
 31
0.0
  0
LINE
  5
53
330
A
100
AcDbEntity
  8
1
  6
CONTINUOUS
370
    50
100
AcDbLine
 10
114.4760451968
 20
137.5302415235
 30
0.0
 11
114.4760451968
 21
183.7241137824
 31
0.0
  0
LWPOLYLINE
  5
54
330
A
100
AcDbEntity
  8
1
  6
CONTINUOUS
370
    50
100
AcDbPolyline
 90
        3
 70
   128
 43
0.0
 10
113.48470738
 20
135.7470322324
 10
113.896879805
 20
136.4874704748
 10
114.4760451968
 20
137.5302415235
  0
LINE
  5
59
330
A
100
AcDbEntity
  8
1
  6
CONTINUOUS
370
    50
100
AcDbLine
 10
123.8510451968
 20
183.7241137824
 30
0.0
 11
119.9228818389
 21
183.7241137824
 31
0.0
  0
LINE
  5
5A
330
A
100
AcDbEntity
  8
1
  6
CONTINUOUS
370
    50
100
AcDbLine
 10
123.8510451968
 20
134.89703223
 30
0.0
 11
119.9228818389
 21
134.89703223
 31
0.0
  0
LINE
  5
5B
330
A
100
AcDbEntity
  8
1
  6
CONTINUOUS
370
    50
100
AcDbLine
 10
106.8010451968
 20
135.3241553798
 30
0.0
 11
106.3010451968
 21
136.0313122802
 31
0.0
  0
LINE
  5
5C
330
A
100
AcDbEntity
  8
1
  6
CONTINUOUS
370
    50
100
AcDbLine
 10
106.3010451968
 20
136.0313122802
 30
0.0
 11
106.3010451968
 21
183.7241137824
 31
0.0
  0
LINE
  5
5D
330
A
100
AcDbEntity
  8
1
  6
CONTINUOUS
370
    50
100
AcDbLine
 10
106.3010451968
 20
183.7241137824
 30
0.0
 11
106.8010451968
 21
183.7241137824
 31
0.0
  0
ARC
  5
5E
330
A
100
AcDbEntity
  8
1
  6
CONTINUOUS
370
    50
100
AcDbCircle
 10
114.9874411356
 20
138.0448841113
 30
0.0
 40
0.5114987785
100
AcDbArc
 50
91.27662714109998
 51
181.1489553386
  0
LINE
  5
5F
330
A
100
AcDbEntity
  8
1
  6
CONTINUOUS
370
    50
100
AcDbLine
 10
114.4760451968
 20
183.7241137824
 30
0.0
 11
114.9760451968
 21
183.7241137824
 31
0.0
  0
LINE
  5
60
330
A
100
AcDbEntity
  8
1
  6
CONTINUOUS
370
    50
100
AcDbLine
 10
114.9760451968
 20
183.7241137824
 30
0.0
 11
114.9760451968
 21
138.5562559261
 31
0.0
  0
ARC
  5
61
330
A
100
AcDbEntity
  8
1
  6
CONTINUOUS
370
    50
100
AcDbCircle
 10
117.8163427064
 20
138.0465073443
 30
0.0
 40
0.5098409115
100
AcDbArc
 50
358.6648465168
 51
88.9095710036
  0
LINE
  5
62
330
A
100
AcDbEntity
  8
1
  6
CONTINUOUS
370
    50
100
AcDbLine
 10
117.8260451968
 20
183.7241137824
 30
0.0
 11
117.8260451968
 21
138.5562559261
 31
0.0
  0
LINE
  5
63
330
A
100
AcDbEntity
  8
1
  6
CONTINUOUS
370
    50
100
AcDbLine
 10
117.8260451968
 20
183.7241137824
 30
0.0
 11
118.3260451968
 21
183.7241137824
 31
0.0
  0
LINE
  5
64
330
A
100
AcDbEntity
  8
1
  6
CONTINUOUS
370
    50
100
AcDbLine
 10
117.8260451968
 20
138.5562559261
 30
0.0
 11
114.9760451968
 21
138.5562559261
 31
0.0
  0
LINE
  5
65
330
A
100
AcDbEntity
  8
1
  6
CONTINUOUS
370
    50
100
AcDbLine
 10
114.9760451968
 20
183.7241137824
 30
0.0
 11
117.8260451968
 21
183.7241137824
 31
0.0
  0
LINE
  5
66
330
A
100
AcDbEntity
  8
1
  6
CONTINUOUS
370
    50
100
AcDbLine
 10
37.8335665554
 20
177.7601064804
 30
0.0
 11
37.8335665554
 21
152.9881210845
 31
0.0
  0
LINE
  5
67
330
A
100
AcDbEntity
  8
1
  6
CONTINUOUS
370
    50
100
AcDbLine
 10
105.3010451968
 20
143.1491137824
 30
0.0
 11
105.3010451968
 21
187.5991137824
 31
0.0
  0
LINE
  5
68
330
A
100
AcDbEntity
  8
1
  6
CONTINUOUS
370
    50
100
AcDbLine
 10
130.0563819958
 20
148.3741137824
 30
0.0
 11
130.0563819958
 21
182.3741137824
 31
0.0
  0
LINE
  5
69
330
A
100
AcDbEntity
  8
1
  6
CONTINUOUS
370
    50
100
AcDbLine
 10
106.8010451968
 20
191.2843434225
 30
0.0
 11
106.3010451968
 21
190.6691725885
 31
0.0
  0
LINE
  5
6A
330
A
100
AcDbEntity
  8
1
  6
CONTINUOUS
370
    50
100
AcDbLine
 10
106.8010451968
 20
191.2843434225
 30
0.0
 11
112.8792085548
 21
191.2843434225
 31
0.0
  0
LINE
  5
6B
330
A
100
AcDbEntity
  8
1
  6
CONTINUOUS
370
    50
100
AcDbLine
 10
112.8792085548
 20
191.2843434225
 30
0.0
 11
114.4760451968
 21
187.809826884
 31
0.0
  0
LINE
  5
6C
330
A
100
AcDbEntity
  8
1
  6
CONTINUOUS
370
    50
100
AcDbLine
 10
114.4760451968
 20
187.1807068222
 30
0.0
 11
114.4760451968
 21
187.809826884
 31
0.0
  0
ARC
  5
6D
330
A
100
AcDbEntity
  8
1
  6
CONTINUOUS
370
    50
100
AcDbCircle
 10
115.0497655077
 20
187.0979947857
 30
0.0
 40
0.5796518576
100
AcDbArc
 50
171.7963139137
 51
262.6933157893
  0
LINE
  5
6E
330
A
100
AcDbEntity
  8
1
  6
CONTINUOUS
370
    50
100
AcDbLine
 10
117.8260451968
 20
186.5230499259
 30
0.0
 11
114.9760451968
 21
186.5230499259
 31
0.0
  0
LWPOLYLINE
  5
6F
330
A
100
AcDbEntity
  8
1
  6
CONTINUOUS
370
    50
100
AcDbPolyline
 90
        7
 70
   128
 43
0.0
 10
118.3260451968
 20
187.1807068222
 10
118.2815366685
 20
186.910487031
 10
118.176651913
 20
186.7127046348
 10
118.0547442939
 20
186.5963009913
 10
117.9837407807
 20
186.5568242311
 10
117.8572625219
 20
186.5243413802
 10
117.8260451968
 20
186.5230499259
  0
LINE
  5
78
330
A
100
AcDbEntity
  8
1
  6
CONTINUOUS
370
    50
100
AcDbLine
 10
118.3260451968
 20
187.809826884
 30
0.0
 11
118.3260451968
 21
187.1807068222
 31
0.0
  0
LINE
  5
79
330
A
100
AcDbEntity
  8
1
  6
CONTINUOUS
370
    50
100
AcDbLine
 10
118.3260451968
 20
187.809826884
 30
0.0
 11
119.9228818389
 21
191.2843434225
 31
0.0
  0
LINE
  5
7A
330
A
100
AcDbEntity
  8
1
  6
CONTINUOUS
370
    50
100
AcDbLine
 10
119.9228818389
 20
191.2843434225
 30
0.0
 11
123.8510451968
 21
191.2843434225
 31
0.0
  0
LINE
  5
7B
330
A
100
AcDbEntity
  8
1
  6
CONTINUOUS
370
    50
100
AcDbLine
 10
124.3510451968
 20
190.6691725885
 30
0.0
 11
123.8510451968
 21
191.2843434225
 31
0.0
  0
LINE
  5
7C
330
A
100
AcDbEntity
  8
1
  6
CONTINUOUS
370
    50
100
AcDbLine
 10
106.3010451968
 20
190.6691725885
 30
0.0
 11
106.3010451968
 21
183.7241137824
 31
0.0
  0
LINE
  5
7D
330
A
100
AcDbEntity
  8
1
  6
CONTINUOUS
370
    50
100
AcDbLine
 10
124.3510451968
 20
190.6691725885
 30
0.0
 11
124.3510451968
 21
183.7241137824
 31
0.0
  0
LINE
  5
7E
330
A
100
AcDbEntity
  8
1
  6
CONTINUOUS
370
    50
100
AcDbLine
 10
114.9760451968
 20
192.1919716387
 30
0.0
 11
114.9760451968
 21
186.5230499259
 31
0.0
  0
ARC
  5
7F
330
A
100
AcDbEntity
  8
1
  6
CONTINUOUS
370
    50
100
AcDbCircle
 10
114.9883388505
 20
192.7042039466
 30
0.0
 40
0.5123798114
100
AcDbArc
 50
178.9492610509
 51
268.6251564695
  0
LINE
  5
80
330
A
100
AcDbEntity
  8
1
  6
CONTINUOUS
370
    50
100
AcDbLine
 10
117.8260451968
 20
192.1919716387
 30
0.0
 11
117.8260451968
 21
186.5230499259
 31
0.0
  0
ARC
  5
81
330
A
100
AcDbEntity
  8
1
  6
CONTINUOUS
370
    50
100
AcDbCircle
 10
117.8154117885
 20
192.7026125398
 30
0.0
 40
0.5107516023
100
AcDbArc
 50
271.1929349486
 51
1.2326475311
  0
LINE
  5
82
330
A
100
AcDbEntity
  8
1
  6
CONTINUOUS
370
    50
100
AcDbLine
 10
117.8260451968
 20
192.1919716387
 30
0.0
 11
114.9760451968
 21
192.1919716387
 31
0.0
  0
LINE
  5
83
330
A
100
AcDbEntity
  8
1
  6
CONTINUOUS
370
    50
100
AcDbLine
 10
119.3173830136
 20
195.0011953324
 30
0.0
 11
119.9228818389
 21
195.8511953349
 31
0.0
  0
LINE
  5
84
330
A
100
AcDbEntity
  8
1
  6
CONTINUOUS
370
    50
100
AcDbLine
 10
119.9228818389
 20
191.2843434225
 30
0.0
 11
119.9228818389
 21
195.8511953349
 31
0.0
  0
LINE
  5
85
330
A
100
AcDbEntity
  8
1
  6
CONTINUOUS
370
    50
100
AcDbLine
 10
118.3260451968
 20
193.2179860414
 30
0.0
 11
119.3173830136
 21
195.0011953324
 31
0.0
  0
LINE
  5
86
330
A
100
AcDbEntity
  8
1
  6
CONTINUOUS
370
    50
100
AcDbLine
 10
118.3260451968
 20
193.2179860414
 30
0.0
 11
118.3260451968
 21
187.809826884
 31
0.0
  0
LINE
  5
87
330
A
100
AcDbEntity
  8
1
  6
CONTINUOUS
370
    50
100
AcDbLine
 10
112.8792085548
 20
195.8511953349
 30
0.0
 11
113.48470738
 21
195.0011953324
 31
0.0
  0
LINE
  5
88
330
A
100
AcDbEntity
  8
1
  6
CONTINUOUS
370
    50
100
AcDbLine
 10
113.48470738
 20
195.0011953324
 30
0.0
 11
114.4760451968
 21
193.2179860414
 31
0.0
  0
LINE
  5
89
330
A
100
AcDbEntity
  8
1
  6
CONTINUOUS
370
    50
100
AcDbLine
 10
112.8792085548
 20
191.2843434225
 30
0.0
 11
112.8792085548
 21
195.8511953349
 31
0.0
  0
LINE
  5
8A
330
A
100
AcDbEntity
  8
1
  6
CONTINUOUS
370
    50
100
AcDbLine
 10
114.4760451968
 20
187.809826884
 30
0.0
 11
114.4760451968
 21
193.2179860414
 31
0.0
  0
LINE
  5
8B
330
A
100
AcDbEntity
  8
1
  6
CONTINUOUS
370
    50
100
AcDbLine
 10
123.8510451968
 20
191.2843434225
 30
0.0
 11
123.8510451968
 21
195.8511953349
 31
0.0
  0
LINE
  5
8C
330
A
100
AcDbEntity
  8
1
  6
CONTINUOUS
370
    50
100
AcDbLine
 10
123.8510451968
 20
195.8511953349
 30
0.0
 11
124.3510451968
 21
195.4470689366
 31
0.0
  0
LINE
  5
8D
330
A
100
AcDbEntity
  8
1
  6
CONTINUOUS
370
    50
100
AcDbLine
 10
124.3510451968
 20
195.4470689366
 30
0.0
 11
124.3510451968
 21
190.6691725885
 31
0.0
  0
LINE
  5
8E
330
A
100
AcDbEntity
  8
1
  6
CONTINUOUS
370
    50
100
AcDbLine
 10
108.1510451943
 20
195.8511953349
 30
0.0
 11
112.8792085548
 21
195.8511953349
 31
0.0
  0
LINE
  5
8F
330
A
100
AcDbEntity
  8
1
  6
CONTINUOUS
370
    50
100
AcDbLine
 10
106.8010451968
 20
195.4240721851
 30
0.0
 11
106.8010451968
 21
191.2843434225
 31
0.0
  0
LWPOLYLINE
  5
90
330
A
100
AcDbEntity
  8
1
  6
CONTINUOUS
370
    50
100
AcDbPolyline
 90
        3
 70
   128
 43
0.0
 10
106.8010451968
 20
195.4240721851
 10
107.4736638444
 20
195.6451604513
 10
108.1510451943
 20
195.8511953349
  0
LINE
  5
95
330
A
100
AcDbEntity
  8
1
  6
CONTINUOUS
370
    50
100
AcDbLine
 10
119.9228818389
 20
195.8511953349
 30
0.0
 11
123.8510451968
 21
195.8511953349
 31
0.0
  0
LINE
  5
96
330
A
100
AcDbEntity
  8
1
  6
CONTINUOUS
370
    50
100
AcDbLine
 10
106.3010451968
 20
194.7169152847
 30
0.0
 11
106.8010451968
 21
195.4240721851
 31
0.0
  0
LINE
  5
97
330
A
100
AcDbEntity
  8
1
  6
CONTINUOUS
370
    50
100
AcDbLine
 10
106.3010451968
 20
190.6691725885
 30
0.0
 11
106.3010451968
 21
194.7169152847
 31
0.0
  0
LINE
  5
98
330
A
100
AcDbEntity
  8
1
  6
CONTINUOUS
370
    50
100
AcDbLine
 10
184.2679170928
 20
178.9554227276
 30
0.0
 11
184.2679170928
 21
151.7928048373
 31
0.0
  0
LINE
  5
99
330
A
100
AcDbEntity
  8
1
  6
CONTINUOUS
370
    50
100
AcDbLine
 10
140.8293286202
 20
148.3741137824
 30
0.0
 11
140.8293286202
 21
182.3741137824
 31
0.0
  0
LINE
  5
9A
330
A
100
AcDbEntity
  8
1
  6
CONTINUOUS
370
    50
100
AcDbLine
 10
185.3010451968
 20
153.543564334
 30
0.0
 11
185.3010451968
 21
177.2046632533
 31
0.0
  0
LINE
  5
9B
330
A
100
AcDbEntity
  8
1
  6
CONTINUOUS
370
    50
100
AcDbLine
 10
37.0510451968
 20
153.9237459655
 30
0.0
 11
37.0510451968
 21
176.8244815994
 31
0.0
  0
LINE
  5
9C
330
A
100
AcDbEntity
  8
1
  6
CONTINUOUS
370
    50
100
AcDbLine
 10
106.1010451968
 20
143.4491137824
 30
0.0
 11
106.1010451968
 21
187.2991137824
 31
0.0
  0
LINE
  5
9D
330
A
100
AcDbEntity
  8
1
  6
CONTINUOUS
370
    50
100
AcDbLine
 10
105.8439354734
 20
143.402267676
 30
0.0
 11
105.8439354734
 21
187.3459598889
 31
0.0
  0
LINE
  5
9E
330
A
100
AcDbEntity
  8
1
  6
CONTINUOUS
370
    50
100
AcDbLine
 10
106.0552446043
 20
143.4491137824
 30
0.0
 11
106.0552446043
 21
187.2991137824
 31
0.0
  0
LINE
  5
9F
330
A
100
AcDbEntity
  8
1
  6
CONTINUOUS
370
    50
100
AcDbLine
 10
37.8035290905
 20
152.9945057448
 30
0.0
 11
37.8035290905
 21
177.7537218201
 31
0.0
  0
LWPOLYLINE
  5
A0
330
A
100
AcDbEntity
  8
1
  6
CONTINUOUS
370
    50
100
AcDbPolyline
 90
       27
 70
   128
 43
0.0
 10
120.9518241306
 20
156.7419488031
 10
120.9028470261
 20
156.2516813505
 10
120.9322826367
 20
155.7899064603
 10
121.0384202717
 20
155.3834608104
 10
121.2150915975
 20
155.0559655448
 10
121.4520291189
 20
154.8264534979
 10
121.7354628884
 20
154.7082630755
 10
122.0489207655
 20
154.7082630755
 10
122.3741857178
 20
154.8264534979
 10
122.6923545284
 20
155.0559655448
 10
122.9849363828
 20
155.3834608104
 10
123.2349274869
 20
155.7899064603
 10
123.4277992665
 20
156.2516813505
 10
123.5523427148
 20
156.7419488031
 10
123.6013198193
 20
157.2322162557
 10
123.5718842087
 20
157.693991146
 10
123.4657465737
 20
158.1004367958
 10
123.2890752478
 20
158.4279320614
 10
123.0521377264
 20
158.6574441084
 10
122.7687039569
 20
158.7756345307
 10
122.4552460798
 20
158.7756345307
 10
122.1299811276
 20
158.6574441084
 10
121.8118123169
 20
158.4279320614
 10
121.5192304626
 20
158.1004367958
 10
121.2692393585
 20
157.693991146
 10
121.0763675789
 20
157.2322162557
 10
120.9518241306
 20
156.7419488031
  0
LWPOLYLINE
  5
BD
330
A
100
AcDbEntity
  8
1
  6
CONTINUOUS
370
    50
100
AcDbPolyline
 90
       18
 70
   128
 43
0.0
 10
116.1403733335
 20
156.9454493997
 10
116.1237038148
 20
156.8412679923
 10
116.1076019567
 20
156.7934345314
 10
116.0926160884
 20
156.803577928
 10
116.0792565359
 20
156.8713527609
 10
116.0679782426
 20
156.9944510395
 10
116.0591652772
 20
157.1686807996
 10
116.0531177549
 20
157.3881088556
 10
116.0500416166
 20
157.6452628483
 10
116.0500416166
 20
157.9313857068
 10
116.0531177549
 20
158.2367338604
 10
116.0591652772
 20
158.5509090439
 10
116.0679782426
 20
158.8632123983
 10
116.0792565359
 20
159.1630088074
 10
116.0926160884
 20
159.4400890641
 10
116.1076019567
 20
159.6850175325
 10
116.1237038148
 20
159.8894534674
 10
116.1403733335
 20
160.0464350482
  0
LWPOLYLINE
  5
D1
330
A
100
AcDbEntity
  8
1
  6
CONTINUOUS
370
    50
100
AcDbPolyline
 90
       18
 70
   128
 43
0.0
 10
116.1403733335
 20
160.0464350482
 10
115.642808732
 20
160.0274650548
 10
115.1621880962
 20
159.9563408883
 10
114.7148783855
 20
159.8354845968
 10
114.3161121956
 20
159.6690117964
 10
113.9794690307
 20
159.4625915186
 10
113.7164128702
 20
159.2232531585
 10
113.535901776
 20
158.9591470968
 10
113.444082837
 20
158.6792671487
 10
113.444082837
 20
158.3931442902
 10
113.535901776
 20
158.1105220921
 10
113.7164128702
 20
157.8410249142
 10
113.9794690307
 20
157.5938301599
 10
114.3161121956
 20
157.3773557499
 10
114.7148783855
 20
157.1989734607
 10
115.1621880962
 20
157.0647578872
 10
115.642808732
 20
156.9792795798
 10
116.1403733335
 20
156.9454493997
  0
LWPOLYLINE
  5
E5
330
A
100
AcDbEntity
  8
1
  6
CONTINUOUS
370
    50
100
AcDbPolyline
 90
       27
 70
   128
 43
0.0
 10
120.9532495847
 20
156.7429716154
 10
121.0773151309
 20
157.2313577979
 10
121.2694468166
 20
157.6913607507
 10
121.5184786468
 20
158.0962467742
 10
121.8099377967
 20
158.4224853644
 10
122.1268857197
 20
158.6511167204
 10
122.4509025548
 20
158.7688536186
 10
122.7631576213
 20
158.7688536186
 10
123.0455037895
 20
158.6511167204
 10
123.2815321267
 20
158.4224853644
 10
123.4575255236
 20
158.0962467742
 10
123.5632558839
 20
157.6913607507
 10
123.5925785432
 20
157.2313577979
 10
123.5437893752
 20
156.7429716154
 10
123.4197238291
 20
156.2545854329
 10
123.2275921433
 20
155.7945824801
 10
122.9785603131
 20
155.3896964566
 10
122.6871011633
 20
155.0634578663
 10
122.3701532402
 20
154.8348265104
 10
122.0461364051
 20
154.7170896122
 10
121.7338813387
 20
154.7170896122
 10
121.4515351704
 20
154.8348265104
 10
121.2155068332
 20
155.0634578663
 10
121.0395134363
 20
155.3896964566
 10
120.933783076
 20
155.7945824801
 10
120.9044604167
 20
156.2545854329
 10
120.9532495847
 20
156.7429716154
  0
LWPOLYLINE
  5
102
330
A
100
AcDbEntity
  8
1
  6
CONTINUOUS
370
    50
100
AcDbPolyline
 90
       24
 70
   128
 43
0.0
 10
122.9860770597
 20
156.8244979288
 10
122.8713408662
 20
156.3902244237
 10
122.6893443372
 20
155.9881589979
 10
122.4535853227
 20
155.6481210045
 10
122.1815489902
 20
155.3953295061
 10
121.89341103
 20
155.2485328916
 10
121.6105413166
 20
155.2186183943
 10
121.3539190024
 20
155.3078046357
 10
121.1425765907
 20
155.5094770802
 10
120.9921883811
 20
155.8086786052
 10
120.9139079793
 20
156.1832188024
 10
120.9135410846
 20
156.6053197388
 10
120.9911149078
 20
157.0436761188
 10
121.1408761534
 20
157.4657770551
 10
121.3517177148
 20
157.8403172523
 10
121.6080024381
 20
158.1395187773
 10
121.8907228577
 20
158.3411912219
 10
122.1789108934
 20
158.4303774632
 10
122.451192957
 20
158.4004629659
 10
122.6873751335
 20
158.2536663514
 10
122.8699408713
 20
158.000874853
 10
122.9853501048
 20
157.6608368596
 10
123.0250434591
 20
157.2587714338
 10
122.9860770597
 20
156.8244979288
  0
ARC
  5
11C
330
A
100
AcDbEntity
  8
1
  6
CONTINUOUS
370
    50
100
AcDbCircle
 10
117.7123920858
 20
159.8514144939
 30
0.0
 40
1.5840694348
100
AcDbArc
 50
169.5837820569
 51
172.928166104
  0
ARC
  5
11D
330
A
100
AcDbEntity
  8
1
  6
CONTINUOUS
370
    50
100
AcDbCircle
 10
111.9143559777
 20
150.0913971156
 30
0.0
 40
10.9045232025
100
AcDbArc
 50
65.78271100279999
 51
67.1179062879
  0
ARC
  5
11E
330
A
100
AcDbEntity
  8
1
  6
CONTINUOUS
370
    50
100
AcDbCircle
 10
116.0699839252
 20
155.3241397316
 30
0.0
 40
4.7228198914
100
AcDbArc
 50
86.1466391333
 51
89.1460260102
  0
ARC
  5
11F
330
A
100
AcDbEntity
  8
1
  6
CONTINUOUS
370
    50
100
AcDbCircle
 10
116.2109008906
 20
161.6610986891
 30
0.0
 40
4.7161766673
100
AcDbArc
 50
269.1431444843
 51
272.1444122422
  0
ARC
  5
120
330
A
100
AcDbEntity
  8
1
  6
CONTINUOUS
370
    50
100
AcDbCircle
 10
122.1607684829
 20
167.896903669
 30
0.0
 40
12.3776279005
100
AcDbArc
 50
240.9706336715
 51
242.1966722692
  0
ARC
  5
121
330
A
100
AcDbEntity
  8
1
  6
CONTINUOUS
370
    50
100
AcDbCircle
 10
111.8850780561
 20
157.4748969781
 30
0.0
 40
4.2881059497
100
AcDbArc
 50
352.9076566901
 51
354.6390928976999
  0
LWPOLYLINE
  5
122
330
A
100
AcDbEntity
  8
1
  6
CONTINUOUS
370
    50
100
AcDbPolyline
 90
       24
 70
   128
 43
0.0
 10
112.8039622474
 20
159.1602582174
 10
112.764995848
 20
158.7259847124
 10
112.8046892023
 20
158.3239192866
 10
112.9200984358
 20
157.9838812932
 10
113.1026641736
 20
157.7310897948
 10
113.3388463501
 20
157.5842931803
 10
113.6111284137
 20
157.554378683
 10
113.8993164495
 20
157.6435649243
 10
114.182036869
 20
157.8452373689
 10
114.4383215923
 20
158.1444388939
 10
114.6491631537
 20
158.5189790911
 10
114.7989243993
 20
158.9410800274
 10
114.8764982225
 20
159.3794364075
 10
114.8761313278
 20
159.8015373438
 10
114.797850926
 20
160.176077541
 10
114.6474627165
 20
160.475279066
 10
114.4361203047
 20
160.6769515105
 10
114.1794979906
 20
160.7661377519
 10
113.8966282771
 20
160.7362232546
 10
113.6084903169
 20
160.5894266401
 10
113.3364539845
 20
160.3366351417
 10
113.1006949699
 20
159.9965971483
 10
112.9186984409
 20
159.5945317225
 10
112.8039622474
 20
159.1602582174
  0
LINE
  5
13C
330
A
100
AcDbEntity
  8
1
  6
CONTINUOUS
370
    50
100
AcDbLine
 10
106.5541990903
 20
142.7741137824
 30
0.0
 11
106.5541990903
 21
188.3667728138
 31
0.0
  0
LINE
  5
13D
330
A
100
AcDbEntity
  8
1
  6
CONTINUOUS
370
    50
100
AcDbLine
 10
106.6010451968
 20
142.7741137824
 30
0.0
 11
106.6010451968
 21
188.1554636829
 31
0.0
  0
LWPOLYLINE
  5
13E
330
A
100
AcDbEntity
  8
1
  6
CONTINUOUS
370
    50
100
AcDbPolyline
 90
        9
 70
   128
 43
0.0
 10
116.3873722836
 20
160.0362828063
 10
116.3582503337
 20
160.0541363826
 10
116.3290739046
 20
160.0705426613
 10
116.2998707825
 20
160.0854860179
 10
116.2706687788
 20
160.098952221
 10
116.241495704
 20
160.1109284463
 10
116.212379341
 20
160.121403288
 10
116.1833474188
 20
160.1303667706
 10
116.1544275858
 20
160.1378103578
  0
LWPOLYLINE
  5
149
330
A
100
AcDbEntity
  8
1
  6
CONTINUOUS
370
    50
100
AcDbPolyline
 90
       26
 70
   128
 43
0.0
 10
112.579591921
 20
159.1624566805
 10
112.5326312329
 20
158.6772455411
 10
112.5664308511
 20
158.2225220021
 10
112.6788670215
 20
157.8268580157
 10
112.8628749659
 20
157.5151146054
 10
113.1068927883
 20
157.3068797562
 10
113.3955879517
 20
157.2152376295
 10
113.710820677
 20
157.2459464372
 10
114.0327837329
 20
157.3970766318
 10
114.3412469965
 20
157.6591321476
 10
114.6168285864
 20
158.0156470726
 10
114.8422126979
 20
158.4442202629
 10
115.0032376182
 20
158.9179228888
 10
115.0897855596
 20
159.4069904722
 10
115.0964183964
 20
159.8806930982
 10
115.0227193632
 20
160.3092662885
 10
114.8733192412
 20
160.6657812135
 10
114.6576053897
 20
160.9278367293
 10
114.3891319031
 20
161.0789669239
 10
114.0847679582
 20
161.1096757316
 10
113.7636378608
 20
161.0180336049
 10
113.445919396
 20
160.8097987557
 10
113.1515759836
 20
160.4980553454
 10
112.8991023025
 20
160.102391359
 10
112.7043622027
 20
159.64766782
 10
112.579591921
 20
159.1624566805
  0
LWPOLYLINE
  5
165
330
A
100
AcDbEntity
  8
1
  6
CONTINUOUS
370
    50
100
AcDbPolyline
 90
       26
 70
   128
 43
0.0
 10
112.5872523654
 20
159.1602582174
 10
112.5402916773
 20
158.675047078
 10
112.5740912956
 20
158.2203235389
 10
112.6865274659
 20
157.8246595526
 10
112.8705354103
 20
157.5129161423
 10
113.1145532327
 20
157.3046812931
 10
113.4032483961
 20
157.2130391664
 10
113.7184811215
 20
157.2437479741
 10
114.0404441774
 20
157.3948781687
 10
114.3489074409
 20
157.6569336845
 10
114.6244890309
 20
158.0134486095
 10
114.8498731423
 20
158.4420217998
 10
115.0108980627
 20
158.9157244257
 10
115.097446004
 20
159.4047920091
 10
115.1040788408
 20
159.8784946351
 10
115.0303798076
 20
160.3070678254
 10
114.8809796856
 20
160.6635827504
 10
114.6652658341
 20
160.9256382661
 10
114.3967923476
 20
161.0767684608
 10
114.0924284026
 20
161.1074772685
 10
113.7712983052
 20
161.0158351418
 10
113.4535798405
 20
160.8076002926
 10
113.159236428
 20
160.4958568823
 10
112.9067627469
 20
160.1001928959
 10
112.7120226472
 20
159.6454693569
 10
112.5872523654
 20
159.1602582174
  0
LWPOLYLINE
  5
181
330
A
100
AcDbEntity
  8
1
  6
CONTINUOUS
370
    50
100
AcDbPolyline
 90
       24
 70
   128
 43
0.0
 10
112.796301803
 20
159.1624566805
 10
112.7573354036
 20
158.7281831755
 10
112.7970287579
 20
158.3261177497
 10
112.9124379914
 20
157.9860797563
 10
113.0950037292
 20
157.7332882579
 10
113.3311859057
 20
157.5864916434
 10
113.6034679693
 20
157.5565771461
 10
113.891656005
 20
157.6457633875
 10
114.1743764246
 20
157.847435832
 10
114.4306611479
 20
158.146637357
 10
114.6415027093
 20
158.5211775542
 10
114.7912639549
 20
158.9432784905
 10
114.8688377781
 20
159.3816348706
 10
114.8684708834
 20
159.8037358069
 10
114.7901904816
 20
160.1782760041
 10
114.639802272
 20
160.4774775291
 10
114.4284598603
 20
160.6791499736
 10
114.1718375461
 20
160.768336215
 10
113.8889678327
 20
160.7384217177
 10
113.6008298725
 20
160.5916251032
 10
113.32879354
 20
160.3388336048
 10
113.0930345255
 20
159.9987956114
 10
112.9110379965
 20
159.5967301856
 10
112.796301803
 20
159.1624566805
  0
LWPOLYLINE
  5
19B
330
A
100
AcDbEntity
  8
1
  6
CONTINUOUS
370
    50
100
AcDbPolyline
 90
       23
 70
   128
 43
0.0
 10
98.0564605243
 20
163.3926286373
 10
97.9789166683
 20
162.9860647882
 10
98.0463966596
 20
162.5865384709
 10
98.2444629493
 20
162.2375316215
 10
98.5743065209
 20
161.9352746557
 10
99.2104912844
 20
161.6383812098
 10
100.2255643724
 20
161.4889424175
 10
100.9043858454
 20
161.5248491688
 10
101.5858146925
 20
161.659314418
 10
102.4184960525
 20
162.0036991084
 10
102.8261134717
 20
162.3229546008
 10
103.0378086757
 20
162.6316785977
 10
103.1108954541
 20
162.9178162439
 10
103.0754126168
 20
163.2157342634
 10
102.9489126759
 20
163.4823771802
 10
102.6076864243
 20
163.8540589417
 10
101.8636800196
 20
164.2855846078
 10
101.2290723304
 20
164.4849975795
 10
100.5512838813
 20
164.581883699
 10
99.4290436423
 20
164.4792603754
 10
98.7399175005
 20
164.1864650384
 10
98.3012384241
 20
163.8087057758
 10
98.0564605243
 20
163.3926286373
  0
LWPOLYLINE
  5
1B4
330
A
100
AcDbEntity
  8
1
  6
CONTINUOUS
370
    50
100
AcDbPolyline
 90
        9
 70
   128
 43
0.0
 10
116.1544275858
 20
157.0742634426
 10
116.1833474188
 20
157.0534549333
 10
116.212379341
 20
157.0340568184
 10
116.241495704
 20
157.0160875715
 10
116.2706687788
 20
156.9995643057
 10
116.2998707825
 20
156.9845027569
 10
116.3290739046
 20
156.9709172689
 10
116.3582503337
 20
156.9588207797
 10
116.3873722836
 20
156.9482248095
  0
LINE
  5
1BF
330
A
100
AcDbEntity
  8
1
  6
CONTINUOUS
370
    50
100
AcDbLine
 10
106.3010451968
 20
142.0241137824
 30
0.0
 11
109.0010451968
 21
142.0241137824
 31
0.0
  0
LINE
  5
1C0
330
A
100
AcDbEntity
  8
1
  6
CONTINUOUS
370
    50
100
AcDbLine
 10
109.0010451968
 20
190.9241137824
 30
0.0
 11
106.3010451968
 21
190.9241137824
 31
0.0
  0
LINE
  5
1C1
330
A
100
AcDbEntity
  8
1
  6
CONTINUOUS
370
    50
100
AcDbLine
 10
108.690385025
 20
142.7741137824
 30
0.0
 11
106.3010451968
 21
142.7741137824
 31
0.0
  0
LINE
  5
1C2
330
A
100
AcDbEntity
  8
1
  6
CONTINUOUS
370
    50
100
AcDbLine
 10
106.3010451968
 20
190.1741137824
 30
0.0
 11
108.690385025
 21
190.1741137824
 31
0.0
  0
LINE
  5
1C3
330
A
100
AcDbEntity
  8
1
  6
CONTINUOUS
370
    50
100
AcDbLine
 10
37.3223316429
 20
156.5589324127
 30
0.0
 11
37.3223316429
 21
174.1892951521
 31
0.0
  0
LINE
  5
1C4
330
A
100
AcDbEntity
  8
1
  6
CONTINUOUS
370
    50
100
AcDbLine
 10
184.2378231725
 20
157.3741137824
 30
0.0
 11
184.2378231725
 21
173.3741137824
 31
0.0
  0
LINE
  5
1C5
330
A
100
AcDbEntity
  8
1
  6
CONTINUOUS
370
    50
100
AcDbLine
 10
108.1510451943
 20
134.89703223
 30
0.0
 11
109.0010451968
 21
135.7470322324
 31
0.0
  0
LINE
  5
1C6
330
A
100
AcDbEntity
  8
1
  6
CONTINUOUS
370
    50
100
AcDbLine
 10
108.1510451943
 20
195.8511953349
 30
0.0
 11
109.0010451968
 21
195.0011953324
 31
0.0
  0
LINE
  5
1C7
330
A
100
AcDbEntity
  8
1
  6
CONTINUOUS
370
    50
100
AcDbLine
 10
37.8223316429
 20
156.8476075473
 30
0.0
 11
37.8223316429
 21
173.9006200175
 31
0.0
  0
LINE
  5
1C8
330
A
100
AcDbEntity
  8
1
  6
CONTINUOUS
370
    50
100
AcDbLine
 10
46.4603718708
 20
172.4491137824
 30
0.0
 11
46.4603718708
 21
158.2991137824
 31
0.0
  0
LINE
  5
1C9
330
A
100
AcDbEntity
  8
1
  6
CONTINUOUS
370
    50
100
AcDbLine
 10
45.5510451968
 20
174.0241137824
 30
0.0
 11
45.5510451968
 21
156.7241137824
 31
0.0
  0
LINE
  5
1CA
330
A
100
AcDbEntity
  8
1
  6
CONTINUOUS
370
    50
100
AcDbLine
 10
42.9809490074
 20
173.8741137824
 30
0.0
 11
42.9809490074
 21
156.8741137824
 31
0.0
  0
LINE
  5
1CB
330
A
100
AcDbEntity
  8
1
  6
CONTINUOUS
370
    50
100
AcDbLine
 10
43.2407566285
 20
174.0241137824
 30
0.0
 11
43.2407566285
 21
156.7241137824
 31
0.0
  0
LINE
  5
1CC
330
A
100
AcDbEntity
  8
1
  6
CONTINUOUS
370
    50
100
AcDbLine
 10
38.0510451968
 20
173.8741137824
 30
0.0
 11
38.0510451968
 21
156.8890420624
 31
0.0
  0
LINE
  5
1CD
330
A
100
AcDbEntity
  8
1
  6
CONTINUOUS
370
    50
100
AcDbLine
 10
145.1855751468
 20
157.1741137824
 30
0.0
 11
145.1855751468
 21
173.5741137824
 31
0.0
  0
LINE
  5
1CE
330
A
100
AcDbEntity
  8
1
  6
CONTINUOUS
370
    50
100
AcDbLine
 10
135.8010451968
 20
173.5741137824
 30
0.0
 11
135.8010451968
 21
157.1741137824
 31
0.0
  0
LINE
  5
1CF
330
A
100
AcDbEntity
  8
1
  6
CONTINUOUS
370
    50
100
AcDbLine
 10
145.3010452007
 20
173.3741137824
 30
0.0
 11
145.3010452007
 21
157.3741137824
 31
0.0
  0
LINE
  5
1D0
330
A
100
AcDbEntity
  8
1
  6
CONTINUOUS
370
    50
100
AcDbLine
 10
135.3010451968
 20
157.6741138254
 30
0.0
 11
135.3010451968
 21
173.0741137824
 31
0.0
  0
LINE
  5
1D1
330
A
100
AcDbEntity
  8
1
  6
CONTINUOUS
370
    50
100
AcDbLine
 10
119.3173830136
 20
135.7470322324
 30
0.0
 11
124.3510451968
 21
135.7470322324
 31
0.0
  0
LINE
  5
1D2
330
A
100
AcDbEntity
  8
1
  6
CONTINUOUS
370
    50
100
AcDbLine
 10
109.0010451968
 20
135.7470322324
 30
0.0
 11
113.48470738
 21
135.7470322324
 31
0.0
  0
LINE
  5
1D3
330
A
100
AcDbEntity
  8
1
  6
CONTINUOUS
370
    50
100
AcDbLine
 10
109.0010451968
 20
135.7470322324
 30
0.0
 11
109.0010451968
 21
142.0241137824
 31
0.0
  0
LINE
  5
1D4
330
A
100
AcDbEntity
  8
1
  6
CONTINUOUS
370
    50
100
AcDbLine
 10
109.0010451968
 20
142.0241137824
 30
0.0
 11
124.3510451968
 21
142.0241137824
 31
0.0
  0
LINE
  5
1D5
330
A
100
AcDbEntity
  8
1
  6
CONTINUOUS
370
    50
100
AcDbLine
 10
124.3510451968
 20
142.7741137824
 30
0.0
 11
108.690385025
 21
142.7741137824
 31
0.0
  0
LINE
  5
1D6
330
A
100
AcDbEntity
  8
1
  6
CONTINUOUS
370
    50
100
AcDbLine
 10
109.0010451968
 20
142.0241137824
 30
0.0
 11
108.690385025
 21
142.7741137824
 31
0.0
  0
LINE
  5
1D7
330
A
100
AcDbEntity
  8
1
  6
CONTINUOUS
370
    50
100
AcDbLine
 10
108.690385025
 20
190.1741137824
 30
0.0
 11
124.3510451968
 21
190.1741137824
 31
0.0
  0
LINE
  5
1D8
330
A
100
AcDbEntity
  8
1
  6
CONTINUOUS
370
    50
100
AcDbLine
 10
109.0010451968
 20
190.9241137824
 30
0.0
 11
108.690385025
 21
190.1741137824
 31
0.0
  0
LINE
  5
1D9
330
A
100
AcDbEntity
  8
1
  6
CONTINUOUS
370
    50
100
AcDbLine
 10
124.3510451968
 20
190.9241137824
 30
0.0
 11
109.0010451968
 21
190.9241137824
 31
0.0
  0
LINE
  5
1DA
330
A
100
AcDbEntity
  8
1
  6
CONTINUOUS
370
    50
100
AcDbLine
 10
119.3173830136
 20
195.0011953324
 30
0.0
 11
124.3510451968
 21
195.0011953324
 31
0.0
  0
LINE
  5
1DB
330
A
100
AcDbEntity
  8
1
  6
CONTINUOUS
370
    50
100
AcDbLine
 10
109.0010451968
 20
195.0011953324
 30
0.0
 11
113.48470738
 21
195.0011953324
 31
0.0
  0
LINE
  5
1DC
330
A
100
AcDbEntity
  8
1
  6
CONTINUOUS
370
    50
100
AcDbLine
 10
109.0010451968
 20
195.0011953324
 30
0.0
 11
109.0010451968
 21
190.9241137824
 31
0.0
  0
LINE
  5
1DD
330
A
100
AcDbEntity
  8
1
  6
CONTINUOUS
370
    50
100
AcDbLine
 10
71.0510451968
 20
173.3741137824
 30
0.0
 11
71.0510451968
 21
157.3741137824
 31
0.0
  0
LINE
  5
1DE
330
A
100
AcDbEntity
  8
1
  6
CONTINUOUS
370
    50
100
AcDbLine
 10
71.0410451968
 20
173.3741137824
 30
0.0
 11
71.0410451968
 21
157.3741137824
 31
0.0
  0
LINE
  5
1DF
330
A
100
AcDbEntity
  8
1
  6
CONTINUOUS
370
    50
100
AcDbLine
 10
82.0510451968
 20
172.4491137824
 30
0.0
 11
82.0510451968
 21
158.2991137824
 31
0.0
  0
LINE
  5
1E0
330
A
100
AcDbEntity
  8
1
  6
CONTINUOUS
370
    50
100
AcDbLine
 10
82.0692437085
 20
172.3991137824
 30
0.0
 11
82.0692437085
 21
158.3491137824
 31
0.0
  0
LINE
  5
1E1
330
A
100
AcDbEntity
  8
1
  6
CONTINUOUS
370
    50
100
AcDbLine
 10
116.0510451968
 20
172.3991137824
 30
0.0
 11
116.0510451968
 21
158.3491137824
 31
0.0
  0
LINE
  5
1E2
330
A
100
AcDbEntity
  8
1
  6
CONTINUOUS
370
    50
100
AcDbLine
 10
116.9315043573
 20
170.8741137824
 30
0.0
 11
116.9315043573
 21
159.8741137824
 31
0.0
  0
LWPOLYLINE
  5
1E3
330
A
100
AcDbEntity
  8
1
  6
CONTINUOUS
370
    50
100
AcDbPolyline
 90
       23
 70
   128
 43
0.0
 10
98.0564605243
 20
167.3555989276
 10
97.9789166683
 20
167.7621627767
 10
98.0463966596
 20
168.161689094
 10
98.2444629493
 20
168.5106959434
 10
98.5743065209
 20
168.8129529092
 10
99.2104912844
 20
169.1098463551
 10
100.2255643724
 20
169.2592851474
 10
100.9141403568
 20
169.222598946
 10
101.5858146925
 20
169.0889131469
 10
102.4184960525
 20
168.7445284565
 10
102.8261134717
 20
168.4252729641
 10
103.0378086757
 20
168.1165489671
 10
103.1108954541
 20
167.830411321
 10
103.0754126168
 20
167.5324933014
 10
102.9489126759
 20
167.2658503846
 10
102.6076864243
 20
166.8941686232
 10
101.8636800196
 20
166.4626429571
 10
101.2200652151
 20
166.260774227
 10
100.5512838813
 20
166.1663438659
 10
99.4290436423
 20
166.2689671895
 10
98.7399175005
 20
166.5617625265
 10
98.3012384241
 20
166.939521789
 10
98.0564605243
 20
167.3555989276
  0
LINE
  5
1FC
330
A
100
AcDbEntity
  8
1
  6
CONTINUOUS
370
    50
100
AcDbLine
 10
111.4010451968
 20
189.9741137824
 30
0.0
 11
121.4010451968
 21
189.9741137824
 31
0.0
  0
LINE
  5
1FD
330
A
100
AcDbEntity
  8
1
  6
CONTINUOUS
370
    50
100
AcDbLine
 10
111.7010452635
 20
185.4741137824
 30
0.0
 11
121.1010451968
 21
185.4741137824
 31
0.0
  0
LINE
  5
1FE
330
A
100
AcDbEntity
  8
1
  6
CONTINUOUS
370
    50
100
AcDbLine
 10
121.4010451968
 20
185.7741137824
 30
0.0
 11
111.4010451968
 21
185.7741137824
 31
0.0
  0
LINE
  5
1FF
330
A
100
AcDbEntity
  8
1
  6
CONTINUOUS
370
    50
100
AcDbLine
 10
115.3010451968
 20
185.0741137824
 30
0.0
 11
117.5010451968
 21
185.0741137824
 31
0.0
  0
LINE
  5
200
330
A
100
AcDbEntity
  8
1
  6
CONTINUOUS
370
    50
100
AcDbLine
 10
115.1510451968
 20
181.6641137824
 30
0.0
 11
117.6510451968
 21
181.6641137824
 31
0.0
  0
LINE
  5
201
330
A
100
AcDbEntity
  8
1
  6
CONTINUOUS
370
    50
100
AcDbLine
 10
115.1510451968
 20
181.6741137824
 30
0.0
 11
117.6510451968
 21
181.6741137824
 31
0.0
  0
LINE
  5
202
330
A
100
AcDbEntity
  8
1
  6
CONTINUOUS
370
    50
100
AcDbLine
 10
115.3010451968
 20
179.0741137824
 30
0.0
 11
117.5010451968
 21
179.0741137824
 31
0.0
  0
LWPOLYLINE
  5
203
330
A
100
AcDbEntity
  8
1
  6
CONTINUOUS
370
    50
100
AcDbPolyline
 90
       24
 70
   128
 43
0.0
 10
112.796301803
 20
171.5857708843
 10
112.7573354036
 20
172.0200443894
 10
112.7970287579
 20
172.4221098152
 10
112.9124379914
 20
172.7621478085
 10
113.0950037292
 20
173.014939307
 10
113.3311859057
 20
173.1617359215
 10
113.6034679693
 20
173.1916504188
 10
113.891656005
 20
173.1024641774
 10
114.1743764246
 20
172.9007917329
 10
114.4306611479
 20
172.6015902079
 10
114.6415027093
 20
172.2270500107
 10
114.7912639549
 20
171.8049490743
 10
114.8688377781
 20
171.3665926943
 10
114.8684708834
 20
170.944491758
 10
114.7901904816
 20
170.5699515608
 10
114.639802272
 20
170.2707500357
 10
114.4284598603
 20
170.0690775912
 10
114.1718375461
 20
169.9798913499
 10
113.8889678327
 20
170.0098058471
 10
113.6008298725
 20
170.1566024617
 10
113.32879354
 20
170.4093939601
 10
113.0930345255
 20
170.7494319534
 10
112.9110379965
 20
171.1514973793
 10
112.796301803
 20
171.5857708843
  0
LINE
  5
21D
330
A
100
AcDbEntity
  8
1
  6
CONTINUOUS
370
    50
100
AcDbLine
 10
117.8260451968
 20
138.5562559261
 30
0.0
 11
117.8260451968
 21
192.1919716387
 31
0.0
  0
LINE
  5
21E
330
A
100
AcDbEntity
  8
1
  6
CONTINUOUS
370
    50
100
AcDbLine
 10
118.3260451968
 20
183.7241137824
 30
0.0
 11
118.3260451968
 21
187.1807068222
 31
0.0
  0
LINE
  5
21F
330
A
100
AcDbEntity
  8
1
  6
CONTINUOUS
370
    50
100
AcDbLine
 10
114.9760451968
 20
138.5562559261
 30
0.0
 11
114.9760451968
 21
192.1919716387
 31
0.0
  0
LINE
  5
220
330
A
100
AcDbEntity
  8
1
  6
CONTINUOUS
370
    50
100
AcDbLine
 10
114.4760451968
 20
183.7241137824
 30
0.0
 11
114.4760451968
 21
187.1807068222
 31
0.0
  0
LINE
  5
221
330
A
100
AcDbEntity
  8
1
  6
CONTINUOUS
370
    50
100
AcDbLine
 10
112.8792085548
 20
191.2843434225
 30
0.0
 11
112.8792085548
 21
183.7241137824
 31
0.0
  0
LINE
  5
222
330
A
100
AcDbEntity
  8
1
  6
CONTINUOUS
370
    50
100
AcDbLine
 10
123.8510451968
 20
191.2843434225
 30
0.0
 11
123.8510451968
 21
183.7241137824
 31
0.0
  0
LINE
  5
223
330
A
100
AcDbEntity
  8
1
  6
CONTINUOUS
370
    50
100
AcDbLine
 10
119.9228818389
 20
191.2843434225
 30
0.0
 11
119.9228818389
 21
183.7241137824
 31
0.0
  0
LINE
  5
224
330
A
100
AcDbEntity
  8
1
  6
CONTINUOUS
370
    50
100
AcDbLine
 10
106.8010451968
 20
183.7241137824
 30
0.0
 11
106.8010451968
 21
191.2843434225
 31
0.0
  0
LWPOLYLINE
  5
225
330
A
100
AcDbEntity
  8
1
  6
CONTINUOUS
370
    50
100
AcDbPolyline
 90
       26
 70
   128
 43
0.0
 10
112.579591921
 20
171.5857708843
 10
112.5326312329
 20
172.0709820238
 10
112.5664308511
 20
172.5257055628
 10
112.6788670215
 20
172.9213695492
 10
112.8628749659
 20
173.2331129595
 10
113.1068927883
 20
173.4413478087
 10
113.3955879517
 20
173.5329899354
 10
113.710820677
 20
173.5022811277
 10
114.0327837329
 20
173.351150933
 10
114.3412469965
 20
173.0890954173
 10
114.6168285864
 20
172.7325804923
 10
114.8422126979
 20
172.304007302
 10
115.0032376182
 20
171.830304676
 10
115.0897855596
 20
171.3412370926
 10
115.0964183964
 20
170.8675344667
 10
115.0227193632
 20
170.4389612764
 10
114.8733192412
 20
170.0824463514
 10
114.6576053897
 20
169.8203908356
 10
114.3891319031
 20
169.6692606409
 10
114.0847679582
 20
169.6385518333
 10
113.7636378608
 20
169.73019396
 10
113.445919396
 20
169.9384288092
 10
113.1515759836
 20
170.2501722195
 10
112.8991023025
 20
170.6458362058
 10
112.7043622027
 20
171.1005597449
 10
112.579591921
 20
171.5857708843
  0
LWPOLYLINE
  5
241
330
A
100
AcDbEntity
  8
1
  6
CONTINUOUS
370
    50
100
AcDbPolyline
 90
       26
 70
   128
 43
0.0
 10
112.5872523654
 20
171.5879693474
 10
112.5402916773
 20
172.0731804869
 10
112.5740912956
 20
172.5279040259
 10
112.6865274659
 20
172.9235680123
 10
112.8705354103
 20
173.2353114226
 10
113.1145532327
 20
173.4435462718
 10
113.4032483961
 20
173.5351883985
 10
113.7184811215
 20
173.5044795908
 10
114.0404441774
 20
173.3533493961
 10
114.3489074409
 20
173.0912938804
 10
114.6244890309
 20
172.7347789554
 10
114.8498731423
 20
172.3062057651
 10
115.0108980627
 20
171.8325031391
 10
115.097446004
 20
171.3434355557
 10
115.1040788408
 20
170.8697329298
 10
115.0303798076
 20
170.4411597395
 10
114.8809796856
 20
170.0846448145
 10
114.6652658341
 20
169.8225892987
 10
114.3967923476
 20
169.671459104
 10
114.0924284026
 20
169.6407502964
 10
113.7712983052
 20
169.7323924231
 10
113.4535798405
 20
169.9406272723
 10
113.159236428
 20
170.2523706826
 10
112.9067627469
 20
170.6480346689
 10
112.7120226472
 20
171.102758208
 10
112.5872523654
 20
171.5879693474
  0
LWPOLYLINE
  5
25D
330
A
100
AcDbEntity
  8
1
  6
CONTINUOUS
370
    50
100
AcDbPolyline
 90
       24
 70
   128
 43
0.0
 10
112.8039622474
 20
171.5879693474
 10
112.764995848
 20
172.0222428525
 10
112.8046892023
 20
172.4243082783
 10
112.9200984358
 20
172.7643462716
 10
113.1026641736
 20
173.0171377701
 10
113.3388463501
 20
173.1639343846
 10
113.6111284137
 20
173.1938488819
 10
113.8993164495
 20
173.1046626405
 10
114.182036869
 20
172.902990196
 10
114.4383215923
 20
172.603788671
 10
114.6491631537
 20
172.2292484738
 10
114.7989243993
 20
171.8071475374
 10
114.8764982225
 20
171.3687911574
 10
114.8761313278
 20
170.9466902211
 10
114.797850926
 20
170.5721500239
 10
114.6474627165
 20
170.2729484988
 10
114.4361203047
 20
170.0712760543
 10
114.1794979906
 20
169.982089813
 10
113.8966282771
 20
170.0120043102
 10
113.6084903169
 20
170.1588009248
 10
113.3364539845
 20
170.4115924232
 10
113.1006949699
 20
170.7516304165
 10
112.9186984409
 20
171.1536958424
 10
112.8039622474
 20
171.5879693474
  0
LWPOLYLINE
  5
277
330
A
100
AcDbEntity
  8
1
  6
CONTINUOUS
370
    50
100
AcDbPolyline
 90
       24
 70
   128
 43
0.0
 10
122.9860770597
 20
173.9237296361
 10
122.8713408662
 20
174.3580031411
 10
122.6893443372
 20
174.760068567
 10
122.4535853227
 20
175.1001065603
 10
122.1815489902
 20
175.3528980588
 10
121.89341103
 20
175.4996946733
 10
121.6105413166
 20
175.5296091706
 10
121.3539190024
 20
175.4404229292
 10
121.1425765907
 20
175.2387504847
 10
120.9921883811
 20
174.9395489597
 10
120.9139079793
 20
174.5650087625
 10
120.9135410846
 20
174.1429078261
 10
120.9911149078
 20
173.7045514461
 10
121.1408761534
 20
173.2824505098
 10
121.3517177148
 20
172.9079103126
 10
121.6080024381
 20
172.6087087875
 10
121.8907228577
 20
172.407036343
 10
122.1789108934
 20
172.3178501016
 10
122.451192957
 20
172.3477645989
 10
122.6873751335
 20
172.4945612135
 10
122.8699408713
 20
172.7473527119
 10
122.9853501048
 20
173.0873907052
 10
123.0250434591
 20
173.4894561311
 10
122.9860770597
 20
173.9237296361
  0
ARC
  5
291
330
A
100
AcDbEntity
  8
1
  6
CONTINUOUS
370
    50
100
AcDbCircle
 10
117.7123920865
 20
170.8968130711
 30
0.0
 40
1.5840694355
100
AcDbArc
 50
187.0718338966
 51
190.4162179424
  0
ARC
  5
292
330
A
100
AcDbEntity
  8
1
  6
CONTINUOUS
370
    50
100
AcDbCircle
 10
111.9143559783
 20
180.6568304479
 30
0.0
 40
10.904523201
100
AcDbArc
 50
292.8820937120001
 51
294.2172889973
  0
ARC
  5
293
330
A
100
AcDbEntity
  8
1
  6
CONTINUOUS
370
    50
100
AcDbCircle
 10
116.0699839252
 20
175.424087832
 30
0.0
 40
4.7228198901
100
AcDbArc
 50
270.8539739894
 51
273.8533608671
  0
LWPOLYLINE
  5
294
330
A
100
AcDbEntity
  8
1
  6
CONTINUOUS
370
    50
100
AcDbPolyline
 90
       18
 70
   128
 43
0.0
 10
116.1403733335
 20
173.8027781652
 10
116.1237038148
 20
173.9069595725
 10
116.1076019567
 20
173.9547930335
 10
116.0926160884
 20
173.9446496369
 10
116.0792565359
 20
173.8768748039
 10
116.0679782426
 20
173.7537765253
 10
116.0591652772
 20
173.5795467653
 10
116.0531177549
 20
173.3601187093
 10
116.0500416166
 20
173.1029647166
 10
116.0500416166
 20
172.8168418581
 10
116.0531177549
 20
172.5114937045
 10
116.0591652772
 20
172.197318521
 10
116.0679782426
 20
171.8850151666
 10
116.0792565359
 20
171.5852187575
 10
116.0926160884
 20
171.3081385008
 10
116.1076019567
 20
171.0632100324
 10
116.1237038148
 20
170.8587740975
 10
116.1403733335
 20
170.7017925166
  0
ARC
  5
2A8
330
A
100
AcDbEntity
  8
1
  6
CONTINUOUS
370
    50
100
AcDbCircle
 10
116.2109008906
 20
169.0871288759
 30
0.0
 40
4.7161766672
100
AcDbArc
 50
87.8555877578
 51
90.85685551569999
  0
ARC
  5
2A9
330
A
100
AcDbEntity
  8
1
  6
CONTINUOUS
370
    50
100
AcDbCircle
 10
122.1607684815
 20
162.8513238984
 30
0.0
 40
12.3776278975
100
AcDbArc
 50
117.8033277306
 51
119.0293663287
  0
ARC
  5
2AA
330
A
100
AcDbEntity
  8
1
  6
CONTINUOUS
370
    50
100
AcDbCircle
 10
111.8850780572
 20
173.2733305869
 30
0.0
 40
4.2881059486
100
AcDbArc
 50
5.3609071021
 51
7.092343310100001
  0
LWPOLYLINE
  5
2AB
330
A
100
AcDbEntity
  8
1
  6
CONTINUOUS
370
    50
100
AcDbPolyline
 90
       18
 70
   128
 43
0.0
 10
116.1403733335
 20
170.7017925166
 10
115.642808732
 20
170.72076251
 10
115.1621880962
 20
170.7918866766
 10
114.7148783855
 20
170.9127429681
 10
114.3161121956
 20
171.0792157685
 10
113.9794690307
 20
171.2856360462
 10
113.7164128702
 20
171.5249744064
 10
113.535901776
 20
171.789080468
 10
113.444082837
 20
172.0689604161
 10
113.444082837
 20
172.3550832746
 10
113.535901776
 20
172.6377054728
 10
113.7164128702
 20
172.9072026507
 10
113.9794690307
 20
173.154397405
 10
114.3161121956
 20
173.370871815
 10
114.7148783855
 20
173.5492541042
 10
115.1621880962
 20
173.6834696777
 10
115.642808732
 20
173.7689479851
 10
116.1403733335
 20
173.8027781652
  0
LWPOLYLINE
  5
2BF
330
A
100
AcDbEntity
  8
1
  6
CONTINUOUS
370
    50
100
AcDbPolyline
 90
        9
 70
   128
 43
0.0
 10
116.1544275858
 20
173.6739641222
 10
116.1833474188
 20
173.6947726315
 10
116.212379341
 20
173.7141707465
 10
116.241495704
 20
173.7321399933
 10
116.2706687788
 20
173.7486632591
 10
116.2998707825
 20
173.763724808
 10
116.3290739046
 20
173.777310296
 10
116.3582503337
 20
173.7894067852
 10
116.3873722836
 20
173.8000027553
  0
LWPOLYLINE
  5
2CA
330
A
100
AcDbEntity
  8
1
  6
CONTINUOUS
370
    50
100
AcDbPolyline
 90
        9
 70
   128
 43
0.0
 10
116.3873722836
 20
170.7119447586
 10
116.3582503337
 20
170.6940911822
 10
116.3290739046
 20
170.6776849035
 10
116.2998707825
 20
170.662741547
 10
116.2706687788
 20
170.6492753438
 10
116.241495704
 20
170.6372991186
 10
116.212379341
 20
170.6268242769
 10
116.1833474188
 20
170.6178607942
 10
116.1544275858
 20
170.6104172071
  0
LWPOLYLINE
  5
2D5
330
A
100
AcDbEntity
  8
1
  6
CONTINUOUS
370
    50
100
AcDbPolyline
 90
       27
 70
   128
 43
0.0
 10
120.9518241306
 20
174.0062787618
 10
120.9028470261
 20
174.4965462143
 10
120.9322826367
 20
174.9583211046
 10
121.0384202717
 20
175.3647667544
 10
121.2150915975
 20
175.6922620201
 10
121.4520291189
 20
175.921774067
 10
121.7354628884
 20
176.0399644893
 10
122.0489207655
 20
176.0399644893
 10
122.3741857178
 20
175.921774067
 10
122.6923545284
 20
175.6922620201
 10
122.9849363828
 20
175.3647667544
 10
123.2349274869
 20
174.9583211046
 10
123.4277992665
 20
174.4965462143
 10
123.5523427148
 20
174.0062787618
 10
123.6013198193
 20
173.5160113092
 10
123.5718842087
 20
173.0542364189
 10
123.4657465737
 20
172.6477907691
 10
123.2890752478
 20
172.3202955034
 10
123.0521377264
 20
172.0907834565
 10
122.7687039569
 20
171.9725930342
 10
122.4552460798
 20
171.9725930342
 10
122.1299811276
 20
172.0907834565
 10
121.8118123169
 20
172.3202955034
 10
121.5192304626
 20
172.6477907691
 10
121.2692393585
 20
173.0542364189
 10
121.0763675789
 20
173.5160113092
 10
120.9518241306
 20
174.0062787618
  0
LWPOLYLINE
  5
2F2
330
A
100
AcDbEntity
  8
1
  6
CONTINUOUS
370
    50
100
AcDbPolyline
 90
       27
 70
   128
 43
0.0
 10
123.5437893752
 20
174.0052559495
 10
123.4197238291
 20
174.493642132
 10
123.2275921433
 20
174.9536450848
 10
122.9785603131
 20
175.3585311083
 10
122.6871011633
 20
175.6847696985
 10
122.3701532402
 20
175.9134010544
 10
122.0461364051
 20
176.0311379527
 10
121.7338813387
 20
176.0311379527
 10
121.4515351704
 20
175.9134010544
 10
121.2155068332
 20
175.6847696985
 10
121.0395134363
 20
175.3585311083
 10
120.933783076
 20
174.9536450848
 10
120.9044604167
 20
174.493642132
 10
120.9532495847
 20
174.0052559495
 10
121.0773151309
 20
173.516869767
 10
121.2694468166
 20
173.0568668142
 10
121.5184786468
 20
172.6519807907
 10
121.8099377967
 20
172.3257422004
 10
122.1268857197
 20
172.0971108445
 10
122.4509025548
 20
171.9793739463
 10
122.7631576213
 20
171.9793739463
 10
123.0455037895
 20
172.0971108445
 10
123.2815321267
 20
172.3257422004
 10
123.4575255236
 20
172.6519807907
 10
123.5632558839
 20
173.0568668142
 10
123.5925785432
 20
173.516869767
 10
123.5437893752
 20
174.0052559495
  0
LINE
  5
30F
330
A
100
AcDbEntity
  8
1
  6
CONTINUOUS
370
    50
100
AcDbLine
 10
120.4510451968
 20
156.817675405
 30
0.0
 11
120.4510451968
 21
163.817675405
 31
0.0
  0
LINE
  5
310
330
A
100
AcDbEntity
  8
1
  6
CONTINUOUS
370
    50
100
AcDbLine
 10
120.4510451968
 20
171.4911847049
 30
0.0
 11
120.4510451968
 21
171.644118059
 31
0.0
  0
LINE
  5
311
330
A
100
AcDbEntity
  8
1
  6
CONTINUOUS
370
    50
100
AcDbLine
 10
120.4510451968
 20
164.644118059
 30
0.0
 11
120.4510451968
 21
171.4911847049
 31
0.0
  0
LINE
  5
312
330
A
100
AcDbEntity
  8
1
  6
CONTINUOUS
370
    50
100
AcDbLine
 10
108.1010451968
 20
185.3741137824
 30
0.0
 11
108.1010451968
 21
145.3741137824
 31
0.0
  0
LINE
  5
313
330
A
100
AcDbEntity
  8
1
  6
CONTINUOUS
370
    50
100
AcDbLine
 10
108.1010451968
 20
145.3741137824
 30
0.0
 11
112.1010451968
 21
145.3741137824
 31
0.0
  0
LINE
  5
314
330
A
100
AcDbEntity
  8
1
  6
CONTINUOUS
370
    50
100
AcDbLine
 10
112.1010451968
 20
145.3741137824
 30
0.0
 11
112.1010451968
 21
185.3741137824
 31
0.0
  0
LINE
  5
315
330
A
100
AcDbEntity
  8
1
  6
CONTINUOUS
370
    50
100
AcDbLine
 10
122.9010451968
 20
145.3741137824
 30
0.0
 11
122.9010451968
 21
185.3741137824
 31
0.0
  0
LINE
  5
316
330
A
100
AcDbEntity
  8
1
  6
CONTINUOUS
370
    50
100
AcDbLine
 10
120.9010451968
 20
145.3741137824
 30
0.0
 11
122.9010451968
 21
145.3741137824
 31
0.0
  0
LINE
  5
317
330
A
100
AcDbEntity
  8
1
  6
CONTINUOUS
370
    50
100
AcDbLine
 10
120.9010451968
 20
185.3741137824
 30
0.0
 11
120.9010451968
 21
145.3741137824
 31
0.0
  0
LINE
  5
318
330
A
100
AcDbEntity
  8
1
  6
CONTINUOUS
370
    50
100
AcDbLine
 10
122.9010451968
 20
185.3741137824
 30
0.0
 11
120.9010451968
 21
185.3741137824
 31
0.0
  0
LINE
  5
319
330
A
100
AcDbEntity
  8
1
  6
CONTINUOUS
370
    50
100
AcDbLine
 10
112.1010451968
 20
185.3741137824
 30
0.0
 11
108.1010451968
 21
185.3741137824
 31
0.0
  0
LINE
  5
31A
330
A
100
AcDbEntity
  8
1
  6
CONTINUOUS
370
    50
100
AcDbLine
 10
124.3510451968
 20
158.3243397828
 30
0.0
 11
122.8313761903
 21
158.760468035
 31
0.0
  0
LINE
  5
31B
330
A
100
AcDbEntity
  8
1
  6
CONTINUOUS
370
    50
100
AcDbLine
 10
121.672790655
 20
154.7234295713
 30
0.0
 11
124.3510451968
 21
153.9548000425
 31
0.0
  0
LINE
  5
31C
330
A
100
AcDbEntity
  8
1
  6
CONTINUOUS
370
    50
100
AcDbLine
 10
106.3010451968
 20
154.4429132509
 30
0.0
 11
116.1035372038
 21
156.7904638587
 31
0.0
  0
LINE
  5
31D
330
A
100
AcDbEntity
  8
1
  6
CONTINUOUS
370
    50
100
AcDbLine
 10
115.0408602281
 20
159.9292818988
 30
0.0
 11
106.3010451968
 21
157.8362265744
 31
0.0
  0
LINE
  5
31E
330
A
100
AcDbEntity
  8
1
  6
CONTINUOUS
370
    50
100
AcDbLine
 10
121.3991467935
 20
157.9207331642
 30
0.0
 11
121.2945098091
 21
157.7534465946
 31
0.0
  0
LINE
  5
31F
330
A
100
AcDbEntity
  8
1
  6
CONTINUOUS
370
    50
100
AcDbLine
 10
120.9038452028
 20
156.3921935889
 30
0.0
 11
120.9038452028
 21
156.1948773583
 31
0.0
  0
LINE
  5
320
330
A
100
AcDbEntity
  8
1
  6
CONTINUOUS
370
    50
100
AcDbLine
 10
122.4196033619
 20
158.4104773252
 30
0.0
 11
114.2807531515
 21
160.7462376139
 31
0.0
  0
LINE
  5
321
330
A
100
AcDbEntity
  8
1
  6
CONTINUOUS
370
    50
100
AcDbLine
 10
116.1014412034
 20
156.7905104182
 30
0.0
 11
121.5092861556
 21
155.2385185323
 31
0.0
  0
LINE
  5
322
330
A
100
AcDbEntity
  8
1
  6
CONTINUOUS
370
    50
100
AcDbLine
 10
113.3704359452
 20
157.574278821
 30
0.0
 11
114.9782971985
 21
157.1128403662
 31
0.0
  0
LINE
  5
323
330
A
100
AcDbEntity
  8
1
  6
CONTINUOUS
370
    50
100
AcDbLine
 10
106.5541990903
 20
188.3667728138
 30
0.0
 11
106.3010451968
 21
188.9096630904
 31
0.0
  0
ARC
  5
324
330
A
100
AcDbEntity
  8
1
  6
CONTINUOUS
370
    50
100
AcDbCircle
 10
106.1010451968
 20
188.1554636829
 30
0.0
 40
0.5
100
AcDbArc
 50
0.0
 51
25.0
  0
ARC
  5
325
330
A
100
AcDbEntity
  8
1
  6
CONTINUOUS
370
    50
100
AcDbCircle
 10
106.1010451968
 20
142.9491137824
 30
0.0
 40
0.5
100
AcDbArc
 50
0.0
 51
66.4218215218
  0
ARC
  5
326
330
A
100
AcDbEntity
  8
1
  6
CONTINUOUS
370
    50
100
AcDbCircle
 10
106.1010451968
 20
187.7991137824
 30
0.0
 40
0.5
100
AcDbArc
 50
293.5781784782001
 51
0.0
  0
LINE
  5
327
330
A
100
AcDbEntity
  8
1
  6
CONTINUOUS
370
    50
100
AcDbLine
 10
114.2730927071
 20
160.748436077
 30
0.0
 11
101.4535771878
 21
164.4274957102
 31
0.0
  0
LINE
  5
328
330
A
100
AcDbEntity
  8
1
  6
CONTINUOUS
370
    50
100
AcDbLine
 10
99.2567092131
 20
161.6247628051
 30
0.0
 11
113.3627755008
 21
157.5764772841
 31
0.0
  0
ARC
  5
329
330
A
100
AcDbEntity
  8
1
  6
CONTINUOUS
370
    50
100
AcDbCircle
 10
38.0510451968
 20
155.8741137824
 30
0.0
 40
1.0
100
AcDbArc
 50
136.778654881
 51
180.0
  0
ARC
  5
32A
330
A
100
AcDbEntity
  8
1
  6
CONTINUOUS
370
    50
100
AcDbCircle
 10
38.0510451968
 20
174.8741137824
 30
0.0
 40
1.0
100
AcDbArc
 50
180.0
 51
223.221345119
  0
ARC
  5
32B
330
A
100
AcDbEntity
  8
1
  6
CONTINUOUS
370
    50
100
AcDbCircle
 10
183.8010451968
 20
155.9391137824
 30
0.0
 40
1.5
100
AcDbArc
 50
0.0
 51
73.0710674448
  0
ARC
  5
32C
330
A
100
AcDbEntity
  8
1
  6
CONTINUOUS
370
    50
100
AcDbCircle
 10
183.8010451968
 20
174.8091137824
 30
0.0
 40
1.5
100
AcDbArc
 50
286.9289325552
 51
0.0
  0
LINE
  5
32D
330
A
100
AcDbEntity
  8
1
  6
CONTINUOUS
370
    50
100
AcDbLine
 10
37.3223316429
 20
156.5589324127
 30
0.0
 11
37.8223316429
 21
156.8476075473
 31
0.0
  0
LINE
  5
32E
330
A
100
AcDbEntity
  8
1
  6
CONTINUOUS
370
    50
100
AcDbLine
 10
37.8223316429
 20
173.9006200175
 30
0.0
 11
37.3223316429
 21
174.1892951521
 31
0.0
  0
LINE
  5
32F
330
A
100
AcDbEntity
  8
1
  6
CONTINUOUS
370
    50
100
AcDbLine
 10
45.5510451968
 20
156.7241137824
 30
0.0
 11
46.4603718708
 21
158.2991137824
 31
0.0
  0
LINE
  5
330
330
A
100
AcDbEntity
  8
1
  6
CONTINUOUS
370
    50
100
AcDbLine
 10
46.4603718708
 20
172.4491137824
 30
0.0
 11
45.5510451968
 21
174.0241137824
 31
0.0
  0
LINE
  5
331
330
A
100
AcDbEntity
  8
1
  6
CONTINUOUS
370
    50
100
AcDbLine
 10
43.2407566285
 20
174.0241137824
 30
0.0
 11
42.9809490074
 21
173.8741137824
 31
0.0
  0
LINE
  5
332
330
A
100
AcDbEntity
  8
1
  6
CONTINUOUS
370
    50
100
AcDbLine
 10
42.9809490074
 20
156.8741137824
 30
0.0
 11
43.2407566285
 21
156.7241137824
 31
0.0
  0
LINE
  5
333
330
A
100
AcDbEntity
  8
1
  6
CONTINUOUS
370
    50
100
AcDbLine
 10
45.5510451968
 20
174.0241137824
 30
0.0
 11
43.2407566285
 21
174.0241137824
 31
0.0
  0
LINE
  5
334
330
A
100
AcDbEntity
  8
1
  6
CONTINUOUS
370
    50
100
AcDbLine
 10
43.2407566285
 20
156.7241137824
 30
0.0
 11
45.5510451968
 21
156.7241137824
 31
0.0
  0
ARC
  5
335
330
A
100
AcDbEntity
  8
1
  6
CONTINUOUS
370
    50
100
AcDbCircle
 10
38.0510451968
 20
155.8741137824
 30
0.0
 40
1.0
100
AcDbArc
 50
90.0
 51
103.221345119
  0
ARC
  5
336
330
A
100
AcDbEntity
  8
1
  6
CONTINUOUS
370
    50
100
AcDbCircle
 10
38.0510451968
 20
174.8741137824
 30
0.0
 40
1.0
100
AcDbArc
 50
256.778654881
 51
270.0
  0
LINE
  5
337
330
A
100
AcDbEntity
  8
1
  6
CONTINUOUS
370
    50
100
AcDbLine
 10
38.0510451968
 20
156.8741137824
 30
0.0
 11
42.9809490074
 21
156.8741137824
 31
0.0
  0
LINE
  5
338
330
A
100
AcDbEntity
  8
1
  6
CONTINUOUS
370
    50
100
AcDbLine
 10
42.9809490074
 20
173.8741137824
 30
0.0
 11
38.0510451968
 21
173.8741137824
 31
0.0
  0
LINE
  5
339
330
A
100
AcDbEntity
  8
1
  6
CONTINUOUS
370
    50
100
AcDbLine
 10
135.8010451968
 20
157.1741137824
 30
0.0
 11
145.1855751468
 21
157.1741137824
 31
0.0
  0
LINE
  5
33A
330
A
100
AcDbEntity
  8
1
  6
CONTINUOUS
370
    50
100
AcDbLine
 10
145.1855751468
 20
173.5741137824
 30
0.0
 11
135.8010451968
 21
173.5741137824
 31
0.0
  0
LINE
  5
33B
330
A
100
AcDbEntity
  8
1
  6
CONTINUOUS
370
    50
100
AcDbLine
 10
145.1855751468
 20
157.1741137824
 30
0.0
 11
145.3010452007
 21
157.3741137824
 31
0.0
  0
LINE
  5
33C
330
A
100
AcDbEntity
  8
1
  6
CONTINUOUS
370
    50
100
AcDbLine
 10
145.3010452007
 20
173.3741137824
 30
0.0
 11
145.1855751468
 21
173.5741137824
 31
0.0
  0
ARC
  5
33D
330
A
100
AcDbEntity
  8
1
  6
CONTINUOUS
370
    50
100
AcDbCircle
 10
135.8010451968
 20
157.6741137824
 30
0.0
 40
0.5
100
AcDbArc
 50
180.0
 51
270.0
  0
ARC
  5
33E
330
A
100
AcDbEntity
  8
1
  6
CONTINUOUS
370
    50
100
AcDbCircle
 10
135.8010451968
 20
173.0741137824
 30
0.0
 40
0.5
100
AcDbArc
 50
90.0
 51
180.0
  0
LINE
  5
33F
330
A
100
AcDbEntity
  8
1
  6
CONTINUOUS
370
    50
100
AcDbLine
 10
145.3010452007
 20
157.3741137824
 30
0.0
 11
184.2378231725
 21
157.3741137824
 31
0.0
  0
LINE
  5
340
330
A
100
AcDbEntity
  8
1
  6
CONTINUOUS
370
    50
100
AcDbLine
 10
184.2378231725
 20
173.3741137824
 30
0.0
 11
145.3010452007
 21
173.3741137824
 31
0.0
  0
LINE
  5
341
330
A
100
AcDbEntity
  8
1
  6
CONTINUOUS
370
    50
100
AcDbLine
 10
71.0410451968
 20
172.4491137824
 30
0.0
 11
46.4603718708
 21
172.4491137824
 31
0.0
  0
LINE
  5
342
330
A
100
AcDbEntity
  8
1
  6
CONTINUOUS
370
    50
100
AcDbLine
 10
46.4603718708
 20
158.2991137824
 30
0.0
 11
71.0410451968
 21
158.2991137824
 31
0.0
  0
LINE
  5
343
330
A
100
AcDbEntity
  8
1
  6
CONTINUOUS
370
    50
100
AcDbLine
 10
82.0510451968
 20
172.4491137824
 30
0.0
 11
71.0510451968
 21
172.4491137824
 31
0.0
  0
LINE
  5
344
330
A
100
AcDbEntity
  8
1
  6
CONTINUOUS
370
    50
100
AcDbLine
 10
71.0510451968
 20
158.2991137824
 30
0.0
 11
82.0510451968
 21
158.2991137824
 31
0.0
  0
LINE
  5
345
330
A
100
AcDbEntity
  8
1
  6
CONTINUOUS
370
    50
100
AcDbLine
 10
116.0510451968
 20
158.3491137824
 30
0.0
 11
116.9315043573
 21
159.8741137824
 31
0.0
  0
LINE
  5
346
330
A
100
AcDbEntity
  8
1
  6
CONTINUOUS
370
    50
100
AcDbLine
 10
116.9315043573
 20
170.8741137824
 30
0.0
 11
116.0510451968
 21
172.3991137824
 31
0.0
  0
LINE
  5
347
330
A
100
AcDbEntity
  8
1
  6
CONTINUOUS
370
    50
100
AcDbLine
 10
116.0510451968
 20
172.3991137824
 30
0.0
 11
82.0692437085
 21
172.3991137824
 31
0.0
  0
LINE
  5
348
330
A
100
AcDbEntity
  8
1
  6
CONTINUOUS
370
    50
100
AcDbLine
 10
82.0692437085
 20
158.3491137824
 30
0.0
 11
116.0510451968
 21
158.3491137824
 31
0.0
  0
LINE
  5
349
330
A
100
AcDbEntity
  8
1
  6
CONTINUOUS
370
    50
100
AcDbLine
 10
116.9315043573
 20
159.8741137824
 30
0.0
 11
135.3010451968
 21
159.8741137824
 31
0.0
  0
LINE
  5
34A
330
A
100
AcDbEntity
  8
1
  6
CONTINUOUS
370
    50
100
AcDbLine
 10
135.3010451968
 20
170.8741137824
 30
0.0
 11
116.9315043573
 21
170.8741137824
 31
0.0
  0
LINE
  5
34B
330
A
100
AcDbEntity
  8
1
  6
CONTINUOUS
370
    50
100
AcDbLine
 10
111.2010451968
 20
190.1741137824
 30
0.0
 11
111.4010451968
 21
189.9741137824
 31
0.0
  0
LINE
  5
34C
330
A
100
AcDbEntity
  8
1
  6
CONTINUOUS
370
    50
100
AcDbLine
 10
121.4010451968
 20
189.9741137824
 30
0.0
 11
121.6010451968
 21
190.1741137824
 31
0.0
  0
ARC
  5
34D
330
A
100
AcDbEntity
  8
1
  6
CONTINUOUS
370
    50
100
AcDbCircle
 10
111.7010451968
 20
185.7741137824
 30
0.0
 40
0.3
100
AcDbArc
 50
180.0
 51
270.0
  0
ARC
  5
34E
330
A
100
AcDbEntity
  8
1
  6
CONTINUOUS
370
    50
100
AcDbCircle
 10
121.1010451968
 20
185.7741137824
 30
0.0
 40
0.3
100
AcDbArc
 50
270.0
 51
0.0
  0
LINE
  5
34F
330
A
100
AcDbEntity
  8
1
  6
CONTINUOUS
370
    50
100
AcDbLine
 10
111.4010451968
 20
189.9741137824
 30
0.0
 11
111.4010451968
 21
185.7741137824
 31
0.0
  0
LINE
  5
350
330
A
100
AcDbEntity
  8
1
  6
CONTINUOUS
370
    50
100
AcDbLine
 10
121.4010451968
 20
185.7741137824
 30
0.0
 11
121.4010451968
 21
189.9741137824
 31
0.0
  0
LINE
  5
351
330
A
100
AcDbEntity
  8
1
  6
CONTINUOUS
370
    50
100
AcDbLine
 10
114.9010451968
 20
185.4741137824
 30
0.0
 11
115.3010451968
 21
185.0741137824
 31
0.0
  0
LINE
  5
352
330
A
100
AcDbEntity
  8
1
  6
CONTINUOUS
370
    50
100
AcDbLine
 10
117.5010451968
 20
185.0741137824
 30
0.0
 11
117.9010451968
 21
185.4741137824
 31
0.0
  0
LINE
  5
353
330
A
100
AcDbEntity
  8
1
  6
CONTINUOUS
370
    50
100
AcDbLine
 10
115.3010451968
 20
179.0741137824
 30
0.0
 11
116.4010451968
 21
178.6737465247
 31
0.0
  0
LINE
  5
354
330
A
100
AcDbEntity
  8
1
  6
CONTINUOUS
370
    50
100
AcDbLine
 10
116.4010451968
 20
178.6737465247
 30
0.0
 11
117.5010451968
 21
179.0741137824
 31
0.0
  0
LINE
  5
355
330
A
100
AcDbEntity
  8
1
  6
CONTINUOUS
370
    50
100
AcDbLine
 10
115.3010451968
 20
181.6641137824
 30
0.0
 11
115.3010451968
 21
179.0741137824
 31
0.0
  0
LINE
  5
356
330
A
100
AcDbEntity
  8
1
  6
CONTINUOUS
370
    50
100
AcDbLine
 10
117.5010451968
 20
179.0741137824
 30
0.0
 11
117.5010451968
 21
181.6641137824
 31
0.0
  0
LINE
  5
357
330
A
100
AcDbEntity
  8
1
  6
CONTINUOUS
370
    50
100
AcDbLine
 10
115.3010451968
 20
185.0741137824
 30
0.0
 11
115.3010451968
 21
181.6741137824
 31
0.0
  0
LINE
  5
358
330
A
100
AcDbEntity
  8
1
  6
CONTINUOUS
370
    50
100
AcDbLine
 10
117.5010451968
 20
181.6741137824
 30
0.0
 11
117.5010451968
 21
185.0741137824
 31
0.0
  0
LINE
  5
359
330
A
100
AcDbEntity
  8
1
  6
CONTINUOUS
370
    50
100
AcDbLine
 10
113.3627755008
 20
173.1717502808
 30
0.0
 11
99.2567092131
 21
169.1234647598
 31
0.0
  0
LINE
  5
35A
330
A
100
AcDbEntity
  8
1
  6
CONTINUOUS
370
    50
100
AcDbLine
 10
101.4536766141
 20
166.3207603889
 30
0.0
 11
114.2730927071
 21
169.9997914879
 31
0.0
  0
LINE
  5
35B
330
A
100
AcDbEntity
  8
1
  6
CONTINUOUS
370
    50
100
AcDbLine
 10
114.9782971985
 20
173.6353871987
 30
0.0
 11
113.3704359452
 21
173.1739487439
 31
0.0
  0
LINE
  5
35C
330
A
100
AcDbEntity
  8
1
  6
CONTINUOUS
370
    50
100
AcDbLine
 10
121.5092861556
 20
175.5097090326
 30
0.0
 11
116.1014412034
 21
173.9577171467
 31
0.0
  0
LINE
  5
35D
330
A
100
AcDbEntity
  8
1
  6
CONTINUOUS
370
    50
100
AcDbLine
 10
114.2807531515
 20
170.001989951
 30
0.0
 11
122.4196033619
 21
172.3377502396
 31
0.0
  0
LINE
  5
35E
330
A
100
AcDbEntity
  8
1
  6
CONTINUOUS
370
    50
100
AcDbLine
 10
106.3010451968
 20
172.9120009905
 30
0.0
 11
115.0408602281
 21
170.818945666
 31
0.0
  0
LINE
  5
35F
330
A
100
AcDbEntity
  8
1
  6
CONTINUOUS
370
    50
100
AcDbLine
 10
116.1035372038
 20
173.9577637062
 30
0.0
 11
106.3010451968
 21
176.3053143139
 31
0.0
  0
LINE
  5
360
330
A
100
AcDbEntity
  8
1
  6
CONTINUOUS
370
    50
100
AcDbLine
 10
124.3510451968
 20
176.7934275223
 30
0.0
 11
121.672790655
 21
176.0247979936
 31
0.0
  0
LINE
  5
361
330
A
100
AcDbEntity
  8
1
  6
CONTINUOUS
370
    50
100
AcDbLine
 10
122.8313761903
 20
171.9877595299
 30
0.0
 11
124.3510451968
 21
172.4238877821
 31
0.0
  0
LINE
  5
362
330
A
100
AcDbEntity
  8
1
  6
CONTINUOUS
370
    50
100
AcDbLine
 10
120.9038452028
 20
174.5533502066
 30
0.0
 11
120.9038452028
 21
174.356033976
 31
0.0
  0
LINE
  5
363
330
A
100
AcDbEntity
  8
1
  6
CONTINUOUS
370
    50
100
AcDbLine
 10
121.2945098091
 20
172.9947809703
 30
0.0
 11
121.3991467935
 21
172.8274944007
 31
0.0
  0
LINE
  5
364
330
A
100
AcDbEntity
  8
1
  6
CONTINUOUS
370
    50
100
AcDbLine
 10
120.4510451968
 20
156.817675405
 30
0.0
 11
124.3510451968
 21
156.817675405
 31
0.0
  0
LINE
  5
365
330
A
100
AcDbEntity
  8
1
  6
CONTINUOUS
370
    50
100
AcDbLine
 10
124.3510451968
 20
163.817675405
 30
0.0
 11
120.4510451968
 21
163.817675405
 31
0.0
  0
LINE
  5
366
330
A
100
AcDbEntity
  8
1
  6
CONTINUOUS
370
    50
100
AcDbLine
 10
120.4510451968
 20
163.817675405
 30
0.0
 11
119.1771493769
 21
160.317675405
 31
0.0
  0
LINE
  5
367
330
A
100
AcDbEntity
  8
1
  6
CONTINUOUS
370
    50
100
AcDbLine
 10
119.1771493769
 20
160.317675405
 30
0.0
 11
120.4510451968
 21
156.817675405
 31
0.0
  0
LINE
  5
368
330
A
100
AcDbEntity
  8
1
  6
CONTINUOUS
370
    50
100
AcDbLine
 10
120.4510451968
 20
164.644118059
 30
0.0
 11
124.3510451968
 21
164.644118059
 31
0.0
  0
LINE
  5
369
330
A
100
AcDbEntity
  8
1
  6
CONTINUOUS
370
    50
100
AcDbLine
 10
124.3510451968
 20
171.644118059
 30
0.0
 11
120.4510451968
 21
171.644118059
 31
0.0
  0
LINE
  5
36A
330
A
100
AcDbEntity
  8
1
  6
CONTINUOUS
370
    50
100
AcDbLine
 10
120.4510451968
 20
171.644118059
 30
0.0
 11
119.1771493769
 21
168.144118059
 31
0.0
  0
LINE
  5
36B
330
A
100
AcDbEntity
  8
1
  6
CONTINUOUS
370
    50
100
AcDbLine
 10
119.1771493769
 20
168.144118059
 30
0.0
 11
120.4510451968
 21
164.644118059
 31
0.0
  0
LINE
  5
36C
330
A
100
AcDbEntity
  8
1
  6
CONTINUOUS
370
    50
100
AcDbLine
 10
106.1010451968
 20
187.2991137824
 30
0.0
 11
106.1010451968
 21
143.4491137824
 31
0.0
  0
LINE
  5
36D
330
A
100
AcDbEntity
  8
1
  6
CONTINUOUS
370
    50
100
AcDbLine
 10
105.8439354734
 20
187.3459598889
 30
0.0
 11
105.8439354734
 21
143.402267676
 31
0.0
  0
LINE
  5
36E
330
A
100
AcDbEntity
  8
1
  6
CONTINUOUS
370
    50
100
AcDbLine
 10
106.0552446043
 20
187.2991137824
 30
0.0
 11
106.0552446043
 21
143.4491137824
 31
0.0
  0
LINE
  5
36F
330
A
100
AcDbEntity
  8
1
  6
CONTINUOUS
370
    50
100
AcDbLine
 10
37.8035290905
 20
177.7537218201
 30
0.0
 11
37.8035290905
 21
152.9945057448
 31
0.0
  0
LINE
  5
370
330
A
100
AcDbEntity
  8
1
  6
CONTINUOUS
370
    50
100
AcDbLine
 10
112.579591921
 20
171.5857708843
 30
0.0
 11
112.5328374823
 21
172.1608585795
 31
0.0
  0
LINE
  5
371
330
A
100
AcDbEntity
  8
1
  6
CONTINUOUS
370
    50
100
AcDbLine
 10
112.5328374823
 20
172.1608585795
 30
0.0
 11
112.600269518
 21
172.6848472093
 31
0.0
  0
LINE
  5
372
330
A
100
AcDbEntity
  8
1
  6
CONTINUOUS
370
    50
100
AcDbLine
 10
112.600269518
 20
172.6848472093
 30
0.0
 11
112.7758963958
 21
173.1111780843
 31
0.0
  0
LINE
  5
373
330
A
100
AcDbEntity
  8
1
  6
CONTINUOUS
370
    50
100
AcDbLine
 10
112.7758963958
 20
173.1111780843
 30
0.0
 11
113.0441128968
 21
173.4019698355
 31
0.0
  0
LINE
  5
374
330
A
100
AcDbEntity
  8
1
  6
CONTINUOUS
370
    50
100
AcDbLine
 10
113.0441128968
 20
173.4019698355
 30
0.0
 11
113.381086808
 21
173.5313843397
 31
0.0
  0
LINE
  5
375
330
A
100
AcDbEntity
  8
1
  6
CONTINUOUS
370
    50
100
AcDbLine
 10
113.381086808
 20
173.5313843397
 30
0.0
 11
113.7568765185
 21
173.4879225501
 31
0.0
  0
LINE
  5
376
330
A
100
AcDbEntity
  8
1
  6
CONTINUOUS
370
    50
100
AcDbLine
 10
113.7568765185
 20
173.4879225501
 30
0.0
 11
114.1380914634
 21
173.2754462376
 31
0.0
  0
LINE
  5
377
330
A
100
AcDbEntity
  8
1
  6
CONTINUOUS
370
    50
100
AcDbLine
 10
114.1380914634
 20
173.2754462376
 30
0.0
 11
114.4908590219
 21
172.9128348549
 31
0.0
  0
LINE
  5
378
330
A
100
AcDbEntity
  8
1
  6
CONTINUOUS
370
    50
100
AcDbLine
 10
114.4908590219
 20
172.9128348549
 30
0.0
 11
114.7838342484
 21
172.4323080147
 31
0.0
  0
LINE
  5
379
330
A
100
AcDbEntity
  8
1
  6
CONTINUOUS
370
    50
100
AcDbLine
 10
114.7838342484
 20
172.4323080147
 30
0.0
 11
114.9909850083
 21
171.8765626355
 31
0.0
  0
LINE
  5
37A
330
A
100
AcDbEntity
  8
1
  6
CONTINUOUS
370
    50
100
AcDbLine
 10
114.9909850083
 20
171.8765626355
 30
0.0
 11
115.0939050474
 21
171.2949791331
 31
0.0
  0
LINE
  5
37B
330
A
100
AcDbEntity
  8
1
  6
CONTINUOUS
370
    50
100
AcDbLine
 10
115.0939050474
 20
171.2949791331
 30
0.0
 11
115.0834494688
 21
170.7392337539
 31
0.0
  0
LINE
  5
37C
330
A
100
AcDbEntity
  8
1
  6
CONTINUOUS
370
    50
100
AcDbLine
 10
115.0834494688
 20
170.7392337539
 30
0.0
 11
114.9605472963
 21
170.2587069137
 31
0.0
  0
LINE
  5
37D
330
A
100
AcDbEntity
  8
1
  6
CONTINUOUS
370
    50
100
AcDbLine
 10
114.9605472963
 20
170.2587069137
 30
0.0
 11
114.7361189274
 21
169.8960955311
 31
0.0
  0
LINE
  5
37E
330
A
100
AcDbEntity
  8
1
  6
CONTINUOUS
370
    50
100
AcDbLine
 10
114.7361189274
 20
169.8960955311
 30
0.0
 11
114.4301058076
 21
169.6836192185
 31
0.0
  0
LINE
  5
37F
330
A
100
AcDbEntity
  8
1
  6
CONTINUOUS
370
    50
100
AcDbLine
 10
114.4301058076
 20
169.6836192185
 30
0.0
 11
114.0696985454
 21
169.640157429
 31
0.0
  0
LINE
  5
380
330
A
100
AcDbEntity
  8
1
  6
CONTINUOUS
370
    50
100
AcDbLine
 10
114.0696985454
 20
169.640157429
 30
0.0
 11
113.6869209077
 21
169.7695719331
 31
0.0
  0
LINE
  5
381
330
A
100
AcDbEntity
  8
1
  6
CONTINUOUS
370
    50
100
AcDbLine
 10
113.6869209077
 20
169.7695719331
 30
0.0
 11
113.3157843675
 21
170.0603636843
 31
0.0
  0
LINE
  5
382
330
A
100
AcDbEntity
  8
1
  6
CONTINUOUS
370
    50
100
AcDbLine
 10
113.3157843675
 20
170.0603636843
 30
0.0
 11
112.989266035
 21
170.4866945594
 31
0.0
  0
LINE
  5
383
330
A
100
AcDbEntity
  8
1
  6
CONTINUOUS
370
    50
100
AcDbLine
 10
112.989266035
 20
170.4866945594
 30
0.0
 11
112.736378497
 21
171.0106831891
 31
0.0
  0
LINE
  5
384
330
A
100
AcDbEntity
  8
1
  6
CONTINUOUS
370
    50
100
AcDbLine
 10
112.736378497
 20
171.0106831891
 30
0.0
 11
112.579591921
 21
171.5857708843
 31
0.0
  0
LINE
  5
385
330
A
100
AcDbEntity
  8
1
  6
CONTINUOUS
370
    50
100
AcDbLine
 10
120.75379136
 20
175.0494112847
 30
0.0
 11
120.6801073547
 21
174.5296831611
 31
0.0
  0
LINE
  5
386
330
A
100
AcDbEntity
  8
1
  6
CONTINUOUS
370
    50
100
AcDbLine
 10
120.6801073547
 20
174.5296831611
 30
0.0
 11
120.720542364
 21
173.9561134076
 31
0.0
  0
LINE
  5
387
330
A
100
AcDbEntity
  8
1
  6
CONTINUOUS
370
    50
100
AcDbLine
 10
120.720542364
 20
173.9561134076
 30
0.0
 11
120.8715035598
 21
173.3796662139
 31
0.0
  0
LINE
  5
388
330
A
100
AcDbEntity
  8
1
  6
CONTINUOUS
370
    50
100
AcDbLine
 10
120.8715035598
 20
173.3796662139
 30
0.0
 11
121.1195773774
 21
172.8515614428
 31
0.0
  0
LINE
  5
389
330
A
100
AcDbEntity
  8
1
  6
CONTINUOUS
370
    50
100
AcDbLine
 10
121.1195773774
 20
172.8515614428
 30
0.0
 11
121.4427213695
 21
172.4187235209
 31
0.0
  0
LINE
  5
38A
330
A
100
AcDbEntity
  8
1
  6
CONTINUOUS
370
    50
100
AcDbLine
 10
121.4427213695
 20
172.4187235209
 30
0.0
 11
121.8122227743
 21
172.1196119968
 31
0.0
  0
LINE
  5
38B
330
A
100
AcDbEntity
  8
1
  6
CONTINUOUS
370
    50
100
AcDbLine
 10
121.8122227743
 20
172.1196119968
 30
0.0
 11
122.1952497705
 21
171.9808042423
 31
0.0
  0
LINE
  5
38C
330
A
100
AcDbEntity
  8
1
  6
CONTINUOUS
370
    50
100
AcDbLine
 10
122.1952497705
 20
171.9808042423
 30
0.0
 11
122.5577687284
 21
172.0146339354
 31
0.0
  0
LINE
  5
38D
330
A
100
AcDbEntity
  8
1
  6
CONTINUOUS
370
    50
100
AcDbLine
 10
122.5577687284
 20
172.0146339354
 30
0.0
 11
122.8675682479
 21
172.2180951595
 31
0.0
  0
LINE
  5
38E
330
A
100
AcDbEntity
  8
1
  6
CONTINUOUS
370
    50
100
AcDbLine
 10
122.8675682479
 20
172.2180951595
 30
0.0
 11
123.0971212821
 21
172.5731094918
 31
0.0
  0
LINE
  5
38F
330
A
100
AcDbEntity
  8
1
  6
CONTINUOUS
370
    50
100
AcDbLine
 10
123.0971212821
 20
172.5731094918
 30
0.0
 11
123.2260310365
 21
173.0481323511
 31
0.0
  0
LINE
  5
390
330
A
100
AcDbEntity
  8
1
  6
CONTINUOUS
370
    50
100
AcDbLine
 10
123.2260310365
 20
173.0481323511
 30
0.0
 11
123.2428433138
 21
173.6009558716
 31
0.0
  0
LINE
  5
391
330
A
100
AcDbEntity
  8
1
  6
CONTINUOUS
370
    50
100
AcDbLine
 10
123.2428433138
 20
173.6009558716
 30
0.0
 11
123.1460642693
 21
174.1824592576
 31
0.0
  0
LINE
  5
392
330
A
100
AcDbEntity
  8
1
  6
CONTINUOUS
370
    50
100
AcDbLine
 10
123.1460642693
 20
174.1824592576
 30
0.0
 11
122.9442931458
 21
174.7409733813
 31
0.0
  0
LINE
  5
393
330
A
100
AcDbEntity
  8
1
  6
CONTINUOUS
370
    50
100
AcDbLine
 10
122.9442931458
 20
174.7409733813
 30
0.0
 11
122.6554581932
 21
175.2268718118
 31
0.0
  0
LINE
  5
394
330
A
100
AcDbEntity
  8
1
  6
CONTINUOUS
370
    50
100
AcDbLine
 10
122.6554581932
 20
175.2268718118
 30
0.0
 11
122.3052236644
 21
175.5969803413
 31
0.0
  0
LINE
  5
395
330
A
100
AcDbEntity
  8
1
  6
CONTINUOUS
370
    50
100
AcDbLine
 10
122.3052236644
 20
175.5969803413
 30
0.0
 11
121.9247094344
 21
175.8184132026
 31
0.0
  0
LINE
  5
396
330
A
100
AcDbEntity
  8
1
  6
CONTINUOUS
370
    50
100
AcDbLine
 10
121.9247094344
 20
175.8184132026
 30
0.0
 11
121.5477258623
 21
175.8714951144
 31
0.0
  0
LINE
  5
397
330
A
100
AcDbEntity
  8
1
  6
CONTINUOUS
370
    50
100
AcDbLine
 10
121.5477258623
 20
175.8714951144
 30
0.0
 11
121.2077695929
 21
175.7515095159
 31
0.0
  0
LINE
  5
398
330
A
100
AcDbEntity
  8
1
  6
CONTINUOUS
370
    50
100
AcDbLine
 10
121.2077695929
 20
175.7515095159
 30
0.0
 11
120.9350472327
 21
175.4691176539
 31
0.0
  0
LINE
  5
399
330
A
100
AcDbEntity
  8
1
  6
CONTINUOUS
370
    50
100
AcDbLine
 10
120.9350472327
 20
175.4691176539
 30
0.0
 11
120.75379136
 21
175.0494112847
 31
0.0
  0
LINE
  5
39A
330
A
100
AcDbEntity
  8
1
  6
CONTINUOUS
370
    50
100
AcDbLine
 10
115.0639367313
 20
171.5879693474
 30
0.0
 11
115.11069117
 21
171.0128816522
 31
0.0
  0
LINE
  5
39B
330
A
100
AcDbEntity
  8
1
  6
CONTINUOUS
370
    50
100
AcDbLine
 10
115.11069117
 20
171.0128816522
 30
0.0
 11
115.0432591343
 21
170.4888930225
 31
0.0
  0
LINE
  5
39C
330
A
100
AcDbEntity
  8
1
  6
CONTINUOUS
370
    50
100
AcDbLine
 10
115.0432591343
 20
170.4888930225
 30
0.0
 11
114.8676322565
 21
170.0625621474
 31
0.0
  0
LINE
  5
39D
330
A
100
AcDbEntity
  8
1
  6
CONTINUOUS
370
    50
100
AcDbLine
 10
114.8676322565
 20
170.0625621474
 30
0.0
 11
114.5994157555
 21
169.7717703962
 31
0.0
  0
LINE
  5
39E
330
A
100
AcDbEntity
  8
1
  6
CONTINUOUS
370
    50
100
AcDbLine
 10
114.5994157555
 20
169.7717703962
 30
0.0
 11
114.2624418443
 21
169.6423558921
 31
0.0
  0
LINE
  5
39F
330
A
100
AcDbEntity
  8
1
  6
CONTINUOUS
370
    50
100
AcDbLine
 10
114.2624418443
 20
169.6423558921
 30
0.0
 11
113.8866521338
 21
169.6858176816
 31
0.0
  0
LINE
  5
3A0
330
A
100
AcDbEntity
  8
1
  6
CONTINUOUS
370
    50
100
AcDbLine
 10
113.8866521338
 20
169.6858176816
 30
0.0
 11
113.5054371889
 21
169.8982939942
 31
0.0
  0
LINE
  5
3A1
330
A
100
AcDbEntity
  8
1
  6
CONTINUOUS
370
    50
100
AcDbLine
 10
113.5054371889
 20
169.8982939942
 30
0.0
 11
113.1526696304
 21
170.2609053768
 31
0.0
  0
LINE
  5
3A2
330
A
100
AcDbEntity
  8
1
  6
CONTINUOUS
370
    50
100
AcDbLine
 10
113.1526696304
 20
170.2609053768
 30
0.0
 11
112.8596944039
 21
170.741432217
 31
0.0
  0
LINE
  5
3A3
330
A
100
AcDbEntity
  8
1
  6
CONTINUOUS
370
    50
100
AcDbLine
 10
112.8596944039
 20
170.741432217
 30
0.0
 11
112.652543644
 21
171.2971775962
 31
0.0
  0
LINE
  5
3A4
330
A
100
AcDbEntity
  8
1
  6
CONTINUOUS
370
    50
100
AcDbLine
 10
112.652543644
 20
171.2971775962
 30
0.0
 11
112.5496236049
 21
171.8787610986
 31
0.0
  0
LINE
  5
3A5
330
A
100
AcDbEntity
  8
1
  6
CONTINUOUS
370
    50
100
AcDbLine
 10
112.5496236049
 20
171.8787610986
 30
0.0
 11
112.5600791835
 21
172.4345064778
 31
0.0
  0
LINE
  5
3A6
330
A
100
AcDbEntity
  8
1
  6
CONTINUOUS
370
    50
100
AcDbLine
 10
112.5600791835
 20
172.4345064778
 30
0.0
 11
112.682981356
 21
172.915033318
 31
0.0
  0
LINE
  5
3A7
330
A
100
AcDbEntity
  8
1
  6
CONTINUOUS
370
    50
100
AcDbLine
 10
112.682981356
 20
172.915033318
 30
0.0
 11
112.9074097249
 21
173.2776447007
 31
0.0
  0
LINE
  5
3A8
330
A
100
AcDbEntity
  8
1
  6
CONTINUOUS
370
    50
100
AcDbLine
 10
112.9074097249
 20
173.2776447007
 30
0.0
 11
113.2134228447
 21
173.4901210132
 31
0.0
  0
LINE
  5
3A9
330
A
100
AcDbEntity
  8
1
  6
CONTINUOUS
370
    50
100
AcDbLine
 10
113.2134228447
 20
173.4901210132
 30
0.0
 11
113.5738301069
 21
173.5335828028
 31
0.0
  0
LINE
  5
3AA
330
A
100
AcDbEntity
  8
1
  6
CONTINUOUS
370
    50
100
AcDbLine
 10
113.5738301069
 20
173.5335828028
 30
0.0
 11
113.9566077445
 21
173.4041682986
 31
0.0
  0
LINE
  5
3AB
330
A
100
AcDbEntity
  8
1
  6
CONTINUOUS
370
    50
100
AcDbLine
 10
113.9566077445
 20
173.4041682986
 30
0.0
 11
114.3277442848
 21
173.1133765474
 31
0.0
  0
LINE
  5
3AC
330
A
100
AcDbEntity
  8
1
  6
CONTINUOUS
370
    50
100
AcDbLine
 10
114.3277442848
 20
173.1133765474
 30
0.0
 11
114.6542626173
 21
172.6870456724
 31
0.0
  0
LINE
  5
3AD
330
A
100
AcDbEntity
  8
1
  6
CONTINUOUS
370
    50
100
AcDbLine
 10
114.6542626173
 20
172.6870456724
 30
0.0
 11
114.9071501553
 21
172.1630570426
 31
0.0
  0
LINE
  5
3AE
330
A
100
AcDbEntity
  8
1
  6
CONTINUOUS
370
    50
100
AcDbLine
 10
114.9071501553
 20
172.1630570426
 30
0.0
 11
115.0639367313
 21
171.5879693474
 31
0.0
  0
LINE
  5
3AF
330
A
100
AcDbEntity
  8
1
  6
CONTINUOUS
370
    50
100
AcDbLine
 10
112.579591921
 20
159.1624566805
 30
0.0
 11
112.5328374823
 21
158.5873689853
 31
0.0
  0
LINE
  5
3B0
330
A
100
AcDbEntity
  8
1
  6
CONTINUOUS
370
    50
100
AcDbLine
 10
112.5328374823
 20
158.5873689853
 30
0.0
 11
112.600269518
 21
158.0633803556
 31
0.0
  0
LINE
  5
3B1
330
A
100
AcDbEntity
  8
1
  6
CONTINUOUS
370
    50
100
AcDbLine
 10
112.600269518
 20
158.0633803556
 30
0.0
 11
112.7758963958
 21
157.6370494805
 31
0.0
  0
LINE
  5
3B2
330
A
100
AcDbEntity
  8
1
  6
CONTINUOUS
370
    50
100
AcDbLine
 10
112.7758963958
 20
157.6370494805
 30
0.0
 11
113.0441128968
 21
157.3462577293
 31
0.0
  0
LINE
  5
3B3
330
A
100
AcDbEntity
  8
1
  6
CONTINUOUS
370
    50
100
AcDbLine
 10
113.0441128968
 20
157.3462577293
 30
0.0
 11
113.381086808
 21
157.2168432252
 31
0.0
  0
LINE
  5
3B4
330
A
100
AcDbEntity
  8
1
  6
CONTINUOUS
370
    50
100
AcDbLine
 10
113.381086808
 20
157.2168432252
 30
0.0
 11
113.7568765185
 21
157.2603050148
 31
0.0
  0
LINE
  5
3B5
330
A
100
AcDbEntity
  8
1
  6
CONTINUOUS
370
    50
100
AcDbLine
 10
113.7568765185
 20
157.2603050148
 30
0.0
 11
114.1380914634
 21
157.4727813273
 31
0.0
  0
LINE
  5
3B6
330
A
100
AcDbEntity
  8
1
  6
CONTINUOUS
370
    50
100
AcDbLine
 10
114.1380914634
 20
157.4727813273
 30
0.0
 11
114.4908590219
 21
157.83539271
 31
0.0
  0
LINE
  5
3B7
330
A
100
AcDbEntity
  8
1
  6
CONTINUOUS
370
    50
100
AcDbLine
 10
114.4908590219
 20
157.83539271
 30
0.0
 11
114.7838342484
 21
158.3159195502
 31
0.0
  0
LINE
  5
3B8
330
A
100
AcDbEntity
  8
1
  6
CONTINUOUS
370
    50
100
AcDbLine
 10
114.7838342484
 20
158.3159195502
 30
0.0
 11
114.9909850083
 21
158.8716649293
 31
0.0
  0
LINE
  5
3B9
330
A
100
AcDbEntity
  8
1
  6
CONTINUOUS
370
    50
100
AcDbLine
 10
114.9909850083
 20
158.8716649293
 30
0.0
 11
115.0939050474
 21
159.4532484317
 31
0.0
  0
LINE
  5
3BA
330
A
100
AcDbEntity
  8
1
  6
CONTINUOUS
370
    50
100
AcDbLine
 10
115.0939050474
 20
159.4532484317
 30
0.0
 11
115.0834494688
 21
160.0089938109
 31
0.0
  0
LINE
  5
3BB
330
A
100
AcDbEntity
  8
1
  6
CONTINUOUS
370
    50
100
AcDbLine
 10
115.0834494688
 20
160.0089938109
 30
0.0
 11
114.9605472963
 21
160.4895206511
 31
0.0
  0
LINE
  5
3BC
330
A
100
AcDbEntity
  8
1
  6
CONTINUOUS
370
    50
100
AcDbLine
 10
114.9605472963
 20
160.4895206511
 30
0.0
 11
114.7361189274
 21
160.8521320338
 31
0.0
  0
LINE
  5
3BD
330
A
100
AcDbEntity
  8
1
  6
CONTINUOUS
370
    50
100
AcDbLine
 10
114.7361189274
 20
160.8521320338
 30
0.0
 11
114.4301058076
 21
161.0646083463
 31
0.0
  0
LINE
  5
3BE
330
A
100
AcDbEntity
  8
1
  6
CONTINUOUS
370
    50
100
AcDbLine
 10
114.4301058076
 20
161.0646083463
 30
0.0
 11
114.0696985454
 21
161.1080701359
 31
0.0
  0
LINE
  5
3BF
330
A
100
AcDbEntity
  8
1
  6
CONTINUOUS
370
    50
100
AcDbLine
 10
114.0696985454
 20
161.1080701359
 30
0.0
 11
113.6869209077
 21
160.9786556318
 31
0.0
  0
LINE
  5
3C0
330
A
100
AcDbEntity
  8
1
  6
CONTINUOUS
370
    50
100
AcDbLine
 10
113.6869209077
 20
160.9786556318
 30
0.0
 11
113.3157843675
 21
160.6878638806
 31
0.0
  0
LINE
  5
3C1
330
A
100
AcDbEntity
  8
1
  6
CONTINUOUS
370
    50
100
AcDbLine
 10
113.3157843675
 20
160.6878638806
 30
0.0
 11
112.989266035
 21
160.2615330055
 31
0.0
  0
LINE
  5
3C2
330
A
100
AcDbEntity
  8
1
  6
CONTINUOUS
370
    50
100
AcDbLine
 10
112.989266035
 20
160.2615330055
 30
0.0
 11
112.736378497
 21
159.7375443757
 31
0.0
  0
LINE
  5
3C3
330
A
100
AcDbEntity
  8
1
  6
CONTINUOUS
370
    50
100
AcDbLine
 10
112.736378497
 20
159.7375443757
 30
0.0
 11
112.579591921
 21
159.1624566805
 31
0.0
  0
LINE
  5
3C4
330
A
100
AcDbEntity
  8
1
  6
CONTINUOUS
370
    50
100
AcDbLine
 10
120.75379136
 20
155.6988162801
 30
0.0
 11
120.6801073547
 21
156.2185444038
 31
0.0
  0
LINE
  5
3C5
330
A
100
AcDbEntity
  8
1
  6
CONTINUOUS
370
    50
100
AcDbLine
 10
120.6801073547
 20
156.2185444038
 30
0.0
 11
120.720542364
 21
156.7921141573
 31
0.0
  0
LINE
  5
3C6
330
A
100
AcDbEntity
  8
1
  6
CONTINUOUS
370
    50
100
AcDbLine
 10
120.720542364
 20
156.7921141573
 30
0.0
 11
120.8715035598
 21
157.368561351
 31
0.0
  0
LINE
  5
3C7
330
A
100
AcDbEntity
  8
1
  6
CONTINUOUS
370
    50
100
AcDbLine
 10
120.8715035598
 20
157.368561351
 30
0.0
 11
121.1195773774
 21
157.8966661221
 31
0.0
  0
LINE
  5
3C8
330
A
100
AcDbEntity
  8
1
  6
CONTINUOUS
370
    50
100
AcDbLine
 10
121.1195773774
 20
157.8966661221
 30
0.0
 11
121.4427213695
 21
158.329504044
 31
0.0
  0
LINE
  5
3C9
330
A
100
AcDbEntity
  8
1
  6
CONTINUOUS
370
    50
100
AcDbLine
 10
121.4427213695
 20
158.329504044
 30
0.0
 11
121.8122227743
 21
158.628615568
 31
0.0
  0
LINE
  5
3CA
330
A
100
AcDbEntity
  8
1
  6
CONTINUOUS
370
    50
100
AcDbLine
 10
121.8122227743
 20
158.628615568
 30
0.0
 11
122.1952497705
 21
158.7674233225
 31
0.0
  0
LINE
  5
3CB
330
A
100
AcDbEntity
  8
1
  6
CONTINUOUS
370
    50
100
AcDbLine
 10
122.1952497705
 20
158.7674233225
 30
0.0
 11
122.5577687284
 21
158.7335936294
 31
0.0
  0
LINE
  5
3CC
330
A
100
AcDbEntity
  8
1
  6
CONTINUOUS
370
    50
100
AcDbLine
 10
122.5577687284
 20
158.7335936294
 30
0.0
 11
122.8675682479
 21
158.5301324054
 31
0.0
  0
LINE
  5
3CD
330
A
100
AcDbEntity
  8
1
  6
CONTINUOUS
370
    50
100
AcDbLine
 10
122.8675682479
 20
158.5301324054
 30
0.0
 11
123.0971212821
 21
158.1751180731
 31
0.0
  0
LINE
  5
3CE
330
A
100
AcDbEntity
  8
1
  6
CONTINUOUS
370
    50
100
AcDbLine
 10
123.0971212821
 20
158.1751180731
 30
0.0
 11
123.2260310365
 21
157.7000952138
 31
0.0
  0
LINE
  5
3CF
330
A
100
AcDbEntity
  8
1
  6
CONTINUOUS
370
    50
100
AcDbLine
 10
123.2260310365
 20
157.7000952138
 30
0.0
 11
123.2428433138
 21
157.1472716933
 31
0.0
  0
LINE
  5
3D0
330
A
100
AcDbEntity
  8
1
  6
CONTINUOUS
370
    50
100
AcDbLine
 10
123.2428433138
 20
157.1472716933
 30
0.0
 11
123.1460642693
 21
156.5657683073
 31
0.0
  0
LINE
  5
3D1
330
A
100
AcDbEntity
  8
1
  6
CONTINUOUS
370
    50
100
AcDbLine
 10
123.1460642693
 20
156.5657683073
 30
0.0
 11
122.9442931458
 21
156.0072541836
 31
0.0
  0
LINE
  5
3D2
330
A
100
AcDbEntity
  8
1
  6
CONTINUOUS
370
    50
100
AcDbLine
 10
122.9442931458
 20
156.0072541836
 30
0.0
 11
122.6554581932
 21
155.5213557531
 31
0.0
  0
LINE
  5
3D3
330
A
100
AcDbEntity
  8
1
  6
CONTINUOUS
370
    50
100
AcDbLine
 10
122.6554581932
 20
155.5213557531
 30
0.0
 11
122.3052236644
 21
155.1512472236
 31
0.0
  0
LINE
  5
3D4
330
A
100
AcDbEntity
  8
1
  6
CONTINUOUS
370
    50
100
AcDbLine
 10
122.3052236644
 20
155.1512472236
 30
0.0
 11
121.9247094344
 21
154.9298143622
 31
0.0
  0
LINE
  5
3D5
330
A
100
AcDbEntity
  8
1
  6
CONTINUOUS
370
    50
100
AcDbLine
 10
121.9247094344
 20
154.9298143622
 30
0.0
 11
121.5477258623
 21
154.8767324504
 31
0.0
  0
LINE
  5
3D6
330
A
100
AcDbEntity
  8
1
  6
CONTINUOUS
370
    50
100
AcDbLine
 10
121.5477258623
 20
154.8767324504
 30
0.0
 11
121.2077695929
 21
154.996718049
 31
0.0
  0
LINE
  5
3D7
330
A
100
AcDbEntity
  8
1
  6
CONTINUOUS
370
    50
100
AcDbLine
 10
121.2077695929
 20
154.996718049
 30
0.0
 11
120.9350472327
 21
155.279109911
 31
0.0
  0
LINE
  5
3D8
330
A
100
AcDbEntity
  8
1
  6
CONTINUOUS
370
    50
100
AcDbLine
 10
120.9350472327
 20
155.279109911
 30
0.0
 11
120.75379136
 21
155.6988162801
 31
0.0
  0
LINE
  5
3D9
330
A
100
AcDbEntity
  8
1
  6
CONTINUOUS
370
    50
100
AcDbLine
 10
112.5872523654
 20
159.1602582174
 30
0.0
 11
112.5404979267
 21
158.5851705222
 31
0.0
  0
LINE
  5
3DA
330
A
100
AcDbEntity
  8
1
  6
CONTINUOUS
370
    50
100
AcDbLine
 10
112.5404979267
 20
158.5851705222
 30
0.0
 11
112.6079299624
 21
158.0611818925
 31
0.0
  0
LINE
  5
3DB
330
A
100
AcDbEntity
  8
1
  6
CONTINUOUS
370
    50
100
AcDbLine
 10
112.6079299624
 20
158.0611818925
 30
0.0
 11
112.7835568402
 21
157.6348510174
 31
0.0
  0
LINE
  5
3DC
330
A
100
AcDbEntity
  8
1
  6
CONTINUOUS
370
    50
100
AcDbLine
 10
112.7835568402
 20
157.6348510174
 30
0.0
 11
113.0517733413
 21
157.3440592662
 31
0.0
  0
LINE
  5
3DD
330
A
100
AcDbEntity
  8
1
  6
CONTINUOUS
370
    50
100
AcDbLine
 10
113.0517733413
 20
157.3440592662
 30
0.0
 11
113.3887472524
 21
157.2146447621
 31
0.0
  0
LINE
  5
3DE
330
A
100
AcDbEntity
  8
1
  6
CONTINUOUS
370
    50
100
AcDbLine
 10
113.3887472524
 20
157.2146447621
 30
0.0
 11
113.7645369629
 21
157.2581065517
 31
0.0
  0
LINE
  5
3DF
330
A
100
AcDbEntity
  8
1
  6
CONTINUOUS
370
    50
100
AcDbLine
 10
113.7645369629
 20
157.2581065517
 30
0.0
 11
114.1457519078
 21
157.4705828642
 31
0.0
  0
LINE
  5
3E0
330
A
100
AcDbEntity
  8
1
  6
CONTINUOUS
370
    50
100
AcDbLine
 10
114.1457519078
 20
157.4705828642
 30
0.0
 11
114.4985194664
 21
157.8331942469
 31
0.0
  0
LINE
  5
3E1
330
A
100
AcDbEntity
  8
1
  6
CONTINUOUS
370
    50
100
AcDbLine
 10
114.4985194664
 20
157.8331942469
 30
0.0
 11
114.7914946928
 21
158.313721087
 31
0.0
  0
LINE
  5
3E2
330
A
100
AcDbEntity
  8
1
  6
CONTINUOUS
370
    50
100
AcDbLine
 10
114.7914946928
 20
158.313721087
 30
0.0
 11
114.9986454527
 21
158.8694664662
 31
0.0
  0
LINE
  5
3E3
330
A
100
AcDbEntity
  8
1
  6
CONTINUOUS
370
    50
100
AcDbLine
 10
114.9986454527
 20
158.8694664662
 30
0.0
 11
115.1015654919
 21
159.4510499686
 31
0.0
  0
LINE
  5
3E4
330
A
100
AcDbEntity
  8
1
  6
CONTINUOUS
370
    50
100
AcDbLine
 10
115.1015654919
 20
159.4510499686
 30
0.0
 11
115.0911099132
 21
160.0067953478
 31
0.0
  0
LINE
  5
3E5
330
A
100
AcDbEntity
  8
1
  6
CONTINUOUS
370
    50
100
AcDbLine
 10
115.0911099132
 20
160.0067953478
 30
0.0
 11
114.9682077407
 21
160.487322188
 31
0.0
  0
LINE
  5
3E6
330
A
100
AcDbEntity
  8
1
  6
CONTINUOUS
370
    50
100
AcDbLine
 10
114.9682077407
 20
160.487322188
 30
0.0
 11
114.7437793718
 21
160.8499335707
 31
0.0
  0
LINE
  5
3E7
330
A
100
AcDbEntity
  8
1
  6
CONTINUOUS
370
    50
100
AcDbLine
 10
114.7437793718
 20
160.8499335707
 30
0.0
 11
114.437766252
 21
161.0624098832
 31
0.0
  0
LINE
  5
3E8
330
A
100
AcDbEntity
  8
1
  6
CONTINUOUS
370
    50
100
AcDbLine
 10
114.437766252
 20
161.0624098832
 30
0.0
 11
114.0773589898
 21
161.1058716728
 31
0.0
  0
LINE
  5
3E9
330
A
100
AcDbEntity
  8
1
  6
CONTINUOUS
370
    50
100
AcDbLine
 10
114.0773589898
 20
161.1058716728
 30
0.0
 11
113.6945813522
 21
160.9764571687
 31
0.0
  0
LINE
  5
3EA
330
A
100
AcDbEntity
  8
1
  6
CONTINUOUS
370
    50
100
AcDbLine
 10
113.6945813522
 20
160.9764571687
 30
0.0
 11
113.323444812
 21
160.6856654175
 31
0.0
  0
LINE
  5
3EB
330
A
100
AcDbEntity
  8
1
  6
CONTINUOUS
370
    50
100
AcDbLine
 10
113.323444812
 20
160.6856654175
 30
0.0
 11
112.9969264795
 21
160.2593345424
 31
0.0
  0
LINE
  5
3EC
330
A
100
AcDbEntity
  8
1
  6
CONTINUOUS
370
    50
100
AcDbLine
 10
112.9969264795
 20
160.2593345424
 30
0.0
 11
112.7440389414
 21
159.7353459126
 31
0.0
  0
LINE
  5
3ED
330
A
100
AcDbEntity
  8
1
  6
CONTINUOUS
370
    50
100
AcDbLine
 10
112.7440389414
 20
159.7353459126
 30
0.0
 11
112.5872523654
 21
159.1602582174
 31
0.0
  0
LINE
  5
3EE
330
A
100
AcDbEntity
  8
1
  6
CONTINUOUS
370
    50
100
AcDbLine
 10
70.9610451968
 20
173.3741137824
 30
0.0
 11
45.9263228718
 21
173.3741137824
 31
0.0
  0
LINE
  5
3EF
330
A
100
AcDbEntity
  8
1
  6
CONTINUOUS
370
    50
100
AcDbLine
 10
45.9263228718
 20
157.3741137824
 30
0.0
 11
70.9610451968
 21
157.3741137824
 31
0.0
  0
LINE
  5
3F0
330
A
100
AcDbEntity
  8
1
  6
CONTINUOUS
370
    50
100
AcDbLine
 10
70.9610451968
 20
173.3741137824
 30
0.0
 11
70.9610451968
 21
173.3517441599
 31
0.0
  0
LINE
  5
3F1
330
A
100
AcDbEntity
  8
1
  6
CONTINUOUS
370
    50
100
AcDbLine
 10
70.9610451968
 20
173.3517441599
 30
0.0
 11
70.9610451968
 21
157.3741137824
 31
0.0
  0
LINE
  5
3F2
330
A
100
AcDbEntity
  8
1
  6
CONTINUOUS
370
    50
100
AcDbLine
 10
135.3010451968
 20
171.3741137824
 30
0.0
 11
116.9315043573
 21
171.3741137824
 31
0.0
  0
LINE
  5
3F3
330
A
100
AcDbEntity
  8
1
  6
CONTINUOUS
370
    50
100
AcDbLine
 10
116.9315043573
 20
159.3741137824
 30
0.0
 11
135.3010451968
 21
159.3741137824
 31
0.0
  0
ENDSEC
  0
SECTION
  2
OBJECTS
  0
DICTIONARY
  5
19
330
0
100
AcDbDictionary
281
     1
  3
ACAD_GROUP
350
1A
  3
ACAD_LAYOUT
350
418
  3
ACAD_MATERIAL
350
42C
  3
ACAD_MLEADERSTYLE
350
434
  3
ACAD_MLINESTYLE
350
1B
  3
ACAD_SCALELIST
350
3F6
  3
ACAD_VISUALSTYLE
350
41B
  3
ACDB_RECOMPOSE_DATA
350
461
  3
AcDbVariableDictionary
350
432
  0
DICTIONARY
  5
438
330
7
100
AcDbDictionary
280
     1
281
     1
  3
ACAD_XREC_ROUNDTRIP
360
439
  0
DICTIONARY
  5
1A
102
{ACAD_REACTORS
330
19
102
}
330
19
100
AcDbDictionary
281
     1
  0
DICTIONARY
  5
418
102
{ACAD_REACTORS
330
19
102
}
330
19
100
AcDbDictionary
281
     1
  3
Layout1
350
41A
  3
Model
350
419
  0
DICTIONARY
  5
42C
102
{ACAD_REACTORS
330
19
102
}
330
19
100
AcDbDictionary
281
     1
  3
ByBlock
350
42E
  3
ByLayer
350
42D
  3
Global
350
42F
  0
DICTIONARY
  5
434
102
{ACAD_REACTORS
330
19
102
}
330
19
100
AcDbDictionary
281
     1
  0
DICTIONARY
  5
1B
102
{ACAD_REACTORS
330
19
102
}
330
19
100
AcDbDictionary
281
     1
  3
STANDARD
350
1C
  0
DICTIONARY
  5
3F6
102
{ACAD_REACTORS
330
19
102
}
330
19
100
AcDbDictionary
281
     1
  3
A0
350
3F7
  3
A1
350
3F8
  3
A2
350
3F9
  3
A3
350
3FA
  3
A4
350
3FB
  3
A5
350
3FC
  3
A6
350
3FD
  3
A7
350
3FE
  3
A8
350
3FF
  3
A9
350
400
  3
B0
350
401
  3
B1
350
402
  3
B2
350
403
  3
B3
350
404
  3
B4
350
405
  3
B5
350
406
  3
B6
350
407
  3
B7
350
408
  3
B8
350
409
  3
B9
350
40A
  3
C0
350
40B
  3
C1
350
40C
  3
C2
350
40D
  3
C3
350
40E
  3
C4
350
40F
  3
C5
350
410
  3
C6
350
411
  3
C7
350
412
  3
C8
350
413
  3
C9
350
414
  3
D0
350
415
  3
D1
350
416
  3
D2
350
417
  0
DICTIONARY
  5
41B
102
{ACAD_REACTORS
330
19
102
}
330
19
100
AcDbDictionary
281
     1
  3
2dWireframe
350
420
  3
3D Hidden
350
422
  3
3dWireframe
350
421
  3
Basic
350
423
  3
Brighten
350
427
  3
ColorChange
350
42B
  3
Conceptual
350
425
  3
Dim
350
426
  3
Facepattern
350
42A
  3
Flat
350
41C
  3
FlatWithEdges
350
41D
  3
Gouraud
350
41E
  3
GouraudWithEdges
350
41F
  3
Linepattern
350
429
  3
Realistic
350
424
  3
Thicken
350
428
  0
XRECORD
  5
461
102
{ACAD_REACTORS
330
19
102
}
330
19
100
AcDbXrecord
280
     1
  0
DICTIONARY
  5
432
102
{ACAD_REACTORS
330
19
102
}
330
19
100
AcDbDictionary
281
     1
  3
CANNOSCALE
350
43A
  3
DIMASSOC
350
436
  3
HIDETEXT
350
437
  3
MSLTSCALE
350
435
  0
XRECORD
  5
439
102
{ACAD_REACTORS
330
438
102
}
330
438
100
AcDbXrecord
280
     1
102
VTR_0.000_0.000_1.000_1.000_VISUALSTYLE
340
420
102
VTR_0.000_0.000_1.000_1.000_GRIDDISPLAY
 70
     3
102
VTR_0.000_0.000_1.000_1.000_GRIDMAJOR
 70
     5
102
VTR_0.000_0.000_1.000_1.000_DEFAULTLIGHTING
280
     1
102
VTR_0.000_0.000_1.000_1.000_DEFAULTLIGHTINGTYPE
 70
     1
102
VTR_0.000_0.000_1.000_1.000_BRIGHTNESS
141
0.0
102
VTR_0.000_0.000_1.000_1.000_CONTRAST
142
0.0
  0
LAYOUT
  5
41A
102
{ACAD_REACTORS
330
418
102
}
330
418
100
AcDbPlotSettings
  1

  2
none_device
  4

  6

 40
0.0
 41
0.0
 42
0.0
 43
0.0
 44
0.0
 45
0.0
 46
0.0
 47
0.0
 48
0.0
 49
0.0
140
0.0
141
0.0
142
1.0
143
1.0
 70
   688
 72
     0
 73
     0
 74
     5
  7

 75
    16
147
1.0
148
0.0
149
0.0
100
AcDbLayout
  1
Layout1
 70
     1
 71
     1
 10
0.0
 20
0.0
 11
12.0
 21
9.0
 12
0.0
 22
0.0
 32
0.0
 14
1.000000000000000E+20
 24
1.000000000000000E+20
 34
1.000000000000000E+20
 15
-1.000000000000000E+20
 25
-1.000000000000000E+20
 35
-1.000000000000000E+20
146
0.0
 13
0.0
 23
0.0
 33
0.0
 16
1.0
 26
0.0
 36
0.0
 17
0.0
 27
1.0
 37
0.0
 76
     0
330
B
  0
LAYOUT
  5
419
102
{ACAD_REACTORS
330
418
102
}
330
418
100
AcDbPlotSettings
  1

  2
none_device
  4

  6

 40
0.0
 41
0.0
 42
0.0
 43
0.0
 44
0.0
 45
0.0
 46
0.0
 47
0.0
 48
0.0
 49
0.0
140
0.0
141
0.0
142
1.0
143
1.0
 70
  1712
 72
     0
 73
     0
 74
     0
  7

 75
     0
147
1.0
148
2667.54428576817
149
0.0
100
AcDbLayout
  1
Model
 70
     1
 71
     0
 10
0.0
 20
0.0
 11
0.0
 21
0.0
 12
0.0
 22
0.0
 32
0.0
 14
0.0
 24
0.0
 34
0.0
 15
210.0
 25
297.0
 35
0.0
146
0.0
 13
0.0
 23
0.0
 33
0.0
 16
1.0
 26
0.0
 36
0.0
 17
0.0
 27
1.0
 37
0.0
 76
     0
330
A
331
15
  0
MATERIAL
  5
42E
102
{ACAD_REACTORS
330
42C
102
}
102
{ACAD_XDICTIONARY
360
45D
102
}
330
42C
100
AcDbMaterial
  1
ByBlock
  0
MATERIAL
  5
42D
102
{ACAD_REACTORS
330
42C
102
}
102
{ACAD_XDICTIONARY
360
45B
102
}
330
42C
100
AcDbMaterial
  1
ByLayer
  0
MATERIAL
  5
42F
102
{ACAD_REACTORS
330
42C
102
}
102
{ACAD_XDICTIONARY
360
45F
102
}
330
42C
100
AcDbMaterial
  1
Global
  0
MLINESTYLE
  5
1C
102
{ACAD_REACTORS
330
1B
102
}
330
1B
100
AcDbMlineStyle
  2
STANDARD
 70
     0
  3

 62
     0
 51
90.0
 52
90.0
 71
     2
 49
0.5
 62
   256
  6
BYLAYER
 49
-0.5
 62
   256
  6
BYLAYER
  0
SCALE
  5
3F7
102
{ACAD_REACTORS
330
3F6
102
}
330
3F6
100
AcDbScale
 70
     0
300
1:1
140
1.0
141
1.0
290
     1
  0
SCALE
  5
3F8
102
{ACAD_REACTORS
330
3F6
102
}
330
3F6
100
AcDbScale
 70
     0
300
1:2
140
1.0
141
2.0
290
     0
  0
SCALE
  5
3F9
102
{ACAD_REACTORS
330
3F6
102
}
330
3F6
100
AcDbScale
 70
     0
300
1:4
140
1.0
141
4.0
290
     0
  0
SCALE
  5
3FA
102
{ACAD_REACTORS
330
3F6
102
}
330
3F6
100
AcDbScale
 70
     0
300
1:5
140
1.0
141
5.0
290
     0
  0
SCALE
  5
3FB
102
{ACAD_REACTORS
330
3F6
102
}
330
3F6
100
AcDbScale
 70
     0
300
1:8
140
1.0
141
8.0
290
     0
  0
SCALE
  5
3FC
102
{ACAD_REACTORS
330
3F6
102
}
330
3F6
100
AcDbScale
 70
     0
300
1:10
140
1.0
141
10.0
290
     0
  0
SCALE
  5
3FD
102
{ACAD_REACTORS
330
3F6
102
}
330
3F6
100
AcDbScale
 70
     0
300
1:16
140
1.0
141
16.0
290
     0
  0
SCALE
  5
3FE
102
{ACAD_REACTORS
330
3F6
102
}
330
3F6
100
AcDbScale
 70
     0
300
1:20
140
1.0
141
20.0
290
     0
  0
SCALE
  5
3FF
102
{ACAD_REACTORS
330
3F6
102
}
330
3F6
100
AcDbScale
 70
     0
300
1:30
140
1.0
141
30.0
290
     0
  0
SCALE
  5
400
102
{ACAD_REACTORS
330
3F6
102
}
330
3F6
100
AcDbScale
 70
     0
300
1:40
140
1.0
141
40.0
290
     0
  0
SCALE
  5
401
102
{ACAD_REACTORS
330
3F6
102
}
330
3F6
100
AcDbScale
 70
     0
300
1:50
140
1.0
141
50.0
290
     0
  0
SCALE
  5
402
102
{ACAD_REACTORS
330
3F6
102
}
330
3F6
100
AcDbScale
 70
     0
300
1:100
140
1.0
141
100.0
290
     0
  0
SCALE
  5
403
102
{ACAD_REACTORS
330
3F6
102
}
330
3F6
100
AcDbScale
 70
     0
300
2:1
140
2.0
141
1.0
290
     0
  0
SCALE
  5
404
102
{ACAD_REACTORS
330
3F6
102
}
330
3F6
100
AcDbScale
 70
     0
300
4:1
140
4.0
141
1.0
290
     0
  0
SCALE
  5
405
102
{ACAD_REACTORS
330
3F6
102
}
330
3F6
100
AcDbScale
 70
     0
300
8:1
140
8.0
141
1.0
290
     0
  0
SCALE
  5
406
102
{ACAD_REACTORS
330
3F6
102
}
330
3F6
100
AcDbScale
 70
     0
300
10:1
140
10.0
141
1.0
290
     0
  0
SCALE
  5
407
102
{ACAD_REACTORS
330
3F6
102
}
330
3F6
100
AcDbScale
 70
     0
300
100:1
140
100.0
141
1.0
290
     0
  0
SCALE
  5
408
102
{ACAD_REACTORS
330
3F6
102
}
330
3F6
100
AcDbScale
 70
     0
300
1/128" = 1'-0"
140
0.0078125
141
12.0
290
     0
  0
SCALE
  5
409
102
{ACAD_REACTORS
330
3F6
102
}
330
3F6
100
AcDbScale
 70
     0
300
1/64" = 1'-0"
140
0.015625
141
12.0
290
     0
  0
SCALE
  5
40A
102
{ACAD_REACTORS
330
3F6
102
}
330
3F6
100
AcDbScale
 70
     0
300
1/32" = 1'-0"
140
0.03125
141
12.0
290
     0
  0
SCALE
  5
40B
102
{ACAD_REACTORS
330
3F6
102
}
330
3F6
100
AcDbScale
 70
     0
300
1/16" = 1'-0"
140
0.0625
141
12.0
290
     0
  0
SCALE
  5
40C
102
{ACAD_REACTORS
330
3F6
102
}
330
3F6
100
AcDbScale
 70
     0
300
3/32" = 1'-0"
140
0.09375
141
12.0
290
     0
  0
SCALE
  5
40D
102
{ACAD_REACTORS
330
3F6
102
}
330
3F6
100
AcDbScale
 70
     0
300
1/8" = 1'-0"
140
0.125
141
12.0
290
     0
  0
SCALE
  5
40E
102
{ACAD_REACTORS
330
3F6
102
}
330
3F6
100
AcDbScale
 70
     0
300
3/16" = 1'-0"
140
0.1875
141
12.0
290
     0
  0
SCALE
  5
40F
102
{ACAD_REACTORS
330
3F6
102
}
330
3F6
100
AcDbScale
 70
     0
300
1/4" = 1'-0"
140
0.25
141
12.0
290
     0
  0
SCALE
  5
410
102
{ACAD_REACTORS
330
3F6
102
}
330
3F6
100
AcDbScale
 70
     0
300
3/8" = 1'-0"
140
0.375
141
12.0
290
     0
  0
SCALE
  5
411
102
{ACAD_REACTORS
330
3F6
102
}
330
3F6
100
AcDbScale
 70
     0
300
1/2" = 1'-0"
140
0.5
141
12.0
290
     0
  0
SCALE
  5
412
102
{ACAD_REACTORS
330
3F6
102
}
330
3F6
100
AcDbScale
 70
     0
300
3/4" = 1'-0"
140
0.75
141
12.0
290
     0
  0
SCALE
  5
413
102
{ACAD_REACTORS
330
3F6
102
}
330
3F6
100
AcDbScale
 70
     0
300
1" = 1'-0"
140
1.0
141
12.0
290
     0
  0
SCALE
  5
414
102
{ACAD_REACTORS
330
3F6
102
}
330
3F6
100
AcDbScale
 70
     0
300
1-1/2" = 1'-0"
140
1.5
141
12.0
290
     0
  0
SCALE
  5
415
102
{ACAD_REACTORS
330
3F6
102
}
330
3F6
100
AcDbScale
 70
     0
300
3" = 1'-0"
140
3.0
141
12.0
290
     0
  0
SCALE
  5
416
102
{ACAD_REACTORS
330
3F6
102
}
330
3F6
100
AcDbScale
 70
     0
300
6" = 1'-0"
140
6.0
141
12.0
290
     0
  0
SCALE
  5
417
102
{ACAD_REACTORS
330
3F6
102
}
330
3F6
100
AcDbScale
 70
     0
300
1'-0" = 1'-0"
140
12.0
141
12.0
290
     0
  0
VISUALSTYLE
  5
420
102
{ACAD_REACTORS
330
41B
102
}
102
{ACAD_XDICTIONARY
360
443
102
}
330
41B
100
AcDbVisualStyle
  2
2dWireframe
 70
     4
 71
     0
 72
     2
 73
     0
 90
        0
 40
-0.6
 41
-30.0
 62
     5
 63
     7
 74
     1
 91
        4
 64
     7
 65
   257
 75
     1
175
     1
 42
1.0
 92
        0
 66
   257
 43
1.0
 76
     1
 77
     6
 78
     2
 67
     7
 79
     5
170
     0
171
     0
290
     0
174
     0
 93
        1
 44
0.0
173
     0
291
     0
 45
0.0
1001
ACAD
1000
AcDbSavedByObjectVersion
1070
     0
  0
VISUALSTYLE
  5
422
102
{ACAD_REACTORS
330
41B
102
}
102
{ACAD_XDICTIONARY
360
447
102
}
330
41B
100
AcDbVisualStyle
  2
3D Hidden
 70
     6
 71
     1
 72
     2
 73
     2
 90
        0
 40
-0.6
 41
-30.0
 62
     5
 63
     7
 74
     2
 91
        2
 64
     7
 65
   257
 75
     2
175
     1
 42
40.0
 92
        0
 66
   257
 43
1.0
 76
     1
 77
     6
 78
     2
 67
     7
 79
     3
170
     0
171
     0
290
     0
174
     0
 93
        1
 44
0.0
173
     0
291
     0
 45
0.0
1001
ACAD
1000
AcDbSavedByObjectVersion
1070
     0
  0
VISUALSTYLE
  5
421
102
{ACAD_REACTORS
330
41B
102
}
102
{ACAD_XDICTIONARY
360
445
102
}
330
41B
100
AcDbVisualStyle
  2
3dWireframe
 70
     5
 71
     0
 72
     2
 73
     0
 90
        0
 40
-0.6
 41
-30.0
 62
     5
 63
     7
 74
     1
 91
        4
 64
     7
 65
   257
 75
     1
175
     1
 42
1.0
 92
        0
 66
   257
 43
1.0
 76
     1
 77
     6
 78
     2
 67
     7
 79
     5
170
     0
171
     0
290
     0
174
     0
 93
        1
 44
0.0
173
     0
291
     0
 45
0.0
1001
ACAD
1000
AcDbSavedByObjectVersion
1070
     0
  0
VISUALSTYLE
  5
423
102
{ACAD_REACTORS
330
41B
102
}
102
{ACAD_XDICTIONARY
360
449
102
}
330
41B
100
AcDbVisualStyle
  2
Basic
 70
     7
 71
     1
 72
     0
 73
     1
 90
        0
 40
-0.6
 41
-30.0
 62
     5
 63
     7
 74
     0
 91
        4
 64
     7
 65
   257
 75
     1
175
     1
 42
1.0
 92
        8
 66
     7
 43
1.0
 76
     1
 77
     6
 78
     2
 67
     7
 79
     5
170
     0
171
     0
290
     0
174
     0
 93
        1
 44
0.0
173
     0
291
     1
 45
0.0
1001
ACAD
1000
AcDbSavedByObjectVersion
1070
     0
  0
VISUALSTYLE
  5
427
102
{ACAD_REACTORS
330
41B
102
}
102
{ACAD_XDICTIONARY
360
451
102
}
330
41B
100
AcDbVisualStyle
  2
Brighten
 70
    12
 71
     2
 72
     2
 73
     0
 90
        0
 40
-0.6
 41
-30.0
 62
     5
 63
     7
 74
     1
 91
        4
 64
     7
 65
   257
 75
     1
175
     1
 42
1.0
 92
        8
 66
     7
 43
1.0
 76
     1
 77
     6
 78
     2
 67
     7
 79
     5
170
     0
171
     0
290
     0
174
     0
 93
        1
 44
50.0
173
     0
291
     1
 45
0.0
1001
ACAD
1000
AcDbSavedByObjectVersion
1070
     0
  0
VISUALSTYLE
  5
42B
102
{ACAD_REACTORS
330
41B
102
}
102
{ACAD_XDICTIONARY
360
459
102
}
330
41B
100
AcDbVisualStyle
  2
ColorChange
 70
    16
 71
     2
 72
     2
 73
     3
 90
        0
 40
-0.6
 41
-30.0
 62
     5
 63
     8
 74
     1
 91
        4
 64
     7
 65
   257
 75
     1
175
     1
 42
1.0
 92
        8
 66
     8
 43
1.0
 76
     1
 77
     6
 78
     2
 67
     7
 79
     5
170
     0
171
     0
290
     0
174
     0
 93
        1
 44
0.0
173
     0
291
     1
 45
0.0
1001
ACAD
1000
AcDbSavedByObjectVersion
1070
     0
  0
VISUALSTYLE
  5
425
102
{ACAD_REACTORS
330
41B
102
}
102
{ACAD_XDICTIONARY
360
44D
102
}
330
41B
100
AcDbVisualStyle
  2
Conceptual
 70
     9
 71
     3
 72
     2
 73
     0
 90
        0
 40
-0.6
 41
-30.0
 62
     5
 63
     7
 74
     2
 91
        2
 64
     7
 65
   257
 75
     1
175
     1
 42
40.0
 92
        8
 66
     7
 43
1.0
 76
     1
 77
     6
 78
     2
 67
     7
 79
     3
170
     0
171
     0
290
     0
174
     0
 93
        1
 44
0.0
173
     0
291
     0
 45
0.0
1001
ACAD
1000
AcDbSavedByObjectVersion
1070
     0
  0
VISUALSTYLE
  5
426
102
{ACAD_REACTORS
330
41B
102
}
102
{ACAD_XDICTIONARY
360
44F
102
}
330
41B
100
AcDbVisualStyle
  2
Dim
 70
    11
 71
     2
 72
     2
 73
     0
 90
        0
 40
-0.6
 41
-30.0
 62
     5
 63
     7
 74
     1
 91
        4
 64
     7
 65
   257
 75
     1
175
     1
 42
1.0
 92
        8
 66
     7
 43
1.0
 76
     1
 77
     6
 78
     2
 67
     7
 79
     5
170
     0
171
     0
290
     0
174
     0
 93
        1
 44
-50.0
173
     0
291
     1
 45
0.0
1001
ACAD
1000
AcDbSavedByObjectVersion
1070
     0
  0
VISUALSTYLE
  5
42A
102
{ACAD_REACTORS
330
41B
102
}
102
{ACAD_XDICTIONARY
360
457
102
}
330
41B
100
AcDbVisualStyle
  2
Facepattern
 70
    15
 71
     2
 72
     2
 73
     0
 90
        0
 40
-0.6
 41
-30.0
 62
     5
 63
     7
 74
     1
 91
        4
 64
     7
 65
   257
 75
     1
175
     1
 42
1.0
 92
        8
 66
     7
 43
1.0
 76
     1
 77
     6
 78
     2
 67
     7
 79
     5
170
     0
171
     0
290
     0
174
     0
 93
        1
 44
0.0
173
     0
291
     1
 45
0.0
1001
ACAD
1000
AcDbSavedByObjectVersion
1070
     0
  0
VISUALSTYLE
  5
41C
102
{ACAD_REACTORS
330
41B
102
}
102
{ACAD_XDICTIONARY
360
43B
102
}
330
41B
100
AcDbVisualStyle
  2
Flat
 70
     0
 71
     2
 72
     1
 73
     1
 90
        2
 40
-0.6
 41
30.0
 62
     5
 63
     7
 74
     0
 91
        4
 64
     7
 65
   257
 75
     1
175
     1
 42
1.0
 92
        8
 66
     7
 43
1.0
 76
     1
 77
     6
 78
     2
 67
     7
 79
     5
170
     0
171
     0
290
     0
174
     0
 93
       13
 44
0.0
173
     0
291
     1
 45
0.0
1001
ACAD
1000
AcDbSavedByObjectVersion
1070
     0
  0
VISUALSTYLE
  5
41D
102
{ACAD_REACTORS
330
41B
102
}
102
{ACAD_XDICTIONARY
360
43D
102
}
330
41B
100
AcDbVisualStyle
  2
FlatWithEdges
 70
     1
 71
     2
 72
     1
 73
     1
 90
        2
 40
-0.6
 41
30.0
 62
     5
 63
     7
 74
     1
 91
        4
 64
     7
 65
   257
 75
     1
175
     1
 42
1.0
 92
        0
 66
   257
 43
1.0
 76
     1
 77
     6
 78
     2
 67
     7
 79
     5
170
     0
171
     0
290
     0
174
     0
 93
       13
 44
0.0
173
     0
291
     1
 45
0.0
1001
ACAD
1000
AcDbSavedByObjectVersion
1070
     0
  0
VISUALSTYLE
  5
41E
102
{ACAD_REACTORS
330
41B
102
}
102
{ACAD_XDICTIONARY
360
43F
102
}
330
41B
100
AcDbVisualStyle
  2
Gouraud
 70
     2
 71
     2
 72
     2
 73
     1
 90
        2
 40
-0.6
 41
30.0
 62
     5
 63
     7
 74
     0
 91
        4
 64
     7
 65
   257
 75
     1
175
     1
 42
1.0
 92
        0
 66
     7
 43
1.0
 76
     1
 77
     6
 78
     2
 67
     7
 79
     5
170
     0
171
     0
290
     0
174
     0
 93
       13
 44
0.0
173
     0
291
     1
 45
0.0
1001
ACAD
1000
AcDbSavedByObjectVersion
1070
     0
  0
VISUALSTYLE
  5
41F
102
{ACAD_REACTORS
330
41B
102
}
102
{ACAD_XDICTIONARY
360
441
102
}
330
41B
100
AcDbVisualStyle
  2
GouraudWithEdges
 70
     3
 71
     2
 72
     2
 73
     1
 90
        2
 40
-0.6
 41
30.0
 62
     5
 63
     7
 74
     1
 91
        4
 64
     7
 65
   257
 75
     1
175
     1
 42
1.0
 92
        0
 66
   257
 43
1.0
 76
     1
 77
     6
 78
     2
 67
     7
 79
     5
170
     0
171
     0
290
     0
174
     0
 93
       13
 44
0.0
173
     0
291
     1
 45
0.0
1001
ACAD
1000
AcDbSavedByObjectVersion
1070
     0
  0
VISUALSTYLE
  5
429
102
{ACAD_REACTORS
330
41B
102
}
102
{ACAD_XDICTIONARY
360
455
102
}
330
41B
100
AcDbVisualStyle
  2
Linepattern
 70
    14
 71
     2
 72
     2
 73
     0
 90
        0
 40
-0.6
 41
-30.0
 62
     5
 63
     7
 74
     1
 91
        4
 64
     7
 65
   257
 75
     7
175
     7
 42
1.0
 92
        8
 66
     7
 43
1.0
 76
     1
 77
     6
 78
     2
 67
     7
 79
     5
170
     0
171
     0
290
     0
174
     0
 93
        1
 44
0.0
173
     0
291
     1
 45
0.0
1001
ACAD
1000
AcDbSavedByObjectVersion
1070
     0
  0
VISUALSTYLE
  5
424
102
{ACAD_REACTORS
330
41B
102
}
102
{ACAD_XDICTIONARY
360
44B
102
}
330
41B
100
AcDbVisualStyle
  2
Realistic
 70
     8
 71
     2
 72
     2
 73
     0
 90
        0
 40
-0.6
 41
-30.0
 62
     5
 63
     7
 74
     1
 91
        0
 64
     7
 65
   257
 75
     1
175
     1
 42
1.0
 92
        8
 66
     8
 43
1.0
 76
     1
 77
     6
 78
     2
 67
     7
 79
     5
170
     0
171
     0
290
     0
174
     0
 93
       13
 44
0.0
173
     0
291
     0
 45
0.0
1001
ACAD
1000
AcDbSavedByObjectVersion
1070
     0
  0
VISUALSTYLE
  5
428
102
{ACAD_REACTORS
330
41B
102
}
102
{ACAD_XDICTIONARY
360
453
102
}
330
41B
100
AcDbVisualStyle
  2
Thicken
 70
    13
 71
     2
 72
     2
 73
     0
 90
        0
 40
-0.6
 41
-30.0
 62
     5
 63
     7
 74
     1
 91
        4
 64
     7
 65
   257
 75
     1
175
     1
 42
1.0
 92
       12
 66
     7
 43
1.0
 76
     1
 77
     6
 78
     2
 67
     7
 79
     5
170
     0
171
     0
290
     0
174
     0
 93
        1
 44
0.0
173
     0
291
     1
 45
0.0
1001
ACAD
1000
AcDbSavedByObjectVersion
1070
     0
  0
DICTIONARYVAR
  5
43A
102
{ACAD_REACTORS
330
432
102
}
330
432
100
DictionaryVariables
280
     0
  1
1:1
  0
DICTIONARYVAR
  5
436
102
{ACAD_REACTORS
330
432
102
}
330
432
100
DictionaryVariables
280
     0
  1
2
  0
DICTIONARYVAR
  5
437
102
{ACAD_REACTORS
330
432
102
}
330
432
100
DictionaryVariables
280
     0
  1
1
  0
DICTIONARYVAR
  5
435
102
{ACAD_REACTORS
330
432
102
}
330
432
100
DictionaryVariables
280
     0
  1
0
  0
DICTIONARY
  5
45D
330
42E
100
AcDbDictionary
280
     1
281
     1
  3
ACAD_XREC_ROUNDTRIP
360
45E
  0
DICTIONARY
  5
45B
330
42D
100
AcDbDictionary
280
     1
281
     1
  3
ACAD_XREC_ROUNDTRIP
360
45C
  0
DICTIONARY
  5
45F
330
42F
100
AcDbDictionary
280
     1
281
     1
  3
ACAD_XREC_ROUNDTRIP
360
460
  0
DICTIONARY
  5
443
330
420
100
AcDbDictionary
280
     1
281
     1
  3
ACAD_XREC_ROUNDTRIP
360
444
  0
DICTIONARY
  5
447
330
422
100
AcDbDictionary
280
     1
281
     1
  3
ACAD_XREC_ROUNDTRIP
360
448
  0
DICTIONARY
  5
445
330
421
100
AcDbDictionary
280
     1
281
     1
  3
ACAD_XREC_ROUNDTRIP
360
446
  0
DICTIONARY
  5
449
330
423
100
AcDbDictionary
280
     1
281
     1
  3
ACAD_XREC_ROUNDTRIP
360
44A
  0
DICTIONARY
  5
451
330
427
100
AcDbDictionary
280
     1
281
     1
  3
ACAD_XREC_ROUNDTRIP
360
452
  0
DICTIONARY
  5
459
330
42B
100
AcDbDictionary
280
     1
281
     1
  3
ACAD_XREC_ROUNDTRIP
360
45A
  0
DICTIONARY
  5
44D
330
425
100
AcDbDictionary
280
     1
281
     1
  3
ACAD_XREC_ROUNDTRIP
360
44E
  0
DICTIONARY
  5
44F
330
426
100
AcDbDictionary
280
     1
281
     1
  3
ACAD_XREC_ROUNDTRIP
360
450
  0
DICTIONARY
  5
457
330
42A
100
AcDbDictionary
280
     1
281
     1
  3
ACAD_XREC_ROUNDTRIP
360
458
  0
DICTIONARY
  5
43B
330
41C
100
AcDbDictionary
280
     1
281
     1
  3
ACAD_XREC_ROUNDTRIP
360
43C
  0
DICTIONARY
  5
43D
330
41D
100
AcDbDictionary
280
     1
281
     1
  3
ACAD_XREC_ROUNDTRIP
360
43E
  0
DICTIONARY
  5
43F
330
41E
100
AcDbDictionary
280
     1
281
     1
  3
ACAD_XREC_ROUNDTRIP
360
440
  0
DICTIONARY
  5
441
330
41F
100
AcDbDictionary
280
     1
281
     1
  3
ACAD_XREC_ROUNDTRIP
360
442
  0
DICTIONARY
  5
455
330
429
100
AcDbDictionary
280
     1
281
     1
  3
ACAD_XREC_ROUNDTRIP
360
456
  0
DICTIONARY
  5
44B
330
424
100
AcDbDictionary
280
     1
281
     1
  3
ACAD_XREC_ROUNDTRIP
360
44C
  0
DICTIONARY
  5
453
330
428
100
AcDbDictionary
280
     1
281
     1
  3
ACAD_XREC_ROUNDTRIP
360
454
  0
XRECORD
  5
45E
102
{ACAD_REACTORS
330
45D
102
}
330
45D
100
AcDbXrecord
280
     1
102
MATERIAL
148
0.0
149
0.0
149
0.0
 93
        0
 94
      127
282
     0
 72
     1
 77
     1
171
     1
175
     1
179
     1
273
     0
  0
XRECORD
  5
45C
102
{ACAD_REACTORS
330
45B
102
}
330
45B
100
AcDbXrecord
280
     1
102
MATERIAL
148
0.0
149
0.0
149
0.0
 93
        0
 94
      127
282
     0
 72
     1
 77
     1
171
     1
175
     1
179
     1
273
     0
  0
XRECORD
  5
460
102
{ACAD_REACTORS
330
45F
102
}
330
45F
100
AcDbXrecord
280
     1
102
MATERIAL
148
0.0
149
0.0
149
0.0
 93
        0
 94
      127
282
     0
 72
     1
 77
     1
171
     1
175
     1
179
     1
273
     0
  0
XRECORD
  5
444
102
{ACAD_REACTORS
330
443
102
}
330
443
100
AcDbXrecord
280
     1
102
RTVSPropertyOp0
 70
     1
102
RTVSPropertyOp1
 70
     1
102
RTVSPropertyOp2
 70
     1
102
RTVSPropertyOp3
 70
     1
102
RTVSPropertyOp4
 70
     1
102
RTVSPropertyOp5
 70
     1
102
RTVSPropertyOp6
 70
     1
102
RTVSPropertyOp7
 70
     1
102
RTVSPropertyOp8
 70
     1
102
RTVSPropertyOp9
 70
     1
102
RTVSPropertyOp10
 70
     1
102
RTVSPropertyOp11
 70
     1
102
RTVSPropertyOp12
 70
     1
102
RTVSPropertyOp13
 70
     1
102
RTVSPropertyOp14
 70
     1
102
RTVSPropertyOp15
 70
     1
102
RTVSPropertyOp16
 70
     1
102
RTVSPropertyOp17
 70
     1
102
RTVSPropertyOp18
 70
     1
102
RTVSPropertyOp19
 70
     1
102
RTVSPropertyOp20
 70
     1
102
RTVSPropertyOp21
 70
     1
102
RTVSPropertyOp22
 70
     1
102
RTVSPropertyOp23
 70
     1
102
RTVSPropertyOp24
 70
     1
102
RTVSPropertyOp25
 70
     1
102
RTVSPropertyOp26
 70
     1
102
RTVSPropertyOp27
 70
     1
102
RTVSPropertyOp28
 70
     1
102
RTVSPropertyOp29
 70
     1
102
RTVSPropertyOp30
 70
     1
102
RTVSPropertyOp31
 70
     1
102
RTVSPropertyOp32
 70
     1
  0
XRECORD
  5
448
102
{ACAD_REACTORS
330
447
102
}
330
447
100
AcDbXrecord
280
     1
102
RTVSPropertyOp0
 70
     1
102
RTVSPropertyOp1
 70
     1
102
RTVSPropertyOp2
 70
     1
102
RTVSPropertyOp3
 70
     1
102
RTVSPropertyOp4
 70
     1
102
RTVSPropertyOp5
 70
     1
102
RTVSPropertyOp6
 70
     1
102
RTVSPropertyOp7
 70
     1
102
RTVSPropertyOp8
 70
     1
102
RTVSPropertyOp9
 70
     1
102
RTVSPropertyOp10
 70
     1
102
RTVSPropertyOp11
 70
     1
102
RTVSPropertyOp12
 70
     1
102
RTVSPropertyOp13
 70
     1
102
RTVSPropertyOp14
 70
     1
102
RTVSPropertyOp15
 70
     1
102
RTVSPropertyOp16
 70
     1
102
RTVSPropertyOp17
 70
     1
102
RTVSPropertyOp18
 70
     1
102
RTVSPropertyOp19
 70
     1
102
RTVSPropertyOp20
 70
     1
102
RTVSPropertyOp21
 70
     1
102
RTVSPropertyOp22
 70
     1
102
RTVSPropertyOp23
 70
     1
102
RTVSPropertyOp24
 70
     1
102
RTVSPropertyOp25
 70
     1
102
RTVSPropertyOp26
 70
     1
102
RTVSPropertyOp27
 70
     1
102
RTVSPropertyOp28
 70
     1
102
RTVSPropertyOp29
 70
     1
102
RTVSPropertyOp30
 70
     1
102
RTVSPropertyOp31
 70
     1
102
RTVSPropertyOp32
 70
     1
  0
XRECORD
  5
446
102
{ACAD_REACTORS
330
445
102
}
330
445
100
AcDbXrecord
280
     1
102
RTVSPropertyOp0
 70
     1
102
RTVSPropertyOp1
 70
     1
102
RTVSPropertyOp2
 70
     1
102
RTVSPropertyOp3
 70
     1
102
RTVSPropertyOp4
 70
     1
102
RTVSPropertyOp5
 70
     1
102
RTVSPropertyOp6
 70
     1
102
RTVSPropertyOp7
 70
     1
102
RTVSPropertyOp8
 70
     1
102
RTVSPropertyOp9
 70
     1
102
RTVSPropertyOp10
 70
     1
102
RTVSPropertyOp11
 70
     1
102
RTVSPropertyOp12
 70
     1
102
RTVSPropertyOp13
 70
     1
102
RTVSPropertyOp14
 70
     1
102
RTVSPropertyOp15
 70
     1
102
RTVSPropertyOp16
 70
     1
102
RTVSPropertyOp17
 70
     1
102
RTVSPropertyOp18
 70
     1
102
RTVSPropertyOp19
 70
     1
102
RTVSPropertyOp20
 70
     1
102
RTVSPropertyOp21
 70
     1
102
RTVSPropertyOp22
 70
     1
102
RTVSPropertyOp23
 70
     1
102
RTVSPropertyOp24
 70
     1
102
RTVSPropertyOp25
 70
     1
102
RTVSPropertyOp26
 70
     1
102
RTVSPropertyOp27
 70
     1
102
RTVSPropertyOp28
 70
     1
102
RTVSPropertyOp29
 70
     1
102
RTVSPropertyOp30
 70
     1
102
RTVSPropertyOp31
 70
     1
102
RTVSPropertyOp32
 70
     1
  0
XRECORD
  5
44A
102
{ACAD_REACTORS
330
449
102
}
330
449
100
AcDbXrecord
280
     1
102
RTVSPropertyOp0
 70
     1
102
RTVSPropertyOp1
 70
     1
102
RTVSPropertyOp2
 70
     1
102
RTVSPropertyOp3
 70
     1
102
RTVSPropertyOp4
 70
     1
102
RTVSPropertyOp5
 70
     1
102
RTVSPropertyOp6
 70
     1
102
RTVSPropertyOp7
 70
     1
102
RTVSPropertyOp8
 70
     1
102
RTVSPropertyOp9
 70
     1
102
RTVSPropertyOp10
 70
     1
102
RTVSPropertyOp11
 70
     1
102
RTVSPropertyOp12
 70
     1
102
RTVSPropertyOp13
 70
     1
102
RTVSPropertyOp14
 70
     1
102
RTVSPropertyOp15
 70
     1
102
RTVSPropertyOp16
 70
     1
102
RTVSPropertyOp17
 70
     1
102
RTVSPropertyOp18
 70
     1
102
RTVSPropertyOp19
 70
     1
102
RTVSPropertyOp20
 70
     1
102
RTVSPropertyOp21
 70
     1
102
RTVSPropertyOp22
 70
     1
102
RTVSPropertyOp23
 70
     1
102
RTVSPropertyOp24
 70
     1
102
RTVSPropertyOp25
 70
     1
102
RTVSPropertyOp26
 70
     1
102
RTVSPropertyOp27
 70
     1
102
RTVSPropertyOp28
 70
     1
102
RTVSPropertyOp29
 70
     1
102
RTVSPropertyOp30
 70
     1
102
RTVSPropertyOp31
 70
     1
102
RTVSPropertyOp32
 70
     1
  0
XRECORD
  5
452
102
{ACAD_REACTORS
330
451
102
}
330
451
100
AcDbXrecord
280
     1
102
RTVSPropertyOp0
 70
     1
102
RTVSPropertyOp1
 70
     1
102
RTVSPropertyOp2
 70
     1
102
RTVSPropertyOp3
 70
     1
102
RTVSPropertyOp4
 70
     1
102
RTVSPropertyOp5
 70
     1
102
RTVSPropertyOp6
 70
     1
102
RTVSPropertyOp7
 70
     1
102
RTVSPropertyOp8
 70
     1
102
RTVSPropertyOp9
 70
     1
102
RTVSPropertyOp10
 70
     1
102
RTVSPropertyOp11
 70
     1
102
RTVSPropertyOp12
 70
     1
102
RTVSPropertyOp13
 70
     1
102
RTVSPropertyOp14
 70
     1
102
RTVSPropertyOp15
 70
     1
102
RTVSPropertyOp16
 70
     1
102
RTVSPropertyOp17
 70
     1
102
RTVSPropertyOp18
 70
     1
102
RTVSPropertyOp19
 70
     1
102
RTVSPropertyOp20
 70
     1
102
RTVSPropertyOp21
 70
     1
102
RTVSPropertyOp22
 70
     1
102
RTVSPropertyOp23
 70
     1
102
RTVSPropertyOp24
 70
     1
102
RTVSPropertyOp25
 70
     1
102
RTVSPropertyOp26
 70
     1
102
RTVSPropertyOp27
 70
     1
102
RTVSPropertyOp28
 70
     1
102
RTVSPropertyOp29
 70
     1
102
RTVSPropertyOp30
 70
     1
102
RTVSPropertyOp31
 70
     1
102
RTVSPropertyOp32
 70
     1
  0
XRECORD
  5
45A
102
{ACAD_REACTORS
330
459
102
}
330
459
100
AcDbXrecord
280
     1
102
RTVSPropertyOp0
 70
     1
102
RTVSPropertyOp1
 70
     1
102
RTVSPropertyOp2
 70
     1
102
RTVSPropertyOp3
 70
     1
102
RTVSPropertyOp4
 70
     1
102
RTVSPropertyOp5
 70
     1
102
RTVSPropertyOp6
 70
     1
102
RTVSPropertyOp7
 70
     1
102
RTVSPropertyOp8
 70
     1
102
RTVSPropertyOp9
 70
     1
102
RTVSPropertyOp10
 70
     1
102
RTVSPropertyOp11
 70
     1
102
RTVSPropertyOp12
 70
     1
102
RTVSPropertyOp13
 70
     1
102
RTVSPropertyOp14
 70
     1
102
RTVSPropertyOp15
 70
     1
102
RTVSPropertyOp16
 70
     1
102
RTVSPropertyOp17
 70
     1
102
RTVSPropertyOp18
 70
     1
102
RTVSPropertyOp19
 70
     1
102
RTVSPropertyOp20
 70
     1
102
RTVSPropertyOp21
 70
     1
102
RTVSPropertyOp22
 70
     1
102
RTVSPropertyOp23
 70
     1
102
RTVSPropertyOp24
 70
     1
102
RTVSPropertyOp25
 70
     1
102
RTVSPropertyOp26
 70
     1
102
RTVSPropertyOp27
 70
     1
102
RTVSPropertyOp28
 70
     1
102
RTVSPropertyOp29
 70
     1
102
RTVSPropertyOp30
 70
     1
102
RTVSPropertyOp31
 70
     1
102
RTVSPropertyOp32
 70
     1
  0
XRECORD
  5
44E
102
{ACAD_REACTORS
330
44D
102
}
330
44D
100
AcDbXrecord
280
     1
102
RTVSPropertyOp0
 70
     1
102
RTVSPropertyOp1
 70
     1
102
RTVSPropertyOp2
 70
     1
102
RTVSPropertyOp3
 70
     1
102
RTVSPropertyOp4
 70
     1
102
RTVSPropertyOp5
 70
     1
102
RTVSPropertyOp6
 70
     1
102
RTVSPropertyOp7
 70
     1
102
RTVSPropertyOp8
 70
     1
102
RTVSPropertyOp9
 70
     1
102
RTVSPropertyOp10
 70
     1
102
RTVSPropertyOp11
 70
     1
102
RTVSPropertyOp12
 70
     1
102
RTVSPropertyOp13
 70
     1
102
RTVSPropertyOp14
 70
     1
102
RTVSPropertyOp15
 70
     1
102
RTVSPropertyOp16
 70
     1
102
RTVSPropertyOp17
 70
     1
102
RTVSPropertyOp18
 70
     1
102
RTVSPropertyOp19
 70
     1
102
RTVSPropertyOp20
 70
     1
102
RTVSPropertyOp21
 70
     1
102
RTVSPropertyOp22
 70
     1
102
RTVSPropertyOp23
 70
     1
102
RTVSPropertyOp24
 70
     1
102
RTVSPropertyOp25
 70
     1
102
RTVSPropertyOp26
 70
     1
102
RTVSPropertyOp27
 70
     1
102
RTVSPropertyOp28
 70
     1
102
RTVSPropertyOp29
 70
     1
102
RTVSPropertyOp30
 70
     1
102
RTVSPropertyOp31
 70
     1
102
RTVSPropertyOp32
 70
     1
  0
XRECORD
  5
450
102
{ACAD_REACTORS
330
44F
102
}
330
44F
100
AcDbXrecord
280
     1
102
RTVSPropertyOp0
 70
     1
102
RTVSPropertyOp1
 70
     1
102
RTVSPropertyOp2
 70
     1
102
RTVSPropertyOp3
 70
     1
102
RTVSPropertyOp4
 70
     1
102
RTVSPropertyOp5
 70
     1
102
RTVSPropertyOp6
 70
     1
102
RTVSPropertyOp7
 70
     1
102
RTVSPropertyOp8
 70
     1
102
RTVSPropertyOp9
 70
     1
102
RTVSPropertyOp10
 70
     1
102
RTVSPropertyOp11
 70
     1
102
RTVSPropertyOp12
 70
     1
102
RTVSPropertyOp13
 70
     1
102
RTVSPropertyOp14
 70
     1
102
RTVSPropertyOp15
 70
     1
102
RTVSPropertyOp16
 70
     1
102
RTVSPropertyOp17
 70
     1
102
RTVSPropertyOp18
 70
     1
102
RTVSPropertyOp19
 70
     1
102
RTVSPropertyOp20
 70
     1
102
RTVSPropertyOp21
 70
     1
102
RTVSPropertyOp22
 70
     1
102
RTVSPropertyOp23
 70
     1
102
RTVSPropertyOp24
 70
     1
102
RTVSPropertyOp25
 70
     1
102
RTVSPropertyOp26
 70
     1
102
RTVSPropertyOp27
 70
     1
102
RTVSPropertyOp28
 70
     1
102
RTVSPropertyOp29
 70
     1
102
RTVSPropertyOp30
 70
     1
102
RTVSPropertyOp31
 70
     1
102
RTVSPropertyOp32
 70
     1
  0
XRECORD
  5
458
102
{ACAD_REACTORS
330
457
102
}
330
457
100
AcDbXrecord
280
     1
102
RTVSPropertyOp0
 70
     1
102
RTVSPropertyOp1
 70
     1
102
RTVSPropertyOp2
 70
     1
102
RTVSPropertyOp3
 70
     1
102
RTVSPropertyOp4
 70
     1
102
RTVSPropertyOp5
 70
     1
102
RTVSPropertyOp6
 70
     1
102
RTVSPropertyOp7
 70
     1
102
RTVSPropertyOp8
 70
     1
102
RTVSPropertyOp9
 70
     1
102
RTVSPropertyOp10
 70
     1
102
RTVSPropertyOp11
 70
     1
102
RTVSPropertyOp12
 70
     1
102
RTVSPropertyOp13
 70
     1
102
RTVSPropertyOp14
 70
     1
102
RTVSPropertyOp15
 70
     1
102
RTVSPropertyOp16
 70
     1
102
RTVSPropertyOp17
 70
     1
102
RTVSPropertyOp18
 70
     1
102
RTVSPropertyOp19
 70
     1
102
RTVSPropertyOp20
 70
     1
102
RTVSPropertyOp21
 70
     1
102
RTVSPropertyOp22
 70
     1
102
RTVSPropertyOp23
 70
     1
102
RTVSPropertyOp24
 70
     1
102
RTVSPropertyOp25
 70
     1
102
RTVSPropertyOp26
 70
     1
102
RTVSPropertyOp27
 70
     1
102
RTVSPropertyOp28
 70
     1
102
RTVSPropertyOp29
 70
     1
102
RTVSPropertyOp30
 70
     1
102
RTVSPropertyOp31
 70
     1
102
RTVSPropertyOp32
 70
     1
  0
XRECORD
  5
43C
102
{ACAD_REACTORS
330
43B
102
}
330
43B
100
AcDbXrecord
280
     1
102
RTVSPropertyOp0
 70
     1
102
RTVSPropertyOp1
 70
     1
102
RTVSPropertyOp2
 70
     1
102
RTVSPropertyOp3
 70
     1
102
RTVSPropertyOp4
 70
     1
102
RTVSPropertyOp5
 70
     1
102
RTVSPropertyOp6
 70
     1
102
RTVSPropertyOp7
 70
     1
102
RTVSPropertyOp8
 70
     1
102
RTVSPropertyOp9
 70
     1
102
RTVSPropertyOp10
 70
     1
102
RTVSPropertyOp11
 70
     1
102
RTVSPropertyOp12
 70
     1
102
RTVSPropertyOp13
 70
     1
102
RTVSPropertyOp14
 70
     1
102
RTVSPropertyOp15
 70
     1
102
RTVSPropertyOp16
 70
     1
102
RTVSPropertyOp17
 70
     1
102
RTVSPropertyOp18
 70
     1
102
RTVSPropertyOp19
 70
     1
102
RTVSPropertyOp20
 70
     1
102
RTVSPropertyOp21
 70
     1
102
RTVSPropertyOp22
 70
     1
102
RTVSPropertyOp23
 70
     1
102
RTVSPropertyOp24
 70
     1
102
RTVSPropertyOp25
 70
     1
102
RTVSPropertyOp26
 70
     1
102
RTVSPropertyOp27
 70
     1
102
RTVSPropertyOp28
 70
     1
102
RTVSPropertyOp29
 70
     1
102
RTVSPropertyOp30
 70
     1
102
RTVSPropertyOp31
 70
     1
102
RTVSPropertyOp32
 70
     1
  0
XRECORD
  5
43E
102
{ACAD_REACTORS
330
43D
102
}
330
43D
100
AcDbXrecord
280
     1
102
RTVSPropertyOp0
 70
     1
102
RTVSPropertyOp1
 70
     1
102
RTVSPropertyOp2
 70
     1
102
RTVSPropertyOp3
 70
     1
102
RTVSPropertyOp4
 70
     1
102
RTVSPropertyOp5
 70
     1
102
RTVSPropertyOp6
 70
     1
102
RTVSPropertyOp7
 70
     1
102
RTVSPropertyOp8
 70
     1
102
RTVSPropertyOp9
 70
     1
102
RTVSPropertyOp10
 70
     1
102
RTVSPropertyOp11
 70
     1
102
RTVSPropertyOp12
 70
     1
102
RTVSPropertyOp13
 70
     1
102
RTVSPropertyOp14
 70
     1
102
RTVSPropertyOp15
 70
     1
102
RTVSPropertyOp16
 70
     1
102
RTVSPropertyOp17
 70
     1
102
RTVSPropertyOp18
 70
     1
102
RTVSPropertyOp19
 70
     1
102
RTVSPropertyOp20
 70
     1
102
RTVSPropertyOp21
 70
     1
102
RTVSPropertyOp22
 70
     1
102
RTVSPropertyOp23
 70
     1
102
RTVSPropertyOp24
 70
     1
102
RTVSPropertyOp25
 70
     1
102
RTVSPropertyOp26
 70
     1
102
RTVSPropertyOp27
 70
     1
102
RTVSPropertyOp28
 70
     1
102
RTVSPropertyOp29
 70
     1
102
RTVSPropertyOp30
 70
     1
102
RTVSPropertyOp31
 70
     1
102
RTVSPropertyOp32
 70
     1
  0
XRECORD
  5
440
102
{ACAD_REACTORS
330
43F
102
}
330
43F
100
AcDbXrecord
280
     1
102
RTVSPropertyOp0
 70
     1
102
RTVSPropertyOp1
 70
     1
102
RTVSPropertyOp2
 70
     1
102
RTVSPropertyOp3
 70
     1
102
RTVSPropertyOp4
 70
     1
102
RTVSPropertyOp5
 70
     1
102
RTVSPropertyOp6
 70
     1
102
RTVSPropertyOp7
 70
     1
102
RTVSPropertyOp8
 70
     1
102
RTVSPropertyOp9
 70
     1
102
RTVSPropertyOp10
 70
     1
102
RTVSPropertyOp11
 70
     1
102
RTVSPropertyOp12
 70
     1
102
RTVSPropertyOp13
 70
     1
102
RTVSPropertyOp14
 70
     1
102
RTVSPropertyOp15
 70
     1
102
RTVSPropertyOp16
 70
     1
102
RTVSPropertyOp17
 70
     1
102
RTVSPropertyOp18
 70
     1
102
RTVSPropertyOp19
 70
     1
102
RTVSPropertyOp20
 70
     1
102
RTVSPropertyOp21
 70
     1
102
RTVSPropertyOp22
 70
     1
102
RTVSPropertyOp23
 70
     1
102
RTVSPropertyOp24
 70
     1
102
RTVSPropertyOp25
 70
     1
102
RTVSPropertyOp26
 70
     1
102
RTVSPropertyOp27
 70
     1
102
RTVSPropertyOp28
 70
     1
102
RTVSPropertyOp29
 70
     1
102
RTVSPropertyOp30
 70
     1
102
RTVSPropertyOp31
 70
     1
102
RTVSPropertyOp32
 70
     1
  0
XRECORD
  5
442
102
{ACAD_REACTORS
330
441
102
}
330
441
100
AcDbXrecord
280
     1
102
RTVSPropertyOp0
 70
     1
102
RTVSPropertyOp1
 70
     1
102
RTVSPropertyOp2
 70
     1
102
RTVSPropertyOp3
 70
     1
102
RTVSPropertyOp4
 70
     1
102
RTVSPropertyOp5
 70
     1
102
RTVSPropertyOp6
 70
     1
102
RTVSPropertyOp7
 70
     1
102
RTVSPropertyOp8
 70
     1
102
RTVSPropertyOp9
 70
     1
102
RTVSPropertyOp10
 70
     1
102
RTVSPropertyOp11
 70
     1
102
RTVSPropertyOp12
 70
     1
102
RTVSPropertyOp13
 70
     1
102
RTVSPropertyOp14
 70
     1
102
RTVSPropertyOp15
 70
     1
102
RTVSPropertyOp16
 70
     1
102
RTVSPropertyOp17
 70
     1
102
RTVSPropertyOp18
 70
     1
102
RTVSPropertyOp19
 70
     1
102
RTVSPropertyOp20
 70
     1
102
RTVSPropertyOp21
 70
     1
102
RTVSPropertyOp22
 70
     1
102
RTVSPropertyOp23
 70
     1
102
RTVSPropertyOp24
 70
     1
102
RTVSPropertyOp25
 70
     1
102
RTVSPropertyOp26
 70
     1
102
RTVSPropertyOp27
 70
     1
102
RTVSPropertyOp28
 70
     1
102
RTVSPropertyOp29
 70
     1
102
RTVSPropertyOp30
 70
     1
102
RTVSPropertyOp31
 70
     1
102
RTVSPropertyOp32
 70
     1
  0
XRECORD
  5
456
102
{ACAD_REACTORS
330
455
102
}
330
455
100
AcDbXrecord
280
     1
102
RTVSPropertyOp0
 70
     1
102
RTVSPropertyOp1
 70
     1
102
RTVSPropertyOp2
 70
     1
102
RTVSPropertyOp3
 70
     1
102
RTVSPropertyOp4
 70
     1
102
RTVSPropertyOp5
 70
     1
102
RTVSPropertyOp6
 70
     1
102
RTVSPropertyOp7
 70
     1
102
RTVSPropertyOp8
 70
     1
102
RTVSPropertyOp9
 70
     1
102
RTVSPropertyOp10
 70
     1
102
RTVSPropertyOp11
 70
     1
102
RTVSPropertyOp12
 70
     1
102
RTVSPropertyOp13
 70
     1
102
RTVSPropertyOp14
 70
     1
102
RTVSPropertyOp15
 70
     1
102
RTVSPropertyOp16
 70
     1
102
RTVSPropertyOp17
 70
     1
102
RTVSPropertyOp18
 70
     1
102
RTVSPropertyOp19
 70
     1
102
RTVSPropertyOp20
 70
     1
102
RTVSPropertyOp21
 70
     1
102
RTVSPropertyOp22
 70
     1
102
RTVSPropertyOp23
 70
     1
102
RTVSPropertyOp24
 70
     1
102
RTVSPropertyOp25
 70
     1
102
RTVSPropertyOp26
 70
     1
102
RTVSPropertyOp27
 70
     1
102
RTVSPropertyOp28
 70
     1
102
RTVSPropertyOp29
 70
     1
102
RTVSPropertyOp30
 70
     1
102
RTVSPropertyOp31
 70
     1
102
RTVSPropertyOp32
 70
     1
  0
XRECORD
  5
44C
102
{ACAD_REACTORS
330
44B
102
}
330
44B
100
AcDbXrecord
280
     1
102
RTVSPropertyOp0
 70
     1
102
RTVSPropertyOp1
 70
     1
102
RTVSPropertyOp2
 70
     1
102
RTVSPropertyOp3
 70
     1
102
RTVSPropertyOp4
 70
     1
102
RTVSPropertyOp5
 70
     1
102
RTVSPropertyOp6
 70
     1
102
RTVSPropertyOp7
 70
     1
102
RTVSPropertyOp8
 70
     1
102
RTVSPropertyOp9
 70
     1
102
RTVSPropertyOp10
 70
     1
102
RTVSPropertyOp11
 70
     1
102
RTVSPropertyOp12
 70
     1
102
RTVSPropertyOp13
 70
     1
102
RTVSPropertyOp14
 70
     1
102
RTVSPropertyOp15
 70
     1
102
RTVSPropertyOp16
 70
     1
102
RTVSPropertyOp17
 70
     1
102
RTVSPropertyOp18
 70
     1
102
RTVSPropertyOp19
 70
     1
102
RTVSPropertyOp20
 70
     1
102
RTVSPropertyOp21
 70
     1
102
RTVSPropertyOp22
 70
     1
102
RTVSPropertyOp23
 70
     1
102
RTVSPropertyOp24
 70
     1
102
RTVSPropertyOp25
 70
     1
102
RTVSPropertyOp26
 70
     1
102
RTVSPropertyOp27
 70
     1
102
RTVSPropertyOp28
 70
     1
102
RTVSPropertyOp29
 70
     1
102
RTVSPropertyOp30
 70
     1
102
RTVSPropertyOp31
 70
     1
102
RTVSPropertyOp32
 70
     1
  0
XRECORD
  5
454
102
{ACAD_REACTORS
330
453
102
}
330
453
100
AcDbXrecord
280
     1
102
RTVSPropertyOp0
 70
     1
102
RTVSPropertyOp1
 70
     1
102
RTVSPropertyOp2
 70
     1
102
RTVSPropertyOp3
 70
     1
102
RTVSPropertyOp4
 70
     1
102
RTVSPropertyOp5
 70
     1
102
RTVSPropertyOp6
 70
     1
102
RTVSPropertyOp7
 70
     1
102
RTVSPropertyOp8
 70
     1
102
RTVSPropertyOp9
 70
     1
102
RTVSPropertyOp10
 70
     1
102
RTVSPropertyOp11
 70
     1
102
RTVSPropertyOp12
 70
     1
102
RTVSPropertyOp13
 70
     1
102
RTVSPropertyOp14
 70
     1
102
RTVSPropertyOp15
 70
     1
102
RTVSPropertyOp16
 70
     1
102
RTVSPropertyOp17
 70
     1
102
RTVSPropertyOp18
 70
     1
102
RTVSPropertyOp19
 70
     1
102
RTVSPropertyOp20
 70
     1
102
RTVSPropertyOp21
 70
     1
102
RTVSPropertyOp22
 70
     1
102
RTVSPropertyOp23
 70
     1
102
RTVSPropertyOp24
 70
     1
102
RTVSPropertyOp25
 70
     1
102
RTVSPropertyOp26
 70
     1
102
RTVSPropertyOp27
 70
     1
102
RTVSPropertyOp28
 70
     1
102
RTVSPropertyOp29
 70
     1
102
RTVSPropertyOp30
 70
     1
102
RTVSPropertyOp31
 70
     1
102
RTVSPropertyOp32
 70
     1
  0
ENDSEC
  0
EOF
