  0
SECTION
  2
HEADER
  9
$ACADVER
  1
AC1009
  9
$INSBASE
 10
0.0
 20
0.0
 30
0.0
  9
$EXTMIN
 10
-70.107019991370393
 20
-37.000000000003851
 30
0.0
  9
$EXTMAX
 10
113.0
 20
85.500000000000014
 30
0.0
  9
$LIMMIN
 10
0.0
 20
0.0
  9
$LIMMAX
 10
297.0
 20
210.0
  9
$ORTHOMODE
 70
     1
  9
$REGENMODE
 70
     1
  9
$FILLMODE
 70
     1
  9
$QTEXTMODE
 70
     0
  9
$MIRRTEXT
 70
     1
  9
$DRAGMODE
 70
     2
  9
$LTSCALE
 40
10.0
  9
$OSMODE
 70
    39
  9
$ATTMODE
 70
     1
  9
$TEXTSIZE
 40
3.0
  9
$TRACEWID
 40
1.0
  9
$TEXTSTYLE
  7
YOKO
  9
$CLAYER
  8
240
  9
$CELTYPE
  6
BYLAYER
  9
$CECOLOR
 62
   256
  9
$DIMSCALE
 40
1.0
  9
$DIMASZ
 40
2.2299999999999991
  9
$DIMEXO
 40
0.5
  9
$DIMDLI
 40
7.0
  9
$DIMRND
 40
0.0
  9
$DIMDLE
 40
0.0
  9
$DIMEXE
 40
1.0
  9
$DIMTP
 40
0.0
  9
$DIMTM
 40
0.01
  9
$DIMTXT
 40
2.799999999999998
  9
$DIMCEN
 40
0.0
  9
$DIMTSZ
 40
0.0
  9
$DIMTOL
 70
     0
  9
$DIMLIM
 70
     0
  9
$DIMTIH
 70
     0
  9
$DIMTOH
 70
     0
  9
$DIMSE1
 70
     0
  9
$DIMSE2
 70
     0
  9
$DIMTAD
 70
     3
  9
$DIMZIN
 70
     9
  9
$DIMBLK
  1
OPEN
  9
$DIMASO
 70
     1
  9
$DIMSHO
 70
     1
  9
$DIMPOST
  1

  9
$DIMAPOST
  1

  9
$DIMALT
 70
     0
  9
$DIMALTD
 70
     2
  9
$DIMALTF
 40
25.399999999999999
  9
$DIMLFAC
 40
1.0
  9
$DIMTOFL
 70
     1
  9
$DIMTVP
 40
0.0
  9
$DIMTIX
 70
     1
  9
$DIMSOXD
 70
     0
  9
$DIMSAH
 70
     0
  9
$DIMBLK1
  1

  9
$DIMBLK2
  1

  9
$DIMSTYLE
  2
BIGT
  9
$DIMCLRD
 70
   256
  9
$DIMCLRE
 70
   256
  9
$DIMCLRT
 70
    40
  9
$DIMTFAC
 40
1.0
  9
$DIMGAP
 40
1.0
  9
$LUNITS
 70
     2
  9
$LUPREC
 70
     6
  9
$SKETCHINC
 40
1.0
  9
$FILLETRAD
 40
0.0
  9
$AUNITS
 70
     0
  9
$AUPREC
 70
     6
  9
$MENU
  1
.
  9
$ELEVATION
 40
0.0
  9
$PELEVATION
 40
0.0
  9
$THICKNESS
 40
0.0
  9
$LIMCHECK
 70
     0
  9
$BLIPMODE
 70
     0
  9
$CHAMFERA
 40
0.2
  9
$CHAMFERB
 40
0.2
  9
$SKPOLY
 70
     0
  9
$TDCREATE
 40
2457837.5535172219
  9
$TDUPDATE
 40
2457840.3597242939
  9
$TDINDWG
 40
0.0184063773
  9
$TDUSRTIMER
 40
0.0184063079
  9
$USRTIMER
 70
     1
  9
$ANGBASE
 50
0.0
  9
$ANGDIR
 70
     0
  9
$PDMODE
 70
     1
  9
$PDSIZE
 40
0.0
  9
$PLINEWID
 40
0.0
  9
$COORDS
 70
     1
  9
$SPLFRAME
 70
     0
  9
$SPLINETYPE
 70
     6
  9
$SPLINESEGS
 70
     4
  9
$ATTDIA
 70
     1
  9
$ATTREQ
 70
     1
  9
$HANDLING
 70
     1
  9
$HANDSEED
  5
46C0
  9
$SURFTAB1
 70
     6
  9
$SURFTAB2
 70
     6
  9
$SURFTYPE
 70
     6
  9
$SURFU
 70
     6
  9
$SURFV
 70
     6
  9
$UCSNAME
  2

  9
$UCSORG
 10
0.0
 20
0.0
 30
0.0
  9
$UCSXDIR
 10
1.0
 20
0.0
 30
0.0
  9
$UCSYDIR
 10
0.0
 20
1.0
 30
0.0
  9
$PUCSNAME
  2

  9
$PUCSORG
 10
0.0
 20
0.0
 30
0.0
  9
$PUCSXDIR
 10
1.0
 20
0.0
 30
0.0
  9
$PUCSYDIR
 10
0.0
 20
1.0
 30
0.0
  9
$USERI1
 70
     1
  9
$USERI2
 70
     0
  9
$USERI3
 70
     0
  9
$USERI4
 70
     0
  9
$USERI5
 70
     0
  9
$USERR1
 40
0.0
  9
$USERR2
 40
0.0
  9
$USERR3
 40
0.0
  9
$USERR4
 40
0.0
  9
$USERR5
 40
0.0
  9
$WORLDVIEW
 70
     1
  9
$SHADEDGE
 70
     3
  9
$SHADEDIF
 70
    70
  9
$TILEMODE
 70
     1
  9
$MAXACTVP
 70
    16
  9
$PLIMCHECK
 70
     0
  9
$PEXTMIN
 10
1.0000000000000000E+020
 20
1.0000000000000000E+020
 30
1.0000000000000000E+020
  9
$PEXTMAX
 10
-1.0000000000000000E+020
 20
-1.0000000000000000E+020
 30
-1.0000000000000000E+020
  9
$PLIMMIN
 10
0.0
 20
0.0
  9
$PLIMMAX
 10
420.0
 20
297.0
  9
$UNITMODE
 70
     0
  9
$VISRETAIN
 70
     1
  9
$PLINEGEN
 70
     0
  9
$PSLTSCALE
 70
     1
  0
ENDSEC
  0
SECTION
  2
TABLES
  0
TABLE
  2
VPORT
 70
     1
  0
VPORT
  2
*ACTIVE
 70
     0
 10
0.0
 20
0.0
 11
1.0
 21
1.0
 12
49.982387550861397
 22
19.741495594134221
 13
0.0
 23
0.0
 14
7.0
 24
7.0
 15
7.0
 25
7.0
 16
0.0
 26
0.0
 36
1.0
 17
0.0
 27
0.0
 37
0.0
 40
185.80664625719541
 41
1.5607886089813801
 42
50.0
 43
0.0
 44
0.0
 50
0.0
 51
0.0
 71
     0
 72
  2000
 73
     1
 74
     0
 75
     0
 76
     1
 77
     0
 78
     0
  0
ENDTAB
  0
TABLE
  2
LTYPE
 70
    20
  0
LTYPE
  2
CONTINUOUS
 70
     0
  3
Solid line
 72
    65
 73
     0
 40
0.0
  0
LTYPE
  2
CENTER2
 70
     0
  3
___ _ ___ _ ___ _ ___ _ ___ _ ___ _ ___ _ ___ _
 72
    65
 73
     4
 40
1.125
 49
0.75
 49
-0.125
 49
0.125
 49
-0.125
  0
LTYPE
  2
HIDDEN2
 70
     0
  3
_ _ _ _ _ _ _ _ _ _ _ _ _ _ _ _ _ _ _ _ _ _ _ _
 72
    65
 73
     2
 40
0.1875
 49
0.125
 49
-0.0625
  0
LTYPE
  2
AM_ISO02W050
 70
     0
  3
__ __ __ __ __ __ __ __ __ __ __ __ __ __ __
 72
    65
 73
     2
 40
7.5
 49
6.0
 49
-1.5
  0
LTYPE
  2
AMCONSTR
 70
     0
  3
_______________________
 72
    65
 73
     2
 40
9999.0
 49
9999.0
 49
0.0
  0
LTYPE
  2
ACISOWELD
 70
     0
  3
_ _ _ _ _
 72
    65
 73
     2
 40
2.0
 49
2.0
 49
-1.0
  0
LTYPE
  2
ACISOTGB
 70
     0
  3
__ . . __ . .
 72
    65
 73
     6
 40
9.0
 49
4.0
 49
-1.0
 49
1.0
 49
-1.0
 49
1.0
 49
-1.0
  0
LTYPE
  2
ACISOTGL
 70
     0
  3
_ _ _ _ _
 72
    65
 73
     2
 40
3.0
 49
2.0
 49
-1.0
  0
LTYPE
  2
AM_ISO08W050
 70
     0
  3
____ . ____ . ____ . ____ . ____ . ____ . ____
 72
    65
 73
     4
 40
18.0
 49
12.0
 49
-1.5
 49
3.0
 49
-1.5
  0
LTYPE
  2
AM_ISO09W050
 70
     0
  3
_____ . . _____ . . _____ . . ____ .. ____
 72
    65
 73
     6
 40
22.5
 49
12.0
 49
-1.5
 49
3.0
 49
-1.5
 49
3.0
 49
-1.5
  0
LTYPE
  2
AM_ISO08W050X2
 70
     0
  3
__ . __ . __ . __ . __ . __
 72
    65
 73
     4
 40
9.0
 49
6.0
 49
-0.75
 49
1.5
 49
-0.75
  0
LTYPE
  2
AM_ISO02W050X2
 70
     0
  3
 _ _ _ _ _ _ _ _ _ _ _ _
 72
    65
 73
     2
 40
3.75
 49
3.0
 49
-0.75
  0
LTYPE
  2
AMZIGZAG
 70
     0
  3
/\/-/\/-/\/-/\/-/\/-/\/
 72
    65
 73
     2
 40
11.0001
 49
0.0001
 49
-11.0
  0
LTYPE
  2
HIDDEN
 70
     0
  3
Hidden __ __ __ __ __ __ __ __ __ __ __ __ __ _
 72
    65
 73
     2
 40
0.375
 49
0.25
 49
-0.125
  0
LTYPE
  2
PHANTOM2
 70
     0
  3
Phantom (.5x) ___ _ _ ___ _ _ ___ _ _ ___ _ _
 72
    65
 73
     6
 40
1.25
 49
0.625
 49
-0.125
 49
0.125
 49
-0.125
 49
0.125
 49
-0.125
  0
LTYPE
  2
CENTER
 70
     0
  3
Center ____ _ ____ _ ____ _ ____ _ ____ _ ____
 72
    65
 73
     4
 40
2.0
 49
1.25
 49
-0.25
 49
0.25
 49
-0.25
  0
LTYPE
  2
AMZIGZAG2
 70
     0
  3
/\/-/\/-/\/-/\/-/\/-/\/
 72
    65
 73
     2
 40
0.4401
 49
0.0001
 49
-0.4400000000000001
  0
LTYPE
  2
ACANSTGB
 70
     0
  3
__ . . __ . .
 72
    65
 73
     6
 40
0.35433070866
 49
0.15748031496
 49
-0.03937007874
 49
0.03937007874
 49
-0.03937007874
 49
0.03937007874
 49
-0.03937007874
  0
LTYPE
  2
ACANSTGL
 70
     0
  3
_ _ _ _ _
 72
    65
 73
     2
 40
0.11811023622
 49
0.07874015748
 49
-0.03937007874
  0
ENDTAB
  0
TABLE
  2
LAYER
 70
     8
  0
LAYER
  2
0
 70
     0
 62
     7
  6
CONTINUOUS
  0
LAYER
  2
240
 70
     0
 62
     4
  6
CONTINUOUS
  0
LAYER
  2
DEFPOINTS
 70
     0
 62
     7
  6
CONTINUOUS
  0
LAYER
  2
245
 70
     0
 62
     2
  6
CENTER2
  0
LAYER
  2
241
 70
     0
 62
   211
  6
CONTINUOUS
  0
LAYER
  2
243
 70
     0
 62
   211
  6
HIDDEN2
  0
LAYER
  2
247
 70
     0
 62
    60
  6
CONTINUOUS
  0
LAYER
  2
250
 70
     0
 62
     3
  6
CONTINUOUS
  0
ENDTAB
  0
TABLE
  2
STYLE
 70
     7
  0
STYLE
  2
STANDARD
 70
     0
 40
0.0
 41
1.0
 50
0.0
 71
     0
 42
3.0
  3
romans.shx
  4
extfont.shx
  0
STYLE
  2
ANNOTATIVE
 70
     0
 40
0.0
 41
1.0
 50
0.0
 71
     0
 42
0.2
  3
txt
  4

  0
STYLE
  2
YOKO
 70
     0
 40
0.0
 41
1.0
 50
0.0
 71
     0
 42
3.0
  3
romans.shx
  4
extfont.shx
  0
STYLE
  2
ACISOGDT
 70
     0
 40
0.0
 41
1.0
 50
0.0
 71
     0
 42
3.0
  3
amgdt.shx
  4
extfont.shx
  0
STYLE
  2

 70
     1
 40
0.0
 41
1.0
 50
0.0
 71
     0
 42
3.0
  3
genltshp.shx
  4

  0
STYLE
  2
ACANSTS
 70
     0
 40
0.0
 41
1.0
 50
0.0
 71
     0
 42
3.0
  3
romans.shx
  4
extfont.shx
  0
STYLE
  2
ACANSGDT
 70
     0
 40
0.0
 41
1.0
 50
0.0
 71
     0
 42
3.0
  3
amgdt.shx
  4

  0
ENDTAB
  0
TABLE
  2
VIEW
 70
     0
  0
ENDTAB
  0
TABLE
  2
UCS
 70
     0
  0
ENDTAB
  0
TABLE
  2
APPID
 70
    46
  0
APPID
  2
ACAD
 70
     0
  0
APPID
  2
ACADANNOTATIVE
 70
     0
  0
APPID
  2
GLOBAL
 70
     0
  0
APPID
  2
DETAIL
 70
     0
  0
APPID
  2
GRPNAME
 70
     0
  0
APPID
  2
GPARA
 70
     0
  0
APPID
  2
MCAD_NO_VIS
 70
     0
  0
APPID
  2
ACAD_TEMP_GRAPHIC
 70
     0
  0
APPID
  2
ACATTRIBSERVICES
 70
     0
  0
APPID
  2
GENIUS_GENSCREG_15
 70
     0
  0
APPID
  2
GENIUS_GENODEF_13
 70
     0
  0
APPID
  2
GENIUS_GENOBJ-N-SDF_13
 70
     0
  0
APPID
  2
GENIUS_GENREC_14
 70
     0
  0
APPID
  2
GENIUS_GENOBJ-N-REC_13
 70
     0
  0
APPID
  2
GENIUS_GENDIMSH_14
 70
     0
  0
APPID
  2
GENIUS_GENOBJ-N-DIM_13
 70
     0
  0
APPID
  2
GENIUS_GENDIM_13
 70
     0
  0
APPID
  2
GENIUS_GENDTOL_13
 70
     0
  0
APPID
  2
GENIUS_GENOLIS_13
 70
     0
  0
APPID
  2
GENIUS_GENOENT_13
 70
     0
  0
APPID
  2
GENIUS_GENOBJ-F-FEM_13
 70
     0
  0
APPID
  2
GENIUS_GENOREF_13
 70
     0
  0
APPID
  2
GENIUS_GEFFEM_13
 70
     0
  0
APPID
  2
GENIUS_GEFFEMP_13
 70
     0
  0
APPID
  2
AD_DRAW
 70
     0
  0
APPID
  2
DESIGNERASSEMBLIES
 70
     0
  0
APPID
  2
ACADM_DIM_EDIT
 70
     0
  0
APPID
  2
AMDT_DM_ADJ
 70
     0
  0
APPID
  2
ITEMNAME
 70
     0
  0
APPID
  2
GENIUS_GENOBJ-N-FIL_13
 70
     0
  0
APPID
  2
GENIUS_GENFIL_13
 70
     0
  0
APPID
  2
GENIUS_GENOBJ-N-CHA_13
 70
     0
  0
APPID
  2
ACAECLAYERSTANDARD
 70
     0
  0
APPID
  2
ACAD_NAV_VCDISPLAY
 70
     0
  0
APPID
  2
ACAD_DSTYLE_DIMJAG
 70
     0
  0
APPID
  2
ACAD_DSTYLE_DIMBREAK
 70
     0
  0
APPID
  2
LAYER_SCALE
 70
     0
  0
APPID
  2
ACAD_PSEXT
 70
     0
  0
APPID
  2
ACAD_EXEMPT_FROM_CAD_STANDARDS
 70
     0
  0
APPID
  2
ACAD_DSTYLE_DIMTALN
 70
     0
  0
APPID
  2
ACAD_DSTYLE_DIMINSPECT
 70
     0
  0
APPID
  2
ACAD_MLEADERVER
 70
     0
  0
APPID
  2
ACAD_DSTYLE_DIMARC_LENGTH_
 70
     0
  0
APPID
  2
ACAD_DSTYLE_DIM_LINETYPE
 70
     0
  0
APPID
  2
ACAD_DSTYLE_DIM_EXT1_LINETYPE
 70
     0
  0
APPID
  2
ACAD_DSTYLE_DIM_EXT2_LINETYPE
 70
     0
  0
ENDTAB
  0
TABLE
  2
DIMSTYLE
 70
    16
  0
DIMSTYLE
  2
STANDARD
 70
     0
  3

  4

  5

  6

  7

 40
1.0
 41
0.18
 42
0.0625
 43
0.38
 44
0.18
 45
0.0
 46
0.0
 47
0.0
 48
0.0
140
0.18
141
0.09
142
0.0
143
25.399999999999999
144
1.0
145
0.0
146
1.0
147
0.09
 71
     0
 72
     0
 73
     1
 74
     1
 75
     0
 76
     0
 77
     0
 78
     0
170
     0
171
     2
172
     0
173
     0
174
     0
175
     0
176
     0
177
     0
178
     0
  0
DIMSTYLE
  2
ANNOTATIVE
 70
     0
  3

  4

  5

  6

  7

 40
1.0
 41
0.18
 42
0.0625
 43
0.38
 44
0.18
 45
0.0
 46
0.0
 47
0.0
 48
0.0
140
0.18
141
0.09
142
0.0
143
25.399999999999999
144
1.0
145
0.0
146
1.0
147
0.09
 71
     0
 72
     0
 73
     1
 74
     1
 75
     0
 76
     0
 77
     0
 78
     0
170
     0
171
     2
172
     0
173
     0
174
     0
175
     0
176
     0
177
     0
178
     0
  0
DIMSTYLE
  2
BIGT
 70
     0
  3

  4

  5

  6

  7

 40
1.0
 41
2.2299999999999991
 42
0.5
 43
7.0
 44
1.0
 45
0.0
 46
0.0
 47
0.0
 48
0.01
140
2.799999999999998
141
0.0
142
0.0
143
25.399999999999999
144
1.0
145
0.0
146
1.0
147
1.0
 71
     0
 72
     0
 73
     0
 74
     0
 75
     0
 76
     0
 77
     3
 78
     9
170
     0
171
     2
172
     1
173
     0
174
     1
175
     0
176
   256
177
   256
178
    40
  0
DIMSTYLE
  2
AM_ISO
 70
     0
  3

  4
"
  5

  6

  7

 40
1.0
 41
2.5
 42
1.0
 43
10.0
 44
1.0
 45
0.0
 46
0.0
 47
0.1
 48
0.1
140
3.5
141
0.0
142
0.0
143
0.0393701
144
1.0
145
0.0
146
0.71
147
1.5
 71
     0
 72
     0
 73
     0
 74
     0
 75
     0
 76
     0
 77
     1
 78
     8
170
     0
171
     2
172
     1
173
     0
174
     0
175
     0
176
   256
177
   256
178
     2
  0
DIMSTYLE
  2
AM_ISO$3
 70
     0
  3

  4
"
  5

  6

  7

 40
1.0
 41
2.5
 42
1.0
 43
10.0
 44
1.0
 45
0.0
 46
0.0
 47
0.1
 48
0.1
140
3.5
141
0.0
142
0.0
143
0.0393701
144
1.0
145
0.0
146
0.71
147
1.5
 71
     0
 72
     0
 73
     0
 74
     1
 75
     0
 76
     0
 77
     1
 78
     8
170
     0
171
     2
172
     0
173
     0
174
     0
175
     0
176
   256
177
   256
178
     2
  0
DIMSTYLE
  2
AM_ISO$4
 70
     0
  3

  4
"
  5

  6

  7

 40
1.0
 41
2.5
 42
1.0
 43
10.0
 44
1.0
 45
0.0
 46
0.0
 47
0.1
 48
0.1
140
3.5
141
0.0
142
0.0
143
0.0393701
144
1.0
145
0.0
146
0.71
147
1.5
 71
     0
 72
     0
 73
     0
 74
     1
 75
     0
 76
     0
 77
     1
 78
     8
170
     0
171
     2
172
     0
173
     0
174
     0
175
     0
176
   256
177
   256
178
     2
  0
DIMSTYLE
  2
AM_ISO$6
 70
     0
  3

  4
"
  5

  6

  7

 40
1.0
 41
2.5
 42
1.0
 43
10.0
 44
1.0
 45
0.0
 46
0.0
 47
0.1
 48
0.1
140
3.5
141
0.0
142
0.0
143
0.0393701
144
1.0
145
0.0
146
0.71
147
1.5
 71
     0
 72
     0
 73
     0
 74
     0
 75
     0
 76
     0
 77
     0
 78
     8
170
     0
171
     2
172
     1
173
     0
174
     0
175
     0
176
   256
177
   256
178
     2
  0
DIMSTYLE
  2
AM_ISO$7
 70
     0
  3

  4
"
  5

  6

  7

 40
1.0
 41
2.5
 42
1.0
 43
10.0
 44
1.0
 45
0.0
 46
0.0
 47
0.1
 48
0.1
140
5.0
141
0.0
142
0.0
143
0.0393701
144
1.0
145
0.0
146
0.71
147
1.5
 71
     0
 72
     0
 73
     0
 74
     0
 75
     0
 76
     0
 77
     1
 78
     8
170
     0
171
     2
172
     1
173
     0
174
     0
175
     0
176
   256
177
   256
178
     2
  0
DIMSTYLE
  2
AM_ISO$SF
 70
     0
  3

  4
"
  5

  6

  7

 40
1.0
 41
2.5
 42
1.0
 43
10.0
 44
1.0
 45
0.0
 46
0.0
 47
0.1
 48
0.1
140
3.5
141
0.0
142
0.0
143
0.0393701
144
1.0
145
0.0
146
0.71
147
1.5
 71
     0
 72
     0
 73
     0
 74
     0
 75
     1
 76
     1
 77
     1
 78
     8
170
     0
171
     2
172
     1
173
     0
174
     0
175
     0
176
   256
177
   256
178
     2
  0
DIMSTYLE
  2
AM_ISO$SH
 70
     0
  3

  4
"
  5

  6

  7

 40
1.0
 41
2.5
 42
1.0
 43
10.0
 44
1.0
 45
0.0
 46
0.0
 47
0.1
 48
0.1
140
3.5
141
0.0
142
0.0
143
0.0393701
144
2.0
145
0.0
146
0.71
147
1.5
 71
     0
 72
     0
 73
     0
 74
     0
 75
     1
 76
     1
 77
     1
 78
     8
170
     0
171
     2
172
     1
173
     1
174
     0
175
     0
176
   256
177
   256
178
     2
  0
DIMSTYLE
  2
AM_ANSI
 70
     0
  3

  4
mm
  5

  6

  7

 40
1.0
 41
0.12
 42
0.05
 43
0.5
 44
0.1
 45
0.0
 46
0.0
 47
0.1
 48
0.1
140
0.12
141
0.0
142
0.0
143
25.399999999999999
144
1.0
145
0.0
146
0.71
147
0.06
 71
     0
 72
     0
 73
     1
 74
     1
 75
     0
 76
     0
 77
     0
 78
     7
170
     0
171
     2
172
     0
173
     0
174
     0
175
     0
176
   256
177
   256
178
     2
  0
DIMSTYLE
  2
AM_ANSI$3
 70
     0
  3

  4
mm
  5

  6

  7

 40
1.0
 41
0.12
 42
0.05
 43
0.5
 44
0.1
 45
0.0
 46
0.0
 47
0.1
 48
0.1
140
0.12
141
0.0
142
0.0
143
25.399999999999999
144
1.0
145
0.0
146
0.71
147
0.06
 71
     0
 72
     0
 73
     1
 74
     1
 75
     0
 76
     0
 77
     0
 78
     7
170
     0
171
     2
172
     0
173
     0
174
     0
175
     0
176
   256
177
   256
178
     2
  0
DIMSTYLE
  2
AM_ANSI$4
 70
     0
  3

  4
mm
  5

  6

  7

 40
1.0
 41
0.12
 42
0.05
 43
0.5
 44
0.1
 45
0.0
 46
0.0
 47
0.1
 48
0.1
140
0.12
141
0.0
142
0.0
143
25.399999999999999
144
1.0
145
0.0
146
0.71
147
0.06
 71
     0
 72
     0
 73
     1
 74
     1
 75
     0
 76
     0
 77
     0
 78
     7
170
     0
171
     2
172
     0
173
     0
174
     0
175
     0
176
   256
177
   256
178
     2
  0
DIMSTYLE
  2
AM_ANSI$7
 70
     0
  3

  4
mm
  5

  6

  7

 40
1.0
 41
0.12
 42
0.05
 43
0.5
 44
0.1
 45
0.0
 46
0.0
 47
0.1
 48
0.1
140
0.12
141
0.0
142
0.0
143
25.399999999999999
144
1.0
145
0.0
146
0.71
147
0.06
 71
     0
 72
     0
 73
     1
 74
     1
 75
     0
 76
     0
 77
     0
 78
     7
170
     0
171
     2
172
     0
173
     0
174
     0
175
     0
176
   256
177
   256
178
     2
  0
DIMSTYLE
  2
AM_ANSI$SF
 70
     0
  3

  4
mm
  5

  6

  7

 40
1.0
 41
0.12
 42
0.05
 43
0.5
 44
0.1
 45
0.0
 46
0.0
 47
0.1
 48
0.1
140
0.12
141
0.0
142
0.0
143
25.399999999999999
144
1.0
145
0.0
146
0.71
147
0.06
 71
     0
 72
     0
 73
     1
 74
     1
 75
     1
 76
     1
 77
     0
 78
     7
170
     0
171
     2
172
     0
173
     0
174
     0
175
     0
176
   256
177
   256
178
     2
  0
DIMSTYLE
  2
AM_ANSI$SH
 70
     0
  3

  4
mm
  5

  6
GENAXEH
  7

 40
1.0
 41
0.12
 42
0.05
 43
0.5
 44
0.1
 45
0.0
 46
0.0
 47
0.1
 48
0.1
140
0.12
141
0.0
142
0.0
143
25.399999999999999
144
1.0
145
0.0
146
0.71
147
0.06
 71
     0
 72
     0
 73
     1
 74
     1
 75
     1
 76
     1
 77
     0
 78
     7
170
     0
171
     2
172
     0
173
     1
174
     0
175
     0
176
   256
177
   256
178
     2
  0
ENDTAB
  0
ENDSEC
  0
SECTION
  2
BLOCKS
  0
BLOCK
  8
0
  2
$MODEL_SPACE
 70
     0
 10
0.0
 20
0.0
 30
0.0
  3
$MODEL_SPACE
  1

  0
ENDBLK
  5
4597
  8
0
  0
BLOCK
 67
     1
  8
0
  2
$PAPER_SPACE
 70
     0
 10
0.0
 20
0.0
 30
0.0
  3
$PAPER_SPACE
  1

  0
ENDBLK
  5
4593
 67
     1
  8
0
  0
BLOCK
  8
0
  2
_OPEN
 70
     0
 10
0.0
 20
0.0
 30
0.0
  3
_OPEN
  1

  0
LINE
  5
3E1A
  8
0
  6
BYBLOCK
 62
     0
 10
-1.0
 20
0.1666666666666666
 30
0.0
 11
0.0
 21
0.0
 31
0.0
  0
LINE
  5
3E1B
  8
0
  6
BYBLOCK
 62
     0
 10
-1.0
 20
-0.1666666666666666
 30
0.0
 11
0.0
 21
0.0
 31
0.0
  0
LINE
  5
3E1C
  8
0
  6
BYBLOCK
 62
     0
 10
0.0
 20
0.0
 30
0.0
 11
-1.0
 21
0.0
 31
0.0
  0
ENDBLK
  5
3E1D
  8
0
  0
BLOCK
  8
0
  2
GENAXEH
 70
     0
 10
0.0
 20
0.0
 30
0.0
  3
GENAXEH
  1

  0
LINE
  5
3E45
  8
0
 10
-1.0
 20
0.0
 30
0.0
 11
1.0
 21
0.0
 31
0.0
  0
ENDBLK
  5
3E46
  8
0
  0
BLOCK
  8
0
  2
_ACMFILLEDHALF
 70
     0
 10
0.0
 20
0.0
 30
0.0
  3
_ACMFILLEDHALF
  1

  0
TRACE
  5
4649
  8
240
 62
     0
 10
-0.8
 20
0.0
 30
0.0
 11
-1.0
 21
0.166666666
 31
0.0
 12
0.0
 22
0.0
 32
0.0
 13
0.0
 23
0.0
 33
0.0
  0
LINE
  5
464A
  8
240
 62
     0
 10
-1.0
 20
0.0
 30
0.0
 11
-0.8
 21
0.0
 31
0.0
  0
ENDBLK
  5
4648
  8
0
  0
ENDSEC
  0
SECTION
  2
ENTITIES
  0
LINE
  5
42BB
  8
250
  6
CONTINUOUS
 10
-35.488675134594843
 20
-18.80288414090214
 30
0.0
 11
-34.200000000000031
 21
-17.237499999999919
 31
0.0
  0
LINE
  5
42BC
  8
250
  6
CONTINUOUS
 10
-34.91132486540522
 20
-19.13621747423548
 30
0.0
 11
-34.200000000000031
 21
-17.237499999999919
 31
0.0
  0
LINE
  5
42BD
  8
250
  6
CONTINUOUS
 10
-34.200000000000031
 20
-17.237499999999919
 30
0.0
 11
-35.200000000000031
 21
-18.96955080756878
 31
0.0
  0
LINE
  5
42BE
  8
250
  6
CONTINUOUS
 10
-35.200000000000031
 20
-18.96955080756878
 30
0.0
 11
-41.200575578106353
 21
-29.362852583505941
 31
0.0
1001
ACAD
1000
DSTYLE
1002
{
1070
    41
1040
2.0
1002
}
  0
TEXT
  5
42BF
  8
250
  6
CONTINUOUS
 10
-56.933908911439687
 20
-28.362852583505941
 30
0.0
 40
2.799999999999998
  1
BDV40
  7
YOKO
1001
ITEMNAME
1000
LNSP3
  0
LINE
  5
42C0
  8
250
  6
CONTINUOUS
 10
-41.200575578106353
 20
-29.362852583505941
 30
0.0
 11
-59.200575578106353
 21
-29.362852583505941
 31
0.0
1001
ITEMNAME
1000
LNSP2
  0
LINE
  5
42C1
  8
245
  6
CENTER2
 10
-70.107019991370393
 20
0.0000000000001137
 30
0.0
 11
92.813384311396689
 21
-0.0000000000000568
 31
0.0
  0
LINE
  5
42C2
  8
240
  6
CONTINUOUS
 10
-68.39999999999992
 20
-12.24999999999997
 30
0.0
 11
-68.399999999999864
 21
12.250000000000171
 31
0.0
  0
LINE
  5
42C3
  8
240
  6
CONTINUOUS
 10
-0.0000000000000995
 20
-22.224999999999909
 30
0.0
 11
-68.399999999999935
 21
-12.24999999999997
 31
0.0
  0
LINE
  5
42C4
  8
240
  6
CONTINUOUS
 10
1.0000000000001841
 20
-31.775000000000151
 30
0.0
 11
1.0000000000000411
 21
-22.224999999999909
 31
0.0
  0
LINE
  5
42C5
  8
240
  6
CONTINUOUS
 10
19.09999999999987
 20
-31.7749999999997
 30
0.0
 11
19.10000000000009
 21
-24.75
 31
0.0
  0
LINE
  5
42C6
  8
241
  6
CONTINUOUS
 10
0.0000000000000711
 20
-22.224999999999941
 30
0.0
 11
-0.0000000000000711
 21
22.224999999999969
 31
0.0
  0
LINE
  5
42C7
  8
241
  6
CONTINUOUS
 10
9.1875000000000142
 20
-28.124999999999972
 30
0.0
 11
9.1875000000000409
 21
-21.184088958461221
 31
0.0
  0
LINE
  5
42C8
  8
241
  6
CONTINUOUS
 10
13.0125000000002
 20
-28.124999999999709
 30
0.0
 11
13.01250000000009
 21
-21.184088958461221
 31
0.0
  0
LINE
  5
42C9
  8
240
  6
CONTINUOUS
 10
1.0000000000001841
 20
-31.775000000000151
 30
0.0
 11
7.563729601213609
 21
-31.774999999999949
 31
0.0
  0
LINE
  5
42CA
  8
241
  6
CONTINUOUS
 10
7.563729601213609
 20
-25.834098106959299
 30
0.0
 11
1.000000000000099
 21
-25.834098106959662
 31
0.0
  0
LINE
  5
42CB
  8
240
  6
CONTINUOUS
 10
14.636270398786611
 20
-31.774999999999949
 30
0.0
 11
19.09999999999987
 21
-31.7749999999997
 31
0.0
  0
LINE
  5
42CC
  8
241
  6
CONTINUOUS
 10
14.636270398786611
 20
-25.834098106959299
 30
0.0
 11
19.10000000000009
 21
-25.834098106959299
 31
0.0
  0
LINE
  5
42CD
  8
241
  6
CONTINUOUS
 10
7.563729601213609
 20
-31.774999999999949
 30
0.0
 11
7.5637296012136339
 21
-25.834098106959299
 31
0.0
  0
LINE
  5
42CE
  8
241
  6
CONTINUOUS
 10
14.636270398786611
 20
-31.774999999999949
 30
0.0
 11
14.636270398786611
 21
-25.834098106959299
 31
0.0
  0
LINE
  5
42CF
  8
240
  6
CONTINUOUS
 10
9.1875000000002114
 20
-28.124999999999929
 30
0.0
 11
13.0125000000002
 21
-28.124999999999709
 31
0.0
  0
LINE
  5
42D0
  8
240
  6
CONTINUOUS
 10
9.1874999999999556
 20
-28.962547169475581
 30
0.0
 11
7.563729601213609
 21
-31.774999999999949
 31
0.0
  0
LINE
  5
42D1
  8
240
  6
CONTINUOUS
 10
13.01250000000009
 20
-28.962547169475581
 30
0.0
 11
14.636270398786611
 21
-31.774999999999949
 31
0.0
  0
LINE
  5
42D2
  8
241
  6
CONTINUOUS
 10
7.563729601213609
 20
-25.834098106959299
 30
0.0
 11
9.1875000000000728
 21
-22.284644242168159
 31
0.0
  0
LINE
  5
42D3
  8
241
  6
CONTINUOUS
 10
14.636270398786611
 20
-25.834098106959299
 30
0.0
 11
13.01250000000009
 21
-22.284644242168159
 31
0.0
  0
LINE
  5
42D4
  8
241
  6
CONTINUOUS
 10
19.10000000000009
 20
-18.49999999999994
 30
0.0
 11
1.000000000000099
 21
-18.499999999999911
 31
0.0
  0
LINE
  5
42D5
  8
241
  6
CONTINUOUS
 10
3.7000000000003981
 20
-8.0499999999998693
 30
0.0
 11
19.100000000000051
 21
-8.0500000000000114
 31
0.0
  0
LINE
  5
42D6
  8
241
  6
CONTINUOUS
 10
7.5637296012136339
 20
-18.49999999999994
 30
0.0
 11
7.5637296012136339
 21
-8.0499999999999812
 31
0.0
  0
LINE
  5
42D7
  8
241
  6
CONTINUOUS
 10
14.636270398786611
 20
-18.49999999999994
 30
0.0
 11
14.636270398786611
 21
-8.0499999999999812
 31
0.0
  0
LINE
  5
42D8
  8
241
  6
CONTINUOUS
 10
13.01250000000009
 20
-18.49999999999994
 30
0.0
 11
13.01250000000009
 21
-8.0499999999999812
 31
0.0
  0
LINE
  5
42D9
  8
241
  6
CONTINUOUS
 10
9.1875000000000409
 20
-18.49999999999994
 30
0.0
 11
9.1875000000000409
 21
-8.0499999999999812
 31
0.0
  0
LINE
  5
42DA
  8
241
  6
CONTINUOUS
 10
9.1875000000000728
 20
-21.184088958461221
 30
0.0
 11
13.01250000000009
 21
-21.184088958461221
 31
0.0
  0
LINE
  5
42DB
  8
241
  6
CONTINUOUS
 10
3.7000000000003981
 20
-8.0499999999998693
 30
0.0
 11
1.000000000000099
 21
-10.74999999999997
 31
0.0
  0
LINE
  5
42DD
  8
240
  6
CONTINUOUS
 10
-0.0000000000000995
 20
-22.224999999999909
 30
0.0
 11
1.0
 21
-22.225000000000371
 31
0.0
  0
LINE
  5
42DE
  8
240
  6
CONTINUOUS
 10
9.1874999999999556
 20
-28.962547169475581
 30
0.0
 11
9.1875000000002114
 21
-28.124999999999929
 31
0.0
  0
LINE
  5
42DF
  8
240
  6
CONTINUOUS
 10
13.012499999999431
 20
-28.962547169475581
 30
0.0
 11
13.01249999999918
 21
-28.124999999999929
 31
0.0
  0
LINE
  5
42E0
  8
241
  6
CONTINUOUS
 10
1.0
 20
-22.225000000000371
 30
0.0
 11
1.0000000000000551
 21
22.225000000000389
 31
0.0
  0
LINE
  5
42E1
  8
241
  6
CONTINUOUS
 10
19.10000000000009
 20
-24.75
 30
0.0
 11
19.10000000000008
 21
24.75
 31
0.0
  0
LINE
  5
42E2
  8
240
  6
CONTINUOUS
 10
-0.0000000000000426
 20
22.224999999999969
 30
0.0
 11
-68.399999999999849
 21
12.250000000000171
 31
0.0
  0
LINE
  5
42E3
  8
240
  6
CONTINUOUS
 10
1.000000000000254
 20
31.775000000000151
 30
0.0
 11
1.000000000000099
 21
22.224999999999969
 31
0.0
  0
LINE
  5
42E4
  8
240
  6
CONTINUOUS
 10
19.09999999999998
 20
31.774999999999661
 30
0.0
 11
19.100000000000151
 21
24.75
 31
0.0
  0
LINE
  5
42E5
  8
240
  6
CONTINUOUS
 10
1.000000000000254
 20
31.775000000000151
 30
0.0
 11
7.5637296012136943
 21
31.775000000000009
 31
0.0
  0
LINE
  5
42E6
  8
240
  6
CONTINUOUS
 10
14.63627039878669
 20
31.774999999999949
 30
0.0
 11
19.09999999999998
 21
31.774999999999661
 31
0.0
  0
LINE
  5
42E7
  8
240
  6
CONTINUOUS
 10
9.18750000000027
 20
28.124999999999929
 30
0.0
 11
13.01250000000026
 21
28.124999999999709
 31
0.0
  0
LINE
  5
42E8
  8
240
  6
CONTINUOUS
 10
9.1875000000000142
 20
28.962547169475581
 30
0.0
 11
7.5637296012136943
 21
31.775000000000009
 31
0.0
  0
LINE
  5
42E9
  8
240
  6
CONTINUOUS
 10
13.01250000000014
 20
28.962547169475581
 30
0.0
 11
14.63627039878669
 21
31.774999999999949
 31
0.0
  0
LINE
  5
42EA
  8
241
  6
CONTINUOUS
 10
3.7000000000004269
 20
8.0499999999998977
 30
0.0
 11
19.100000000000101
 21
8.0499999999999812
 31
0.0
  0
LINE
  5
42EB
  8
241
  6
CONTINUOUS
 10
7.5637296012136641
 20
8.0499999999999812
 30
0.0
 11
7.5637296012137503
 21
31.774999999999551
 31
0.0
  0
LINE
  5
42EC
  8
241
  6
CONTINUOUS
 10
14.63627039878663
 20
8.0499999999999527
 30
0.0
 11
14.636270398786721
 21
31.77499999999938
 31
0.0
  0
LINE
  5
42ED
  8
241
  6
CONTINUOUS
 10
13.01250000000012
 20
8.0499999999999812
 30
0.0
 11
13.012500000000371
 21
28.12499999999941
 31
0.0
  0
LINE
  5
42EE
  8
241
  6
CONTINUOUS
 10
9.1875000000000728
 20
8.0499999999999812
 30
0.0
 11
9.1875000000000995
 21
28.12499999999957
 31
0.0
  0
LINE
  5
42EF
  8
241
  6
CONTINUOUS
 10
3.7000000000004269
 20
8.0499999999998977
 30
0.0
 11
1.000000000000127
 21
10.75
 31
0.0
  0
LINE
  5
42F1
  8
240
  6
CONTINUOUS
 10
-0.0000000000000426
 20
22.224999999999969
 30
0.0
 11
1.0000000000000551
 21
22.225000000000389
 31
0.0
  0
LINE
  5
42F2
  8
240
  6
CONTINUOUS
 10
9.1875000000000142
 20
28.962547169475581
 30
0.0
 11
9.18750000000027
 21
28.124999999999929
 31
0.0
  0
LINE
  5
42F3
  8
240
  6
CONTINUOUS
 10
13.012499999999489
 20
28.962547169475581
 30
0.0
 11
13.01249999999923
 21
28.124999999999929
 31
0.0
  0
LINE
  5
42F4
  8
247
  6
CONTINUOUS
 10
5.4999999999999689
 20
-15.75
 30
0.0
 11
5.5000000000000284
 21
-11.11538461567002
 31
0.0
  0
LINE
  5
42F5
  8
247
  6
CONTINUOUS
 10
3.000000000000028
 20
-14.954893499987939
 30
0.0
 11
5.0999999999160339
 21
-15.557058810057351
 31
0.0
  0
LINE
  5
42F6
  8
247
  6
CONTINUOUS
 10
3.996153846114026
 20
-14.32515140351901
 30
0.0
 11
3.996153846114026
 21
-15.240536018867029
 31
0.0
  0
ARC
  5
42F7
  8
247
  6
CONTINUOUS
 10
3.3847190672941281
 20
-14.08726340194678
 30
0.0
 40
0.3876715809326743
 50
72.997889675291773
 51
172.92416621851351
  0
ARC
  5
42F8
  8
247
  6
CONTINUOUS
 10
3.3052231310280411
 20
-14.382477556804099
 30
0.0
 40
0.6933047965358768
 50
4.7429368522022122
 51
73.849226273266297
1001
GENIUS_GENOBJ-N-FIL_13
1002
{
1000
OWNER
1000
GEN
1002
}
1001
GENIUS_GENODEF_13
1002
{
1000
HIER
1070
     0
1002
}
1002
{
1000
MANEDIT
1070
     0
1002
}
1002
{
1000
NOSEL
1070
     0
1002
}
1002
{
1000
BEHIND
1070
     0
1002
}
1002
{
1000
OTHER
1070
     0
1002
}
1002
{
1000
REACTOR
1002
}
  0
LINE
  5
42F9
  8
247
  6
CONTINUOUS
 10
5.0999999999160339
 20
-14.64167419470934
 30
0.0
 11
5.0999999999160339
 21
-15.557058810057351
 31
0.0
  0
LINE
  5
42FA
  8
247
  6
CONTINUOUS
 10
3.000000000000028
 20
-14.954893499987939
 30
0.0
 11
3.000000000000028
 21
-14.03950888463995
 31
0.0
  0
ARC
  5
42FB
  8
247
  6
CONTINUOUS
 10
4.3874169627679001
 20
-14.378306476266831
 30
0.0
 40
0.394857301075386
 50
65.990941652528889
 51
172.26344345906909
  0
ARC
  5
42FC
  8
247
  6
CONTINUOUS
 10
4.391200327332597
 20
-14.712446610426881
 30
0.0
 40
0.7123241612361686
 50
5.701985164258164
 51
77.277338436822376
1001
GENIUS_GENOBJ-N-FIL_13
1002
{
1000
OWNER
1000
GEN
1002
}
1001
GENIUS_GENODEF_13
1002
{
1000
HIER
1070
     0
1002
}
1002
{
1000
MANEDIT
1070
     0
1002
}
1002
{
1000
NOSEL
1070
     0
1002
}
1002
{
1000
BEHIND
1070
     0
1002
}
1002
{
1000
OTHER
1070
     0
1002
}
1002
{
1000
REACTOR
1002
}
  0
LINE
  5
42FD
  8
247
  6
CONTINUOUS
 10
5.0999999999160339
 20
-13.68398188706337
 30
0.0
 11
3.000000000000028
 21
-13.08181657699396
 31
0.0
  0
LINE
  5
42FE
  8
247
  6
CONTINUOUS
 10
3.000000000000028
 20
-11.58566273090795
 30
0.0
 11
3.000000000000028
 21
-11.98167836430356
 31
0.0
  0
LINE
  5
42FF
  8
247
  6
CONTINUOUS
 10
5.0999999999160339
 20
-12.60873965394395
 30
0.0
 11
5.0999999999160339
 21
-12.17797042319196
 31
0.0
  0
ARC
  5
4300
  8
247
  6
CONTINUOUS
 10
4.458299595083389
 20
-11.381816577069941
 30
0.0
 40
1.576855057639547
 50
202.35948814152911
 51
254.99324854284609
  0
ARC
  5
4301
  8
247
  6
CONTINUOUS
 10
3.5658188585381629
 20
-11.847511366133199
 30
0.0
 40
0.6234706797009447
 50
94.994589319075317
 51
155.1663289573039
1001
GENIUS_GENOBJ-N-FIL_13
1002
{
1000
OWNER
1000
GEN
1002
}
1001
GENIUS_GENODEF_13
1002
{
1000
HIER
1070
     0
1002
}
1002
{
1000
MANEDIT
1070
     0
1002
}
1002
{
1000
NOSEL
1070
     0
1002
}
1002
{
1000
BEHIND
1070
     0
1002
}
1002
{
1000
OTHER
1070
     0
1002
}
1002
{
1000
REACTOR
1002
}
  0
ARC
  5
4302
  8
247
  6
CONTINUOUS
 10
4.1621021219694683
 20
-12.44418395103278
 30
0.0
 40
0.9749472149106983
 50
15.8460965557808
 51
82.325137004169065
  0
ARC
  5
4303
  8
247
  6
CONTINUOUS
 10
4.371470401971095
 20
-12.035211638772211
 30
0.0
 40
0.9271945638692009
 50
249.7136016704969
 51
321.78874565640928
1001
GENIUS_GENOBJ-N-FIL_13
1002
{
1000
OWNER
1000
GEN
1002
}
1001
GENIUS_GENODEF_13
1002
{
1000
HIER
1070
     0
1002
}
1002
{
1000
MANEDIT
1070
     0
1002
}
1002
{
1000
NOSEL
1070
     0
1002
}
1002
{
1000
BEHIND
1070
     0
1002
}
1002
{
1000
OTHER
1070
     0
1002
}
1002
{
1000
REACTOR
1002
}
  0
LINE
  5
4304
  8
247
  6
CONTINUOUS
 10
4.2923076922560011
 20
-11.962585807815939
 30
0.0
 11
4.2923076922560011
 21
-11.47797042321994
 31
0.0
  0
ARC
  5
4305
  8
247
  6
CONTINUOUS
 10
4.2500000000000284
 20
-15.75
 30
0.0
 40
1.25
 50
180.0
 51
0.0
  0
LINE
  5
4306
  8
247
  6
CONTINUOUS
 10
3.000000000000028
 20
-15.75
 30
0.0
 11
3.000000000000028
 21
-15.30384615391401
 31
0.0
  0
ARC
  5
4307
  8
247
  6
CONTINUOUS
 10
4.2500000000000284
 20
-11.11538461567002
 30
0.0
 40
1.25
 50
0.0
 51
180.0
  0
LINE
  5
4331
  8
240
  6
CONTINUOUS
 10
19.10000000000009
 20
-24.75
 30
0.0
 11
34.999999999999631
 21
-24.75
 31
0.0
  0
LINE
  5
4332
  8
240
  6
CONTINUOUS
 10
19.100000000000151
 20
24.75
 30
0.0
 11
34.999999999999559
 21
24.749999999999972
 31
0.0
  0
LINE
  5
4333
  8
240
  6
CONTINUOUS
 10
89.999999999999545
 20
29.454052815939221
 30
0.0
 11
90.000000000000213
 21
-29.4540528159391
 31
0.0
  0
LINE
  5
4335
  8
240
  6
CONTINUOUS
 10
59.431111959541767
 20
37.00000000000356
 30
0.0
 11
42.072540797573041
 21
37.000000000000973
 31
0.0
  0
LINE
  5
4336
  8
240
  6
CONTINUOUS
 10
34.999999999999559
 20
24.749999999999972
 30
0.0
 11
42.072540797573041
 21
37.000000000000973
 31
0.0
  0
LINE
  5
4337
  8
240
  6
CONTINUOUS
 10
89.999999999999545
 20
29.454052815939221
 30
0.0
 11
78.257365318613154
 21
31.00000000000006
 31
0.0
  0
LINE
  5
4338
  8
240
  6
CONTINUOUS
 10
78.257365318613154
 20
31.00000000000006
 30
0.0
 11
67.999999999999417
 21
31.00000000000006
 31
0.0
  0
LINE
  5
4339
  8
240
  6
CONTINUOUS
 10
59.431111959541767
 20
37.00000000000356
 30
0.0
 11
67.999999999999417
 21
31.00000000000006
 31
0.0
  0
LINE
  5
433A
  8
241
  6
CONTINUOUS
 10
34.999999999999773
 20
-24.75
 30
0.0
 11
35.000000000000128
 21
24.749999999999961
 31
0.0
  0
LINE
  5
433B
  8
240
  6
CONTINUOUS
 10
34.999999999999631
 20
-24.75
 30
0.0
 11
42.072540797573218
 21
-37.000000000001137
 31
0.0
  0
LINE
  5
433C
  8
241
  6
CONTINUOUS
 10
42.043673284113581
 20
-36.950000000000848
 30
0.0
 11
42.043673284113673
 21
36.950000000001161
 31
0.0
  0
LINE
  5
433D
  8
240
  6
CONTINUOUS
 10
90.000000000000213
 20
-29.4540528159391
 30
0.0
 11
78.257365318613154
 21
-30.99999999999994
 31
0.0
  0
LINE
  5
433E
  8
240
  6
CONTINUOUS
 10
78.257365318613154
 20
-30.99999999999994
 30
0.0
 11
67.999999999999432
 21
-31.0
 31
0.0
  0
LINE
  5
433F
  8
241
  6
CONTINUOUS
 10
78.257365318613154
 20
-30.99999999999994
 30
0.0
 11
78.257365318613154
 21
31.00000000000006
 31
0.0
  0
LINE
  5
4340
  8
240
  6
CONTINUOUS
 10
59.431111959541397
 20
-37.000000000003851
 30
0.0
 11
67.999999999999432
 21
-31.0
 31
0.0
  0
LINE
  5
4341
  8
241
  6
CONTINUOUS
 10
68.000000000000384
 20
30.999999999999371
 30
0.0
 11
67.999999999999488
 21
-31.000000000000011
 31
0.0
  0
LINE
  5
4342
  8
241
  6
CONTINUOUS
 10
59.431111959541781
 20
-37.000000000003602
 30
0.0
 11
59.431111959541902
 21
37.00000000000346
 31
0.0
  0
LINE
  5
4363
  8
240
  6
CONTINUOUS
 10
59.431111959541397
 20
-37.000000000003851
 30
0.0
 11
42.072540797573218
 21
-37.000000000001137
 31
0.0
  0
TEXT
  5
4382
  8
241
  6
CONTINUOUS
 10
-65.40000000000002
 20
80.500000000000014
 30
0.0
 40
5.0
  1
BDV40-HDC31-90
  7
YOKO
 11
-65.40000000000002
 21
80.500000000000014
 31
0.0
 73
     1
  0
TEXT
  5
4385
  8
250
  6
CONTINUOUS
 10
44.940859193207089
 20
51.77438069445877
 30
0.0
 40
3.0
  1
Screw
  7
YOKO
 11
44.940859193207089
 21
51.77438069445877
 31
0.0
 73
     1
  0
LINE
  5
4386
  8
250
  6
CONTINUOUS
 10
0.0000000000000853
 20
22.725000000000161
 30
0.0
 11
0.0000000000000876
 21
60.164070728399821
 31
0.0
  0
LINE
  5
4388
  8
250
  6
CONTINUOUS
 10
2.000000000000087
 20
59.164070728399842
 30
0.0
 11
89.999999999995424
 21
59.164070728399842
 31
0.0
  0
LINE
  5
438C
  8
250
  6
CONTINUOUS
 10
-1.000000000000923
 20
14.25000000000052
 30
0.0
 11
-1.000000000000919
 21
67.500000000000043
 31
0.0
  0
LINE
  5
438D
  8
250
  6
CONTINUOUS
 10
89.999999999995424
 20
29.719794203543021
 30
0.0
 11
89.999999999995424
 21
67.500000000000043
 31
0.0
  0
LINE
  5
438E
  8
250
  6
CONTINUOUS
 10
0.9999999999990796
 20
66.500000000000043
 30
0.0
 11
89.999999999995424
 21
66.500000000000014
 31
0.0
  0
LINE
  5
4392
  8
250
  6
CONTINUOUS
 10
90.49999999999531
 20
-15.50000000000027
 30
0.0
 11
106.0
 21
-15.500000000000281
 31
0.0
  0
LINE
  5
4393
  8
250
  6
CONTINUOUS
 10
90.49999999999531
 20
15.500000000000201
 30
0.0
 11
106.0
 21
15.500000000000201
 31
0.0
  0
LINE
  5
4394
  8
250
  6
CONTINUOUS
 10
105.0
 20
-13.500000000000281
 30
0.0
 11
105.0
 21
13.500000000000201
 31
0.0
  0
TEXT
  5
4399
  8
250
  6
CONTINUOUS
 10
104.0
 20
-3.5333333333333559
 30
0.0
 40
2.799999999999998
  1
\U+2205
 50
90.0
  0
TEXT
  5
439A
  8
250
  6
CONTINUOUS
 10
104.0
 20
-1.0000000000000231
 30
0.0
 40
2.799999999999998
  1
31
 50
90.0
  0
LINE
  5
439C
  8
250
  6
CONTINUOUS
 10
104.6666666666666
 20
13.500000000000201
 30
0.0
 11
105.0
 21
15.500000000000201
 31
0.0
  0
LINE
  5
439D
  8
250
  6
CONTINUOUS
 10
105.3333333333333
 20
13.500000000000201
 30
0.0
 11
105.0
 21
15.500000000000201
 31
0.0
  0
LINE
  5
439E
  8
250
  6
CONTINUOUS
 10
105.0
 20
15.500000000000201
 30
0.0
 11
105.0
 21
13.500000000000201
 31
0.0
  0
LINE
  5
439F
  8
250
  6
CONTINUOUS
 10
105.3333333333333
 20
-13.500000000000281
 30
0.0
 11
105.0
 21
-15.500000000000281
 31
0.0
  0
LINE
  5
43A0
  8
250
  6
CONTINUOUS
 10
104.6666666666666
 20
-13.500000000000281
 30
0.0
 11
105.0
 21
-15.500000000000281
 31
0.0
  0
LINE
  5
43A1
  8
250
  6
CONTINUOUS
 10
105.0
 20
-15.500000000000281
 30
0.0
 11
105.0
 21
-13.500000000000281
 31
0.0
  0
TEXT
  5
43A2
  8
250
  6
CONTINUOUS
 10
34.180645564292732
 20
67.500000000000071
 30
0.0
 40
2.799999999999998
  1
(max.91)
  0
LINE
  5
43A3
  8
250
  6
CONTINUOUS
 10
87.999999999995424
 20
66.833333333333371
 30
0.0
 11
89.999999999995424
 21
66.500000000000043
 31
0.0
  0
LINE
  5
43A4
  8
250
  6
CONTINUOUS
 10
87.999999999995424
 20
66.166666666666714
 30
0.0
 11
89.999999999995424
 21
66.500000000000043
 31
0.0
  0
LINE
  5
43A5
  8
250
  6
CONTINUOUS
 10
89.999999999995424
 20
66.500000000000043
 30
0.0
 11
87.999999999995424
 21
66.500000000000043
 31
0.0
  0
LINE
  5
43A6
  8
250
  6
CONTINUOUS
 10
0.99999999999908
 20
66.166666666666714
 30
0.0
 11
-1.000000000000919
 21
66.500000000000043
 31
0.0
  0
LINE
  5
43A7
  8
250
  6
CONTINUOUS
 10
0.99999999999908
 20
66.833333333333371
 30
0.0
 11
-1.000000000000919
 21
66.500000000000043
 31
0.0
  0
LINE
  5
43A8
  8
250
  6
CONTINUOUS
 10
-1.000000000000919
 20
66.500000000000043
 30
0.0
 11
0.99999999999908
 21
66.500000000000043
 31
0.0
  0
TEXT
  5
43A9
  8
250
  6
CONTINUOUS
 10
43.235945886111317
 20
60.164070728399821
 30
0.0
 40
2.799999999999998
  1
90
  0
LINE
  5
43AA
  8
250
  6
CONTINUOUS
 10
87.999999999995424
 20
59.497404061733171
 30
0.0
 11
89.999999999995424
 21
59.164070728399842
 31
0.0
  0
LINE
  5
43AB
  8
250
  6
CONTINUOUS
 10
87.999999999995424
 20
58.8307373950665
 30
0.0
 11
89.999999999995424
 21
59.164070728399842
 31
0.0
  0
LINE
  5
43AC
  8
250
  6
CONTINUOUS
 10
89.999999999995424
 20
59.164070728399842
 30
0.0
 11
87.999999999995424
 21
59.164070728399842
 31
0.0
  0
LINE
  5
43AD
  8
250
  6
CONTINUOUS
 10
2.000000000000087
 20
58.8307373950665
 30
0.0
 11
0.0000000000000876
 21
59.164070728399842
 31
0.0
  0
LINE
  5
43AE
  8
250
  6
CONTINUOUS
 10
2.000000000000087
 20
59.497404061733171
 30
0.0
 11
0.0000000000000876
 21
59.164070728399842
 31
0.0
  0
LINE
  5
43AF
  8
250
  6
CONTINUOUS
 10
0.0000000000000876
 20
59.164070728399842
 30
0.0
 11
2.000000000000087
 21
59.164070728399842
 31
0.0
  0
LINE
  5
43B0
  8
250
  6
CONTINUOUS
 10
51.00000000000022
 20
42.000000000002927
 30
0.0
 11
51.000000000000341
 21
50.263041077937018
 31
0.0
1001
ACAD
1000
DSTYLE
1002
{
1070
    41
1040
2.0
1070
   140
1040
2.799999999999998
1002
}
  0
LINE
  5
43B1
  8
250
  6
CONTINUOUS
 10
51.333333333333542
 20
42.000000000003041
 30
0.0
 11
51.000000000000192
 21
40.00000000000307
 31
0.0
  0
LINE
  5
43B2
  8
250
  6
CONTINUOUS
 10
50.66666666666687
 20
42.000000000003048
 30
0.0
 11
51.000000000000192
 21
40.00000000000307
 31
0.0
  0
LINE
  5
43B3
  8
250
  6
CONTINUOUS
 10
51.000000000000192
 20
40.00000000000307
 30
0.0
 11
51.000000000000199
 21
42.000000000003048
 31
0.0
  0
LINE
  5
4410
  8
243
  6
HIDDEN2
 10
32.222374423058447
 20
15.5000000000004
 30
0.0
 11
90.000000000000057
 21
15.50000000000043
 31
0.0
  0
LINE
  5
4411
  8
243
  6
HIDDEN2
 10
32.222374423058447
 20
-15.499999999999879
 30
0.0
 11
90.000000000000057
 21
-15.500000000000041
 31
0.0
  0
LINE
  5
4412
  8
250
  6
CONTINUOUS
 10
78.757365318613154
 20
31.00000000000006
 30
0.0
 11
113.0
 21
31.00000000000005
 31
0.0
  0
LINE
  5
4413
  8
250
  6
CONTINUOUS
 10
78.757365318613154
 20
-30.99999999999994
 30
0.0
 11
113.0
 21
-30.999999999999961
 31
0.0
  0
LINE
  5
4414
  8
250
  6
CONTINUOUS
 10
112.0
 20
28.770000000000049
 30
0.0
 11
112.0
 21
-28.76999999999995
 31
0.0
  0
TEXT
  5
4418
  8
250
  6
CONTINUOUS
 10
111.0
 20
-3.9333333333332661
 30
0.0
 40
2.799999999999998
  1
\U+220562
 50
90.0
  0
LINE
  5
4419
  8
250
  6
CONTINUOUS
 10
112.3716666666666
 20
-28.76999999999995
 30
0.0
 11
112.0
 21
-30.999999999999961
 31
0.0
  0
LINE
  5
441A
  8
250
  6
CONTINUOUS
 10
111.6283333333333
 20
-28.76999999999995
 30
0.0
 11
112.0
 21
-30.999999999999961
 31
0.0
  0
LINE
  5
441B
  8
250
  6
CONTINUOUS
 10
112.0
 20
-30.999999999999961
 30
0.0
 11
112.0
 21
-28.76999999999995
 31
0.0
  0
LINE
  5
441C
  8
250
  6
CONTINUOUS
 10
111.6283333333333
 20
28.770000000000049
 30
0.0
 11
112.0
 21
31.00000000000005
 31
0.0
  0
LINE
  5
441D
  8
250
  6
CONTINUOUS
 10
112.3716666666666
 20
28.770000000000049
 30
0.0
 11
112.0
 21
31.00000000000005
 31
0.0
  0
LINE
  5
441E
  8
250
  6
CONTINUOUS
 10
112.0
 20
31.00000000000005
 30
0.0
 11
112.0
 21
28.770000000000049
 31
0.0
  0
VIEWPORT
  5
22
 67
     1
  8
0
 10
261.51769911504419
 20
148.5
 30
0.0
 40
523.0353982300885
 41
297.0
 68
     1
 69
     1
1001
ACAD
1000
MVIEW
1002
{
1070
    16
1010
0.0
1020
0.0
1030
0.0
1010
0.0
1020
0.0
1030
1.0
1040
0.0
1040
297.0
1040
261.51769911504419
1040
148.5
1040
50.0
1040
0.0
1040
0.0
1070
     0
1070
   100
1070
     1
1070
     1
1070
     0
1070
     0
1070
     0
1070
     0
1040
0.0
1040
0.0
1040
0.0
1040
1.0
1040
1.0
1040
10.0
1040
10.0
1070
     0
1002
{
1002
}
1002
}
1001
GENIUS_GENODEF_13
1002
{
1000
HIER
1070
     0
1002
}
1002
{
1000
MANEDIT
1070
     0
1002
}
1002
{
1000
NOSEL
1070
     0
1002
}
1002
{
1000
BEHIND
1070
     0
1002
}
1002
{
1000
OTHER
1070
     0
1002
}
1002
{
1000
REACTOR
1002
}
1001
GENIUS_GENOBJ-N-SDF_13
1002
{
1000
OWNER
1000
GEN
1002
}
1001
GENIUS_GENSCREG_15
1000
PF
1040
1.0
1000
DF
1040
1.0
1000
MIN
1011
0.0
1021
0.0
1031
-0.0
1021
0.0
1031
0.0
1000
MAX
1011
523.0353982300885
1021
0.0
1031
-0.0
1021
297.0
1031
0.0
1000
FLAGS
1070
     4
  0
ENDSEC
  0
EOF
