  0
SECTION
  2
HEADER
  9
$ACADVER
  1
AC1009
  9
$INSBASE
 10
0.0
 20
0.0
 30
0.0
  9
$EXTMIN
 10
-69.400000000000006
 20
-31.774999999999999
 30
0.0
  9
$EXTMAX
 10
62.223455400000951
 20
61.0
 30
0.0
  9
$LIMMIN
 10
0.0
 20
0.0
  9
$LIMMAX
 10
420.0
 20
297.0
  9
$ORTHOMODE
 70
     0
  9
$REGENMODE
 70
     1
  9
$FILLMODE
 70
     1
  9
$QTEXTMODE
 70
     0
  9
$MIRRTEXT
 70
     1
  9
$DRAGMODE
 70
     2
  9
$LTSCALE
 40
10.0
  9
$OSMODE
 70
    47
  9
$ATTMODE
 70
     1
  9
$TEXTSIZE
 40
3.0
  9
$TRACEWID
 40
1.0
  9
$TEXTSTYLE
  7
YOKO
  9
$CLAYER
  8
240
  9
$CELTYPE
  6
BYLAYER
  9
$CECOLOR
 62
   256
  9
$DIMSCALE
 40
1.0
  9
$DIMASZ
 40
2.0
  9
$DIMEXO
 40
0.5
  9
$DIMDLI
 40
2.5
  9
$DIMRND
 40
0.0
  9
$DIMDLE
 40
0.0
  9
$DIMEXE
 40
1.0
  9
$DIMTP
 40
0.0
  9
$DIMTM
 40
0.0
  9
$DIMTXT
 40
2.799999999999998
  9
$DIMCEN
 40
0.0
  9
$DIMTSZ
 40
0.0
  9
$DIMTOL
 70
     0
  9
$DIMLIM
 70
     0
  9
$DIMTIH
 70
     0
  9
$DIMTOH
 70
     0
  9
$DIMSE1
 70
     0
  9
$DIMSE2
 70
     0
  9
$DIMTAD
 70
     3
  9
$DIMZIN
 70
     8
  9
$DIMBLK
  1

  9
$DIMASO
 70
     1
  9
$DIMSHO
 70
     1
  9
$DIMPOST
  1

  9
$DIMAPOST
  1

  9
$DIMALT
 70
     0
  9
$DIMALTD
 70
     2
  9
$DIMALTF
 40
25.399999999999999
  9
$DIMLFAC
 40
1.0
  9
$DIMTOFL
 70
     1
  9
$DIMTVP
 40
0.0
  9
$DIMTIX
 70
     1
  9
$DIMSOXD
 70
     0
  9
$DIMSAH
 70
     1
  9
$DIMBLK1
  1
OPEN
  9
$DIMBLK2
  1
OPEN
  9
$DIMSTYLE
  2
BIGT
  9
$DIMCLRD
 70
   256
  9
$DIMCLRE
 70
   256
  9
$DIMCLRT
 70
    40
  9
$DIMTFAC
 40
1.0
  9
$DIMGAP
 40
1.0
  9
$LUNITS
 70
     2
  9
$LUPREC
 70
     3
  9
$SKETCHINC
 40
1.0
  9
$FILLETRAD
 40
1.0
  9
$AUNITS
 70
     0
  9
$AUPREC
 70
     3
  9
$MENU
  1
.
  9
$ELEVATION
 40
0.0
  9
$PELEVATION
 40
0.0
  9
$THICKNESS
 40
0.0
  9
$LIMCHECK
 70
     0
  9
$BLIPMODE
 70
     0
  9
$CHAMFERA
 40
10.0
  9
$CHAMFERB
 40
10.0
  9
$SKPOLY
 70
     0
  9
$TDCREATE
 40
2455061.5643598032
  9
$TDUPDATE
 40
2460255.7152327891
  9
$TDINDWG
 40
0.0377091898
  9
$TDUSRTIMER
 40
0.0376977199
  9
$USRTIMER
 70
     1
  9
$ANGBASE
 50
0.0
  9
$ANGDIR
 70
     0
  9
$PDMODE
 70
     0
  9
$PDSIZE
 40
-5.0
  9
$PLINEWID
 40
0.0
  9
$COORDS
 70
     1
  9
$SPLFRAME
 70
     0
  9
$SPLINETYPE
 70
     6
  9
$SPLINESEGS
 70
     8
  9
$ATTDIA
 70
     1
  9
$ATTREQ
 70
     1
  9
$HANDLING
 70
     1
  9
$HANDSEED
  5
254A
  9
$SURFTAB1
 70
     6
  9
$SURFTAB2
 70
     6
  9
$SURFTYPE
 70
     6
  9
$SURFU
 70
     6
  9
$SURFV
 70
     6
  9
$UCSNAME
  2

  9
$UCSORG
 10
0.0
 20
0.0
 30
0.0
  9
$UCSXDIR
 10
1.0
 20
0.0
 30
0.0
  9
$UCSYDIR
 10
0.0
 20
1.0
 30
0.0
  9
$PUCSNAME
  2

  9
$PUCSORG
 10
0.0
 20
0.0
 30
0.0
  9
$PUCSXDIR
 10
1.0
 20
0.0
 30
0.0
  9
$PUCSYDIR
 10
0.0
 20
1.0
 30
0.0
  9
$USERI1
 70
     1
  9
$USERI2
 70
     0
  9
$USERI3
 70
     0
  9
$USERI4
 70
     0
  9
$USERI5
 70
     0
  9
$USERR1
 40
0.0
  9
$USERR2
 40
0.0
  9
$USERR3
 40
0.0
  9
$USERR4
 40
0.0
  9
$USERR5
 40
0.0
  9
$WORLDVIEW
 70
     1
  9
$SHADEDGE
 70
     3
  9
$SHADEDIF
 70
    70
  9
$TILEMODE
 70
     1
  9
$MAXACTVP
 70
    16
  9
$PLIMCHECK
 70
     0
  9
$PEXTMIN
 10
1.0000000000000000E+020
 20
1.0000000000000000E+020
 30
1.0000000000000000E+020
  9
$PEXTMAX
 10
-1.0000000000000000E+020
 20
-1.0000000000000000E+020
 30
-1.0000000000000000E+020
  9
$PLIMMIN
 10
0.0
 20
0.0
  9
$PLIMMAX
 10
420.0
 20
297.0
  9
$UNITMODE
 70
     0
  9
$VISRETAIN
 70
     0
  9
$PLINEGEN
 70
     0
  9
$PSLTSCALE
 70
     1
  0
ENDSEC
  0
SECTION
  2
TABLES
  0
TABLE
  2
VPORT
 70
     1
  0
VPORT
  2
*ACTIVE
 70
     0
 10
0.0
 20
0.0
 11
1.0
 21
1.0
 12
4.1900275594113623
 22
7.7887390245640651
 13
0.0
 23
0.0
 14
7.0
 24
7.0
 15
7.0
 25
7.0
 16
0.0
 26
0.0
 36
1.0
 17
0.0
 27
0.0
 37
0.0
 40
138.2470983609995
 41
1.9740932642487039
 42
50.0
 43
0.0
 44
0.0
 50
0.0
 51
0.0
 71
     0
 72
  2000
 73
     1
 74
     0
 75
     0
 76
     1
 77
     0
 78
     0
  0
ENDTAB
  0
TABLE
  2
LTYPE
 70
    18
  0
LTYPE
  2
CONTINUOUS
 70
     0
  3
Solid line
 72
    65
 73
     0
 40
0.0
  0
LTYPE
  2
CENTER2
 70
     0
  3
___ _ ___ _ ___ _ ___ _ ___ _ ___ _ ___ _ ___ _
 72
    65
 73
     4
 40
1.125
 49
0.75
 49
-0.125
 49
0.125
 49
-0.125
  0
LTYPE
  2
HIDDEN2
 70
     0
  3
_ _ _ _ _ _ _ _ _ _ _ _ _ _ _ _ _ _ _ _ _ _ _ _
 72
    65
 73
     2
 40
0.1875
 49
0.125
 49
-0.0625
  0
LTYPE
  2
PHANTOM2
 70
     0
  3
___ _ _ ___ _ _ ___ _ _ ___ _ _ ___ _ _ ___ _ _
 72
    65
 73
     6
 40
1.25
 49
0.625
 49
-0.125
 49
0.125
 49
-0.125
 49
0.125
 49
-0.125
  0
LTYPE
  2
AMCONSTR
 70
     0
  3
_______________________
 72
    65
 73
     2
 40
9999.0
 49
9999.0
 49
0.0
  0
LTYPE
  2
HIDDEN
 70
     0
  3
Hidden __ __ __ __ __ __ __ __ __ __ __ __ __ _
 72
    65
 73
     2
 40
0.375
 49
0.25
 49
-0.125
  0
LTYPE
  2
CENTER
 70
     0
  3
Center ____ _ ____ _ ____ _ ____ _ ____ _ ____
 72
    65
 73
     4
 40
2.0
 49
1.25
 49
-0.25
 49
0.25
 49
-0.25
  0
LTYPE
  2
AMZIGZAG2
 70
     0
  3
/\/-/\/-/\/-/\/-/\/-/\/
 72
    65
 73
     2
 40
0.4401
 49
0.0001
 49
-0.4400000000000003
  0
LTYPE
  2
ACANSTGB
 70
     0
  3
__ . . __ . .
 72
    65
 73
     6
 40
0.35433070866
 49
0.15748031496
 49
-0.03937007874
 49
0.03937007874
 49
-0.03937007874
 49
0.03937007874
 49
-0.03937007874
  0
LTYPE
  2
ACANSTGL
 70
     0
  3
_ _ _ _ _
 72
    65
 73
     2
 40
0.11811023622
 49
0.07874015748
 49
-0.03937007874
  0
ENDTAB
  0
TABLE
  2
LAYER
 70
     9
  0
LAYER
  2
0
 70
     0
 62
     7
  6
CONTINUOUS
  0
LAYER
  2
240
 70
     0
 62
     4
  6
CONTINUOUS
  0
LAYER
  2
241
 70
     0
 62
   211
  6
CONTINUOUS
  0
LAYER
  2
242
 70
     0
 62
     3
  6
CONTINUOUS
  0
LAYER
  2
245
 70
     0
 62
     2
  6
CENTER2
  0
LAYER
  2
250
 70
     0
 62
     3
  6
CONTINUOUS
  0
LAYER
  2
DEFPOINTS
 70
     0
 62
     7
  6
CONTINUOUS
  0
LAYER
  2
243
 70
     0
 62
   211
  6
HIDDEN2
  0
LAYER
  2
247
 70
     0
 62
    60
  6
CONTINUOUS
  0
ENDTAB
  0
TABLE
  2
STYLE
 70
     7
  0
STYLE
  2
STANDARD
 70
     0
 40
0.0
 41
1.0
 50
0.0
 71
     0
 42
3.0
  3
romans.shx
  4
BIGFONT.SHX
  0
STYLE
  2
YOKO
 70
     0
 40
0.0
 41
1.0
 50
0.0
 71
     0
 42
3.0
  3
romans.shx
  4
extfont.shx
  0
STYLE
  2
ACANSGDT
 70
     0
 40
0.0
 41
1.0
 50
0.0
 71
     0
 42
3.0
  3
amgdt.shx
  4

  0
ENDTAB
  0
TABLE
  2
VIEW
 70
     0
  0
ENDTAB
  0
TABLE
  2
UCS
 70
     0
  0
ENDTAB
  0
TABLE
  2
APPID
 70
    44
  0
APPID
  2
ACAD
 70
     0
  0
APPID
  2
ACADANNOTATIVE
 70
     0
  0
APPID
  2
GLOBAL
 70
     0
  0
APPID
  2
DETAIL
 70
     0
  0
APPID
  2
GRPNAME
 70
     0
  0
APPID
  2
GPARA
 70
     0
  0
APPID
  2
DCO15
 70
     0
  0
APPID
  2
ITEMNAME
 70
     0
  0
APPID
  2
GRADE_0
 70
     0
  0
APPID
  2
CONTENTBLOCKICON
 70
     0
  0
APPID
  2
ACAD_PSEXT
 70
     0
  0
APPID
  2
MCAD_NO_VIS
 70
     0
  0
APPID
  2
ACAD_TEMP_GRAPHIC
 70
     0
  0
APPID
  2
ACATTRIBSERVICES
 70
     0
  0
APPID
  2
GENIUS_GENSCREG_15
 70
     0
  0
APPID
  2
GENIUS_GENODEF_13
 70
     0
  0
APPID
  2
GENIUS_GENOBJ-N-SDF_13
 70
     0
  0
APPID
  2
GENIUS_GENREC_14
 70
     0
  0
APPID
  2
GENIUS_GENOBJ-N-REC_13
 70
     0
  0
APPID
  2
GENIUS_GENDIMSH_14
 70
     0
  0
APPID
  2
GENIUS_GENOBJ-N-DIM_13
 70
     0
  0
APPID
  2
GENIUS_GENDIM_13
 70
     0
  0
APPID
  2
GENIUS_GENDTOL_13
 70
     0
  0
APPID
  2
GENIUS_GENOLIS_13
 70
     0
  0
APPID
  2
GENIUS_GENOENT_13
 70
     0
  0
APPID
  2
GENIUS_GENOBJ-F-FEM_13
 70
     0
  0
APPID
  2
GENIUS_GENOREF_13
 70
     0
  0
APPID
  2
GENIUS_GEFFEM_13
 70
     0
  0
APPID
  2
GENIUS_GEFFEMP_13
 70
     0
  0
APPID
  2
AD_DRAW
 70
     0
  0
APPID
  2
DESIGNERASSEMBLIES
 70
     0
  0
APPID
  2
ACADM_DIM_EDIT
 70
     0
  0
APPID
  2
AMDT_DM_ADJ
 70
     0
  0
APPID
  2
GENIUS_GENOBJ-N-FIL_13
 70
     0
  0
APPID
  2
GENIUS_GENFIL_13
 70
     0
  0
APPID
  2
GENIUS_GENOBJ-N-CHA_13
 70
     0
  0
APPID
  2
ACAD_NAV_VCDISPLAY
 70
     0
  0
APPID
  2
ACAECLAYERSTANDARD
 70
     0
  0
APPID
  2
ACAD_EXEMPT_FROM_CAD_STANDARDS
 70
     0
  0
APPID
  2
ACAD_MLEADERVER
 70
     0
  0
APPID
  2
ACAD_DSTYLE_DIMJAG
 70
     0
  0
APPID
  2
ACAD_DSTYLE_DIMBREAK
 70
     0
  0
APPID
  2
ACAD_DSTYLE_DIMINSPECT
 70
     0
  0
APPID
  2
ACAD_SPLINE_DATA
 70
     0
  0
ENDTAB
  0
TABLE
  2
DIMSTYLE
 70
    16
  0
DIMSTYLE
  2
STANDARD
 70
     0
  3

  4

  5

  6

  7

 40
1.0
 41
0.18
 42
0.0625
 43
0.38
 44
0.18
 45
0.0
 46
0.0
 47
0.0
 48
0.0
140
0.18
141
0.09
142
0.0
143
25.399999999999999
144
1.0
145
0.0
146
1.0
147
0.09
 71
     0
 72
     0
 73
     1
 74
     1
 75
     0
 76
     0
 77
     0
 78
     0
170
     0
171
     2
172
     0
173
     0
174
     0
175
     0
176
     0
177
     0
178
     0
  0
DIMSTYLE
  2
BIGT
 70
     0
  3

  4

  5

  6

  7

 40
1.0
 41
2.2299999999999991
 42
0.5
 43
7.0
 44
1.0
 45
0.0
 46
0.0
 47
0.0
 48
0.01
140
2.799999999999998
141
0.0
142
0.0
143
25.399999999999999
144
1.0
145
0.0
146
1.0
147
1.0
 71
     0
 72
     0
 73
     0
 74
     0
 75
     0
 76
     0
 77
     3
 78
     9
170
     0
171
     2
172
     1
173
     0
174
     1
175
     0
176
   256
177
   256
178
    40
  0
DIMSTYLE
  2
AM_ANSI
 70
     0
  3

  4
mm
  5

  6

  7

 40
1.0
 41
0.12
 42
0.05
 43
0.5
 44
0.1
 45
0.0
 46
0.0
 47
0.1
 48
0.1
140
0.12
141
0.0
142
0.0
143
25.399999999999999
144
1.0
145
0.0
146
0.71
147
0.06
 71
     0
 72
     0
 73
     1
 74
     1
 75
     0
 76
     0
 77
     0
 78
     7
170
     0
171
     2
172
     0
173
     0
174
     0
175
     0
176
   256
177
   256
178
     2
  0
DIMSTYLE
  2
AM_ANSI$3
 70
     0
  3

  4
mm
  5

  6

  7

 40
1.0
 41
0.12
 42
0.05
 43
0.5
 44
0.1
 45
0.0
 46
0.0
 47
0.1
 48
0.1
140
0.12
141
0.0
142
0.0
143
25.399999999999999
144
1.0
145
0.0
146
0.71
147
0.06
 71
     0
 72
     0
 73
     1
 74
     1
 75
     0
 76
     0
 77
     0
 78
     7
170
     0
171
     2
172
     0
173
     0
174
     0
175
     0
176
   256
177
   256
178
     2
  0
DIMSTYLE
  2
AM_ANSI$4
 70
     0
  3

  4
mm
  5

  6

  7

 40
1.0
 41
0.12
 42
0.05
 43
0.5
 44
0.1
 45
0.0
 46
0.0
 47
0.1
 48
0.1
140
0.12
141
0.0
142
0.0
143
25.399999999999999
144
1.0
145
0.0
146
0.71
147
0.06
 71
     0
 72
     0
 73
     1
 74
     1
 75
     0
 76
     0
 77
     0
 78
     7
170
     0
171
     2
172
     0
173
     0
174
     0
175
     0
176
   256
177
   256
178
     2
  0
DIMSTYLE
  2
AM_ANSI$7
 70
     0
  3

  4
mm
  5

  6

  7

 40
1.0
 41
0.12
 42
0.05
 43
0.5
 44
0.1
 45
0.0
 46
0.0
 47
0.1
 48
0.1
140
0.12
141
0.0
142
0.0
143
25.399999999999999
144
1.0
145
0.0
146
0.71
147
0.06
 71
     0
 72
     0
 73
     1
 74
     1
 75
     0
 76
     0
 77
     0
 78
     7
170
     0
171
     2
172
     0
173
     0
174
     0
175
     0
176
   256
177
   256
178
     2
  0
DIMSTYLE
  2
AM_ANSI$SF
 70
     0
  3

  4
mm
  5

  6

  7

 40
1.0
 41
0.12
 42
0.05
 43
0.5
 44
0.1
 45
0.0
 46
0.0
 47
0.1
 48
0.1
140
0.12
141
0.0
142
0.0
143
25.399999999999999
144
1.0
145
0.0
146
0.71
147
0.06
 71
     0
 72
     0
 73
     1
 74
     1
 75
     1
 76
     1
 77
     0
 78
     7
170
     0
171
     2
172
     0
173
     0
174
     0
175
     0
176
   256
177
   256
178
     2
  0
DIMSTYLE
  2
AM_ANSI$SH
 70
     0
  3

  4
mm
  5

  6

  7

 40
1.0
 41
0.12
 42
0.05
 43
0.5
 44
0.1
 45
0.0
 46
0.0
 47
0.1
 48
0.1
140
0.12
141
0.0
142
0.0
143
25.399999999999999
144
1.0
145
0.0
146
0.71
147
0.06
 71
     0
 72
     0
 73
     1
 74
     1
 75
     1
 76
     1
 77
     0
 78
     7
170
     0
171
     2
172
     0
173
     1
174
     0
175
     0
176
   256
177
   256
178
     2
  0
ENDTAB
  0
ENDSEC
  0
SECTION
  2
BLOCKS
  0
BLOCK
  8
0
  2
$MODEL_SPACE
 70
     0
 10
0.0
 20
0.0
 30
0.0
  3
$MODEL_SPACE
  1

  0
ENDBLK
  5
2194
  8
0
  0
BLOCK
 67
     1
  8
0
  2
$PAPER_SPACE
 70
     0
 10
0.0
 20
0.0
 30
0.0
  3
$PAPER_SPACE
  1

  0
ENDBLK
  5
2190
 67
     1
  8
0
  0
BLOCK
  8
0
  2
_OPEN
 70
     0
 10
0.0
 20
0.0
 30
0.0
  3
_OPEN
  1

  0
LINE
  5
16B6
  8
0
  6
BYBLOCK
 62
     0
 10
-1.0
 20
0.1666666666666666
 30
0.0
 11
0.0
 21
0.0
 31
0.0
  0
LINE
  5
16B7
  8
0
  6
BYBLOCK
 62
     0
 10
-1.0
 20
-0.1666666666666666
 30
0.0
 11
0.0
 21
0.0
 31
0.0
  0
LINE
  5
16B8
  8
0
  6
BYBLOCK
 62
     0
 10
0.0
 20
0.0
 30
0.0
 11
-1.0
 21
0.0
 31
0.0
  0
ENDBLK
  5
16B9
  8
0
  0
BLOCK
  8
0
  2
矢印なし
 70
     0
 10
0.0
 20
0.0
 30
0.0
  3
矢印なし
  1

  0
ENDBLK
  5
6E5
  8
0
  0
BLOCK
  8
0
  2
_ACMFILLEDHALF
 70
     0
 10
0.0
 20
0.0
 30
0.0
  3
_ACMFILLEDHALF
  1

  0
TRACE
  5
18FB
  8
240
 62
     0
 10
-0.8
 20
0.0
 30
0.0
 11
-1.0
 21
0.166666666
 31
0.0
 12
0.0
 22
0.0
 32
0.0
 13
0.0
 23
0.0
 33
0.0
  0
LINE
  5
18FC
  8
240
 62
     0
 10
-1.0
 20
0.0
 30
0.0
 11
-0.8
 21
0.0
 31
0.0
  0
ENDBLK
  5
18FA
  8
0
  0
ENDSEC
  0
SECTION
  2
ENTITIES
  0
INSERT
  5
6E6
  8
245
  2
矢印なし
 10
175.62382697000001
 20
90.551235719999994
 30
0.0
  0
TEXT
  5
7C4
  8
241
  6
CONTINUOUS
 10
-68.400000000000006
 20
56.0
 30
0.0
 40
5.0
  1
BDV40-CKB5-43
  7
YOKO
 11
-68.400000000000006
 21
56.0
 31
0.0
 73
     1
  0
LINE
  5
A1E
  8
250
  6
CONTINUOUS
 10
-38.226344200000007
 20
-28.055813749999999
 30
0.0
 11
-53.426344200000003
 21
-28.055813749999999
 31
0.0
1001
ITEMNAME
1000
LNSP2
  0
LINE
  5
134C
  8
245
  6
CENTER2
 10
-69.400000000000006
 20
0.0
 30
0.0
 11
44.000000000000021
 21
0.0
 31
0.0
  0
LINE
  5
134F
  8
241
  6
CONTINUOUS
 10
14.636270400000001
 20
31.774999999999999
 30
0.0
 11
14.636270400000001
 21
25.834098109999999
 31
0.0
  0
LINE
  5
1350
  8
241
  6
CONTINUOUS
 10
7.5637296000000003
 20
31.774999999999999
 30
0.0
 11
7.5637296000000003
 21
25.834098109999999
 31
0.0
  0
LINE
  5
1351
  8
245
  6
CENTER2
 10
11.1
 20
-31.774999999999999
 30
0.0
 11
11.1
 21
31.774999999999999
 31
0.0
  0
LINE
  5
1352
  8
240
  6
CONTINUOUS
 10
9.1875
 20
28.962547170000001
 30
0.0
 11
7.5637296000000003
 21
31.774999999999999
 31
0.0
  0
LINE
  5
1353
  8
240
  6
CONTINUOUS
 10
13.012499999999999
 20
28.962547170000001
 30
0.0
 11
14.636270400000001
 21
31.774999999999999
 31
0.0
  0
LINE
  5
1354
  8
240
  6
CONTINUOUS
 10
0.9999999999996154
 20
31.774999999999999
 30
0.0
 11
0.9999999999996154
 21
22.225000000000001
 31
0.0
  0
LINE
  5
1355
  8
240
  6
CONTINUOUS
 10
19.100000000000001
 20
31.774999999999999
 30
0.0
 11
19.100000000000001
 21
25.750000000000242
 31
0.0
  0
LINE
  5
1356
  8
240
  6
CONTINUOUS
 10
0.0
 20
-22.225000000000001
 30
0.0
 11
-67.544306890000001
 21
-12.374788580000001
 31
0.0
  0
LINE
  5
1357
  8
240
  6
CONTINUOUS
 10
0.0
 20
22.225000000000001
 30
0.0
 11
-67.544306890000001
 21
12.374788580000001
 31
0.0
  0
LINE
  5
1359
  8
240
  6
CONTINUOUS
 10
-68.400000000000006
 20
-11.385255600000001
 30
0.0
 11
-68.400000000000006
 21
11.385255600000001
 31
0.0
  0
ARC
  5
135A
  8
240
  6
CONTINUOUS
 10
-67.400000000000006
 20
-11.385255600000001
 30
0.0
 40
1.0
 50
180.0
 51
261.70285503000002
  0
ARC
  5
135B
  8
240
  6
CONTINUOUS
 10
-67.400000000000006
 20
11.385255600000001
 30
0.0
 40
1.0
 50
98.297144969999977
 51
180.0
  0
LINE
  5
135C
  8
241
  6
CONTINUOUS
 10
7.5637296000000003
 20
-31.774999999999999
 30
0.0
 11
7.5637296000000003
 21
18.5
 31
0.0
  0
LINE
  5
135D
  8
241
  6
CONTINUOUS
 10
9.1875
 20
-28.125
 30
0.0
 11
9.1875
 21
18.5
 31
0.0
  0
LINE
  5
135E
  8
241
  6
CONTINUOUS
 10
13.012499999999999
 20
-28.125
 30
0.0
 11
13.012499999999999
 21
18.5
 31
0.0
  0
LINE
  5
135F
  8
241
  6
CONTINUOUS
 10
14.636270400000001
 20
-31.774999999999999
 30
0.0
 11
14.636270400000001
 21
18.5
 31
0.0
  0
LINE
  5
1361
  8
241
  6
CONTINUOUS
 10
0.0
 20
-22.225000000000001
 30
0.0
 11
0.0
 21
22.225000000000001
 31
0.0
  0
LINE
  5
1362
  8
241
  6
CONTINUOUS
 10
0.9999999999996154
 20
-22.225000000000001
 30
0.0
 11
0.9999999999996154
 21
22.225000000000001
 31
0.0
  0
LINE
  5
1363
  8
243
  6
HIDDEN2
 10
0.9999999999996154
 20
-22.800000000000001
 30
0.0
 11
27.20000000000001
 21
-22.800000000000001
 31
0.0
  0
LINE
  5
1364
  8
240
  6
CONTINUOUS
 10
0.9999999999996154
 20
-31.774999999999999
 30
0.0
 11
7.5637296000000003
 21
-31.774999999999999
 31
0.0
  0
LINE
  5
1365
  8
240
  6
CONTINUOUS
 10
0.9999999999996154
 20
-31.774999999999999
 30
0.0
 11
0.9999999999996154
 21
-22.225000000000001
 31
0.0
  0
LINE
  5
1366
  8
240
  6
CONTINUOUS
 10
0.0
 20
-22.225000000000001
 30
0.0
 11
0.9999999999996154
 21
-22.225000000000001
 31
0.0
  0
LINE
  5
1367
  8
240
  6
CONTINUOUS
 10
9.1875
 20
-28.125
 30
0.0
 11
13.012499999999999
 21
-28.125
 31
0.0
  0
LINE
  5
1368
  8
240
  6
CONTINUOUS
 10
9.1875
 20
-28.962547170000001
 30
0.0
 11
7.5637296000000003
 21
-31.774999999999999
 31
0.0
  0
LINE
  5
1369
  8
240
  6
CONTINUOUS
 10
9.1875
 20
-28.962547170000001
 30
0.0
 11
9.1875
 21
-28.125
 31
0.0
  0
LINE
  5
136A
  8
240
  6
CONTINUOUS
 10
19.100000000000001
 20
-31.774999999999999
 30
0.0
 11
19.100000000000001
 21
-25.750000000000291
 31
0.0
  0
LINE
  5
136B
  8
240
  6
CONTINUOUS
 10
14.636270400000001
 20
-31.774999999999999
 30
0.0
 11
19.100000000000001
 21
-31.774999999999999
 31
0.0
  0
LINE
  5
136C
  8
240
  6
CONTINUOUS
 10
13.012499999999999
 20
-28.962547170000001
 30
0.0
 11
13.012499999999999
 21
-28.125
 31
0.0
  0
LINE
  5
136D
  8
240
  6
CONTINUOUS
 10
13.012499999999999
 20
-28.962547170000001
 30
0.0
 11
14.636270400000001
 21
-31.774999999999999
 31
0.0
  0
LINE
  5
1373
  8
241
  6
CONTINUOUS
 10
19.099999999999099
 20
-25.750000000000291
 30
0.0
 11
19.100000000000001
 21
25.750000000000242
 31
0.0
  0
LINE
  5
1374
  8
243
  6
HIDDEN2
 10
0.9999999999996154
 20
25.0
 30
0.0
 11
19.100000000000001
 21
25.0
 31
0.0
  0
LINE
  5
1375
  8
241
  6
CONTINUOUS
 10
0.9999999999996154
 20
18.5
 30
0.0
 11
19.100000000000001
 21
18.5
 31
0.0
  0
LINE
  5
1376
  8
241
  6
CONTINUOUS
 10
0.9999999999996154
 20
25.834098109999999
 30
0.0
 11
7.5637296000000003
 21
25.834098109999999
 31
0.0
  0
LINE
  5
1377
  8
240
  6
CONTINUOUS
 10
0.0
 20
22.225000000000001
 30
0.0
 11
0.9999999999996154
 21
22.225000000000001
 31
0.0
  0
LINE
  5
1378
  8
241
  6
CONTINUOUS
 10
9.1875
 20
21.18408896
 30
0.0
 11
13.012499999999999
 21
21.18408896
 31
0.0
  0
LINE
  5
1379
  8
240
  6
CONTINUOUS
 10
9.1875
 20
28.125
 30
0.0
 11
13.012499999999999
 21
28.125
 31
0.0
  0
LINE
  5
137A
  8
241
  6
CONTINUOUS
 10
9.1875
 20
21.18408896
 30
0.0
 11
9.1875
 21
28.125
 31
0.0
  0
LINE
  5
137B
  8
241
  6
CONTINUOUS
 10
7.5637296000000003
 20
25.834098109999999
 30
0.0
 11
9.1875
 21
22.284644239999999
 31
0.0
  0
LINE
  5
137C
  8
240
  6
CONTINUOUS
 10
9.1875
 20
28.962547170000001
 30
0.0
 11
9.1875
 21
28.125
 31
0.0
  0
LINE
  5
137D
  8
241
  6
CONTINUOUS
 10
13.012499999999999
 20
21.18408896
 30
0.0
 11
13.012499999999999
 21
28.125
 31
0.0
  0
LINE
  5
137E
  8
241
  6
CONTINUOUS
 10
14.636270400000001
 20
25.834098109999999
 30
0.0
 11
13.012499999999999
 21
22.284644239999999
 31
0.0
  0
LINE
  5
137F
  8
241
  6
CONTINUOUS
 10
14.636270400000001
 20
25.834098109999999
 30
0.0
 11
19.100000000000001
 21
25.834098109999999
 31
0.0
  0
LINE
  5
1380
  8
240
  6
CONTINUOUS
 10
13.012499999999999
 20
28.962547170000001
 30
0.0
 11
13.012499999999999
 21
28.125
 31
0.0
  0
LINE
  5
1381
  8
240
  6
CONTINUOUS
 10
0.9999999999996154
 20
31.774999999999999
 30
0.0
 11
7.5637296000000003
 21
31.774999999999999
 31
0.0
  0
LINE
  5
1382
  8
240
  6
CONTINUOUS
 10
14.636270400000001
 20
31.774999999999999
 30
0.0
 11
19.100000000000001
 21
31.774999999999999
 31
0.0
  0
LINE
  5
1383
  8
240
  6
CONTINUOUS
 10
43.000000000000021
 20
-25.00000000000006
 30
0.0
 11
43.000000000000021
 21
25.0
 31
0.0
  0
LINE
  5
1394
  8
243
  6
HIDDEN2
 10
27.20000000000001
 20
-22.800000000000001
 30
0.0
 11
27.200000000000021
 21
-24.800000000000001
 31
0.0
  0
LINE
  5
1395
  8
243
  6
HIDDEN2
 10
6.099999999999997
 20
25.0
 30
0.0
 11
6.0999999999998531
 21
20.400000000000151
 31
0.0
  0
LINE
  5
1396
  8
243
  6
HIDDEN2
 10
6.0999999999998531
 20
20.400000000000151
 30
0.0
 11
16.100000000000009
 21
20.39999999999964
 31
0.0
  0
LINE
  5
1397
  8
243
  6
HIDDEN2
 10
16.100000000000009
 20
20.39999999999964
 30
0.0
 11
16.100000000000001
 21
25.0
 31
0.0
  0
LINE
  5
13FE
  8
243
  6
HIDDEN2
 10
43.000000000000021
 20
13.99999999999997
 30
0.0
 11
17.949999999999989
 21
13.99999999999997
 31
0.0
1001
GRPNAME
1000
PASTMD03
  0
LINE
  5
13FF
  8
243
  6
HIDDEN2
 10
43.000000000000021
 20
-13.99999999999997
 30
0.0
 11
17.949999999999989
 21
-13.99999999999997
 31
0.0
1001
GRPNAME
1000
PASTMD03
  0
LINE
  5
1400
  8
250
  6
CONTINUOUS
 10
40.460007805592149
 20
26.745403316679798
 30
0.0
 11
39.023135030000937
 21
25.00000000000021
 31
0.0
  0
LINE
  5
1401
  8
250
  6
CONTINUOUS
 10
39.816262255555998
 20
27.11706998353748
 30
0.0
 11
39.023135030000937
 21
25.00000000000021
 31
0.0
  0
LINE
  5
1402
  8
250
  6
CONTINUOUS
 10
39.023135030000937
 20
25.00000000000021
 30
0.0
 11
40.138135030574077
 21
26.931236650108641
 31
0.0
  0
LINE
  5
1408
  8
250
  6
CONTINUOUS
 10
49.156788740000948
 20
42.552003080000198
 30
0.0
 11
62.223455400000951
 21
42.552003080000198
 31
0.0
1001
ITEMNAME
1000
LNSP2
  0
CIRCLE
  5
1409
  8
241
  6
CONTINUOUS
 10
29.95000000000001
 20
-0.0241241199999984
 30
0.0
 40
5.1500000000000004
  0
CIRCLE
  5
140A
  8
242
  6
CONTINUOUS
 10
29.95000000000001
 20
-0.0241241199999984
 30
0.0
 40
4.5
  0
LINE
  5
140B
  8
245
  6
CENTER2
 10
29.95000000000001
 20
6.1741241199999957
 30
0.0
 11
29.95000000000001
 21
-6.1741241199999957
 31
0.0
  0
LINE
  5
1426
  8
241
  6
CONTINUOUS
 10
27.45000000000001
 20
-1.467499789999996
 30
0.0
 11
29.95000000000001
 21
-2.910875469999997
 31
0.0
  0
LINE
  5
1427
  8
241
  6
CONTINUOUS
 10
29.95000000000001
 20
-2.910875469999997
 30
0.0
 11
32.45000000000001
 21
-1.467499789999996
 31
0.0
  0
LINE
  5
1428
  8
241
  6
CONTINUOUS
 10
32.45000000000001
 20
-1.467499789999996
 30
0.0
 11
32.45000000000001
 21
1.4192515500000009
 31
0.0
  0
LINE
  5
1429
  8
241
  6
CONTINUOUS
 10
32.45000000000001
 20
1.4192515500000009
 30
0.0
 11
29.95000000000001
 21
2.8626272300000002
 31
0.0
  0
LINE
  5
142A
  8
241
  6
CONTINUOUS
 10
29.95000000000001
 20
2.8626272300000002
 30
0.0
 11
27.45000000000001
 21
1.4192515500000009
 31
0.0
  0
LINE
  5
142B
  8
241
  6
CONTINUOUS
 10
27.45000000000001
 20
1.4192515500000009
 30
0.0
 11
27.45000000000001
 21
-1.467499789999996
 31
0.0
  0
TEXT
  5
142C
  8
250
  6
CONTINUOUS
 10
51.556788740000947
 20
43.552003080000212
 30
0.0
 40
2.799999999999998
  1
CK5
  7
YOKO
  0
LINE
  5
142D
  8
250
  6
CONTINUOUS
 10
40.138135030574077
 20
26.931236650108641
 30
0.0
 11
49.156788740000948
 21
42.552003080000198
 31
0.0
1001
ACAD
1000
DSTYLE
1002
{
1070
     6
1000
OPEN
1070
   343
1005
0
1002
}
  0
TEXT
  5
1430
  8
250
  6
CONTINUOUS
 10
-52.925305555890027
 20
-27.055813749999999
 30
0.0
 40
2.799999999999998
  1
BDV40
  7
YOKO
1001
ITEMNAME
1000
LNSP3
1001
ACAD
1000
MTEXTBEGIN
1070
    73
1070
     1
1070
    44
1040
1.0
1070
    74
1070
     0
1000
MTEXTEND
  0
LINE
  5
1431
  8
250
  6
CONTINUOUS
 10
43.500000000000021
 20
-25.0
 30
0.0
 11
55.000000000000021
 21
-25.0
 31
0.0
  0
LINE
  5
1432
  8
250
  6
CONTINUOUS
 10
43.500000000000021
 20
25.0
 30
0.0
 11
55.000000000000021
 21
25.0
 31
0.0
  0
LINE
  5
1433
  8
250
  6
CONTINUOUS
 10
54.000000000000021
 20
-22.77000000000001
 30
0.0
 11
54.000000000000021
 21
22.77
 31
0.0
  0
LINE
  5
1437
  8
250
  6
CONTINUOUS
 10
0.0
 20
22.725000000000001
 30
0.0
 11
0.0000000000000013
 21
43.0
 31
0.0
  0
LINE
  5
1438
  8
250
  6
CONTINUOUS
 10
43.000000000000021
 20
25.5
 30
0.0
 11
43.000000000000021
 21
43.0
 31
0.0
  0
LINE
  5
1439
  8
250
  6
CONTINUOUS
 10
2.2299999999999991
 20
42.0
 30
0.0
 11
40.770000000000003
 21
42.0
 31
0.0
  0
LINE
  5
143D
  8
250
  6
CONTINUOUS
 10
-33.15275920029147
 20
-19.268106757400599
 30
0.0
 11
-38.226344200000007
 21
-28.055813749999999
 31
0.0
1001
ACAD
1000
DSTYLE
1002
{
1070
     6
1000
OPEN
1070
    41
1040
2.0
1070
    42
1040
2.0
1070
    44
1040
2.0
1070
   140
1040
4.0
1070
   343
1005
594
1002
}
  0
LINE
  5
143E
  8
250
  6
CONTINUOUS
 10
-33.441434334858243
 20
-19.101440090685351
 30
0.0
 11
-32.152759199999998
 21
-17.536055950000002
 31
0.0
  0
LINE
  5
143F
  8
250
  6
CONTINUOUS
 10
-32.864084065724711
 20
-19.434773424115839
 30
0.0
 11
-32.152759199999998
 21
-17.536055950000002
 31
0.0
  0
LINE
  5
1440
  8
250
  6
CONTINUOUS
 10
-32.152759199999998
 20
-17.536055950000002
 30
0.0
 11
-33.15275920029147
 21
-19.268106757400599
 31
0.0
  0
TEXT
  5
1441
  8
250
  6
CONTINUOUS
 10
53.000000000000021
 20
-3.9333333333333189
 30
0.0
 40
2.799999999999998
  1
\U+220550
 50
90.0
  0
LINE
  5
1442
  8
250
  6
CONTINUOUS
 10
53.628333333333323
 20
22.77
 30
0.0
 11
54.000000000000021
 21
25.0
 31
0.0
  0
LINE
  5
1443
  8
250
  6
CONTINUOUS
 10
54.371666666666712
 20
22.77
 30
0.0
 11
54.000000000000021
 21
25.0
 31
0.0
  0
LINE
  5
1444
  8
250
  6
CONTINUOUS
 10
54.000000000000021
 20
25.0
 30
0.0
 11
54.000000000000021
 21
22.77
 31
0.0
  0
LINE
  5
1445
  8
250
  6
CONTINUOUS
 10
54.371666666666712
 20
-22.77000000000001
 30
0.0
 11
54.000000000000021
 21
-25.0
 31
0.0
  0
LINE
  5
1446
  8
250
  6
CONTINUOUS
 10
53.628333333333323
 20
-22.77000000000001
 30
0.0
 11
54.000000000000021
 21
-25.0
 31
0.0
  0
LINE
  5
1447
  8
250
  6
CONTINUOUS
 10
54.000000000000021
 20
-25.0
 30
0.0
 11
54.000000000000021
 21
-22.77000000000001
 31
0.0
  0
TEXT
  5
1448
  8
250
  6
CONTINUOUS
 10
18.717033487025471
 20
43.0
 30
0.0
 40
3.0
  1
43
1001
ACAD
1000
MTEXTBEGIN
1070
    73
1070
     1
1070
    44
1040
1.0
1070
    74
1070
     0
1000
MTEXTEND
  0
LINE
  5
1449
  8
250
  6
CONTINUOUS
 10
40.770000000000003
 20
42.371666666666663
 30
0.0
 11
43.000000000000021
 21
42.0
 31
0.0
  0
LINE
  5
144A
  8
250
  6
CONTINUOUS
 10
40.770000000000003
 20
41.62833333333333
 30
0.0
 11
43.000000000000021
 21
42.0
 31
0.0
  0
LINE
  5
144B
  8
250
  6
CONTINUOUS
 10
43.000000000000021
 20
42.0
 30
0.0
 11
40.770000000000003
 21
42.0
 31
0.0
  0
LINE
  5
144C
  8
250
  6
CONTINUOUS
 10
2.2299999999999991
 20
41.62833333333333
 30
0.0
 11
0.0000000000000012
 21
42.0
 31
0.0
  0
LINE
  5
144D
  8
250
  6
CONTINUOUS
 10
2.2299999999999991
 20
42.371666666666663
 30
0.0
 11
0.0000000000000012
 21
42.0
 31
0.0
  0
LINE
  5
144E
  8
250
  6
CONTINUOUS
 10
0.0000000000000012
 20
42.0
 30
0.0
 11
2.2299999999999991
 21
42.0
 31
0.0
  0
LINE
  5
15FB
  8
247
  6
CONTINUOUS
 10
6.499999999999968
 20
-15.75
 30
0.0
 11
6.5000000000000284
 21
-11.11538461567002
 31
0.0
  0
LINE
  5
15FC
  8
247
  6
CONTINUOUS
 10
4.0000000000000284
 20
-14.954893499987939
 30
0.0
 11
6.0999999999160321
 21
-15.557058810057351
 31
0.0
  0
LINE
  5
15FD
  8
247
  6
CONTINUOUS
 10
4.9961538461140229
 20
-14.32515140351901
 30
0.0
 11
4.9961538461140229
 21
-15.240536018867029
 31
0.0
  0
ARC
  5
15FE
  8
247
  6
CONTINUOUS
 10
4.3847190672941281
 20
-14.08726340194678
 30
0.0
 40
0.3876715809326743
 50
72.997889675291773
 51
172.92416621851359
  0
ARC
  5
15FF
  8
247
  6
CONTINUOUS
 10
4.3052231310280371
 20
-14.382477556804099
 30
0.0
 40
0.6933047965358772
 50
4.7429368522022131
 51
73.849226273266297
1001
GENIUS_GENOBJ-N-FIL_13
1002
{
1000
OWNER
1000
GEN
1002
}
1001
GENIUS_GENODEF_13
1002
{
1000
HIER
1070
     0
1002
}
1002
{
1000
MANEDIT
1070
     0
1002
}
1002
{
1000
NOSEL
1070
     0
1002
}
1002
{
1000
BEHIND
1070
     0
1002
}
1002
{
1000
OTHER
1070
     0
1002
}
1002
{
1000
REACTOR
1002
}
  0
LINE
  5
1600
  8
247
  6
CONTINUOUS
 10
6.0999999999160321
 20
-14.64167419470934
 30
0.0
 11
6.0999999999160321
 21
-15.557058810057351
 31
0.0
  0
LINE
  5
1601
  8
247
  6
CONTINUOUS
 10
4.0000000000000284
 20
-14.954893499987939
 30
0.0
 11
4.0000000000000284
 21
-14.03950888463995
 31
0.0
  0
ARC
  5
1602
  8
247
  6
CONTINUOUS
 10
5.3874169627679001
 20
-14.378306476266831
 30
0.0
 40
0.394857301075386
 50
65.990941652528889
 51
172.26344345906909
  0
ARC
  5
1603
  8
247
  6
CONTINUOUS
 10
5.391200327332597
 20
-14.712446610426881
 30
0.0
 40
0.7123241612361686
 50
5.7019851642580841
 51
77.277338436822376
1001
GENIUS_GENOBJ-N-FIL_13
1002
{
1000
OWNER
1000
GEN
1002
}
1001
GENIUS_GENODEF_13
1002
{
1000
HIER
1070
     0
1002
}
1002
{
1000
MANEDIT
1070
     0
1002
}
1002
{
1000
NOSEL
1070
     0
1002
}
1002
{
1000
BEHIND
1070
     0
1002
}
1002
{
1000
OTHER
1070
     0
1002
}
1002
{
1000
REACTOR
1002
}
  0
LINE
  5
1604
  8
247
  6
CONTINUOUS
 10
6.0999999999160321
 20
-13.68398188706337
 30
0.0
 11
4.0000000000000284
 21
-13.08181657699396
 31
0.0
  0
LINE
  5
1605
  8
247
  6
CONTINUOUS
 10
4.0000000000000284
 20
-11.58566273090795
 30
0.0
 11
4.0000000000000284
 21
-11.98167836430356
 31
0.0
  0
LINE
  5
1606
  8
247
  6
CONTINUOUS
 10
6.0999999999160321
 20
-12.60873965394395
 30
0.0
 11
6.0999999999160321
 21
-12.17797042319196
 31
0.0
  0
ARC
  5
1607
  8
247
  6
CONTINUOUS
 10
5.4582995950833881
 20
-11.381816577069941
 30
0.0
 40
1.576855057639547
 50
202.35948814152911
 51
254.99324854284609
  0
ARC
  5
1608
  8
247
  6
CONTINUOUS
 10
4.5658188585381634
 20
-11.847511366133199
 30
0.0
 40
0.6234706797009447
 50
94.994589319075317
 51
155.1663289573039
1001
GENIUS_GENOBJ-N-FIL_13
1002
{
1000
OWNER
1000
GEN
1002
}
1001
GENIUS_GENODEF_13
1002
{
1000
HIER
1070
     0
1002
}
1002
{
1000
MANEDIT
1070
     0
1002
}
1002
{
1000
NOSEL
1070
     0
1002
}
1002
{
1000
BEHIND
1070
     0
1002
}
1002
{
1000
OTHER
1070
     0
1002
}
1002
{
1000
REACTOR
1002
}
  0
ARC
  5
1609
  8
247
  6
CONTINUOUS
 10
5.1621021219694683
 20
-12.44418395103278
 30
0.0
 40
0.9749472149106983
 50
15.8460965557808
 51
82.325137004169065
  0
ARC
  5
160A
  8
247
  6
CONTINUOUS
 10
5.371470401971095
 20
-12.035211638772211
 30
0.0
 40
0.9271945638692009
 50
249.7136016704969
 51
321.78874565640928
1001
GENIUS_GENOBJ-N-FIL_13
1002
{
1000
OWNER
1000
GEN
1002
}
1001
GENIUS_GENODEF_13
1002
{
1000
HIER
1070
     0
1002
}
1002
{
1000
MANEDIT
1070
     0
1002
}
1002
{
1000
NOSEL
1070
     0
1002
}
1002
{
1000
BEHIND
1070
     0
1002
}
1002
{
1000
OTHER
1070
     0
1002
}
1002
{
1000
REACTOR
1002
}
  0
LINE
  5
160B
  8
247
  6
CONTINUOUS
 10
5.2923076922560011
 20
-11.962585807815939
 30
0.0
 11
5.2923076922560011
 21
-11.47797042321994
 31
0.0
  0
ARC
  5
160C
  8
247
  6
CONTINUOUS
 10
5.2500000000000284
 20
-15.75
 30
0.0
 40
1.25
 50
180.0
 51
0.0
  0
LINE
  5
160D
  8
247
  6
CONTINUOUS
 10
4.0000000000000284
 20
-15.75
 30
0.0
 11
4.0000000000000284
 21
-15.30384615391401
 31
0.0
  0
ARC
  5
160E
  8
247
  6
CONTINUOUS
 10
5.2500000000000284
 20
-11.11538461567002
 30
0.0
 40
1.25
 50
0.0
 51
180.0
  0
LINE
  5
1EC3
  8
241
  6
CONTINUOUS
 10
35.433012701890583
 20
24.99999999999995
 30
0.0
 11
35.433012701890583
 21
-25.00000000000006
 31
0.0
  0
LINE
  5
2417
  8
240
  6
CONTINUOUS
 10
43.000000000000021
 20
-25.00000000000006
 30
0.0
 11
35.433012701890583
 21
-25.00000000000006
 31
0.0
1001
GRPNAME
1000
PASTMD0U
  0
LINE
  5
2418
  8
240
  6
CONTINUOUS
 10
20.099999999999099
 20
-24.750000000000281
 30
0.0
 11
34.99999999999919
 21
-24.75000000000006
 31
0.0
  0
LINE
  5
2419
  8
240
  6
CONTINUOUS
 10
35.000000000000099
 20
-24.75000000000006
 30
0.0
 11
35.433012701890583
 21
-25.00000000000006
 31
0.0
  0
ARC
  5
241A
  8
240
  6
CONTINUOUS
 10
20.099999999999099
 20
-25.750000000000291
 30
0.0
 40
1.0
 50
90.0
 51
180.0
  0
LINE
  5
2421
  8
240
  6
CONTINUOUS
 10
43.000000000000028
 20
25.0
 30
0.0
 11
35.433012701890583
 21
25.0
 31
0.0
1001
GRPNAME
1000
PASTMD0U
  0
LINE
  5
2422
  8
240
  6
CONTINUOUS
 10
20.099999999999099
 20
24.750000000000242
 30
0.0
 11
34.999999999999197
 21
24.75
 31
0.0
  0
LINE
  5
2423
  8
240
  6
CONTINUOUS
 10
35.000000000000107
 20
24.75
 30
0.0
 11
35.433012701890583
 21
25.0
 31
0.0
  0
ARC
  5
2424
  8
240
  6
CONTINUOUS
 10
20.099999999999099
 20
25.750000000000242
 30
0.0
 40
1.0
 50
180.0
 51
270.0
  0
VIEWPORT
  5
22
 67
     1
  8
0
 10
261.51769911999997
 20
148.5
 30
0.0
 40
523.03539823000006
 41
297.0
 68
     1
 69
     1
1001
ACAD
1000
MVIEW
1002
{
1070
    16
1010
0.0
1020
0.0
1030
0.0
1010
0.0
1020
0.0
1030
1.0
1040
0.0
1040
297.0
1040
261.51769911999997
1040
148.5
1040
50.0
1040
0.0
1040
0.0
1070
     0
1070
   100
1070
     1
1070
     1
1070
     0
1070
     0
1070
     0
1070
     0
1040
0.0
1040
0.0
1040
0.0
1040
1.0
1040
1.0
1040
10.0
1040
10.0
1070
     0
1002
{
1002
}
1002
}
1001
GENIUS_GENOBJ-N-SDF_13
1002
{
1000
OWNER
1000
GEN
1002
}
1001
GENIUS_GENODEF_13
1002
{
1000
HIER
1070
     0
1002
}
1002
{
1000
MANEDIT
1070
     0
1002
}
1002
{
1000
NOSEL
1070
     0
1002
}
1002
{
1000
BEHIND
1070
     0
1002
}
1002
{
1000
OTHER
1070
     0
1002
}
1002
{
1000
REACTOR
1002
}
1001
GENIUS_GENSCREG_15
1000
PF
1040
1.0
1000
DF
1040
1.0
1000
MIN
1011
0.0000000049999471
1021
0.0
1031
0.0
1021
0.0
1031
0.0
1000
MAX
1011
523.035398235
1021
0.0
1031
0.0
1021
297.0
1031
0.0
1000
FLAGS
1070
     4
  0
ENDSEC
  0
EOF
