  0
SECTION
  2
HEADER
  9
$ACADVER
  1
AC1009
  9
$INSBASE
 10
0.0
 20
0.0
 30
0.0
  9
$EXTMIN
 10
-104.9698613532844
 20
-50.269238815537683
 30
0.0
  9
$EXTMAX
 10
275.0
 20
74.000000000000355
 30
0.0
  9
$LIMMIN
 10
0.0
 20
0.0
  9
$LIMMAX
 10
297.0
 20
210.0
  9
$ORTHOMODE
 70
     1
  9
$REGENMODE
 70
     1
  9
$FILLMODE
 70
     1
  9
$QTEXTMODE
 70
     0
  9
$MIRRTEXT
 70
     1
  9
$DRAGMODE
 70
     2
  9
$LTSCALE
 40
10.0
  9
$OSMODE
 70
    39
  9
$ATTMODE
 70
     1
  9
$TEXTSIZE
 40
3.0
  9
$TRACEWID
 40
1.0
  9
$TEXTSTYLE
  7
YOKO
  9
$CLAYER
  8
240
  9
$CELTYPE
  6
BYLAYER
  9
$CECOLOR
 62
   256
  9
$DIMSCALE
 40
1.0
  9
$DIMASZ
 40
2.2299999999999991
  9
$DIMEXO
 40
0.5
  9
$DIMDLI
 40
7.0
  9
$DIMRND
 40
0.0
  9
$DIMDLE
 40
0.0
  9
$DIMEXE
 40
1.0
  9
$DIMTP
 40
0.0
  9
$DIMTM
 40
0.01
  9
$DIMTXT
 40
2.799999999999998
  9
$DIMCEN
 40
0.0
  9
$DIMTSZ
 40
0.0
  9
$DIMTOL
 70
     0
  9
$DIMLIM
 70
     0
  9
$DIMTIH
 70
     0
  9
$DIMTOH
 70
     0
  9
$DIMSE1
 70
     0
  9
$DIMSE2
 70
     0
  9
$DIMTAD
 70
     3
  9
$DIMZIN
 70
     9
  9
$DIMBLK
  1
OPEN
  9
$DIMASO
 70
     1
  9
$DIMSHO
 70
     1
  9
$DIMPOST
  1

  9
$DIMAPOST
  1

  9
$DIMALT
 70
     0
  9
$DIMALTD
 70
     2
  9
$DIMALTF
 40
25.399999999999999
  9
$DIMLFAC
 40
1.0
  9
$DIMTOFL
 70
     1
  9
$DIMTVP
 40
0.0
  9
$DIMTIX
 70
     1
  9
$DIMSOXD
 70
     0
  9
$DIMSAH
 70
     0
  9
$DIMBLK1
  1

  9
$DIMBLK2
  1

  9
$DIMSTYLE
  2
BIGT
  9
$DIMCLRD
 70
   256
  9
$DIMCLRE
 70
   256
  9
$DIMCLRT
 70
    40
  9
$DIMTFAC
 40
1.0
  9
$DIMGAP
 40
1.0
  9
$LUNITS
 70
     2
  9
$LUPREC
 70
     3
  9
$SKETCHINC
 40
1.0
  9
$FILLETRAD
 40
1.0
  9
$AUNITS
 70
     0
  9
$AUPREC
 70
     3
  9
$MENU
  1
.
  9
$ELEVATION
 40
0.0
  9
$PELEVATION
 40
0.0
  9
$THICKNESS
 40
0.0
  9
$LIMCHECK
 70
     0
  9
$BLIPMODE
 70
     0
  9
$CHAMFERA
 40
0.25
  9
$CHAMFERB
 40
0.25
  9
$SKPOLY
 70
     0
  9
$TDCREATE
 40
2456582.6549177431
  9
$TDUPDATE
 40
2456582.671215428
  9
$TDINDWG
 40
0.0157611806
  9
$TDUSRTIMER
 40
0.0157611806
  9
$USRTIMER
 70
     1
  9
$ANGBASE
 50
0.0
  9
$ANGDIR
 70
     0
  9
$PDMODE
 70
     1
  9
$PDSIZE
 40
0.0
  9
$PLINEWID
 40
0.0
  9
$COORDS
 70
     0
  9
$SPLFRAME
 70
     0
  9
$SPLINETYPE
 70
     6
  9
$SPLINESEGS
 70
     4
  9
$ATTDIA
 70
     1
  9
$ATTREQ
 70
     1
  9
$HANDLING
 70
     1
  9
$HANDSEED
  5
1A4F
  9
$SURFTAB1
 70
     6
  9
$SURFTAB2
 70
     6
  9
$SURFTYPE
 70
     6
  9
$SURFU
 70
     6
  9
$SURFV
 70
     6
  9
$UCSNAME
  2

  9
$UCSORG
 10
0.0
 20
0.0
 30
0.0
  9
$UCSXDIR
 10
1.0
 20
0.0
 30
0.0
  9
$UCSYDIR
 10
0.0
 20
1.0
 30
0.0
  9
$PUCSNAME
  2

  9
$PUCSORG
 10
0.0
 20
0.0
 30
0.0
  9
$PUCSXDIR
 10
1.0
 20
0.0
 30
0.0
  9
$PUCSYDIR
 10
0.0
 20
1.0
 30
0.0
  9
$USERI1
 70
     1
  9
$USERI2
 70
     0
  9
$USERI3
 70
     0
  9
$USERI4
 70
     0
  9
$USERI5
 70
     0
  9
$USERR1
 40
0.0
  9
$USERR2
 40
0.0
  9
$USERR3
 40
0.0
  9
$USERR4
 40
0.0
  9
$USERR5
 40
0.0
  9
$WORLDVIEW
 70
     1
  9
$SHADEDGE
 70
     3
  9
$SHADEDIF
 70
    70
  9
$TILEMODE
 70
     1
  9
$MAXACTVP
 70
    16
  9
$PLIMCHECK
 70
     0
  9
$PEXTMIN
 10
1.0000000000000000E+020
 20
1.0000000000000000E+020
 30
1.0000000000000000E+020
  9
$PEXTMAX
 10
-1.0000000000000000E+020
 20
-1.0000000000000000E+020
 30
-1.0000000000000000E+020
  9
$PLIMMIN
 10
0.0
 20
0.0
  9
$PLIMMAX
 10
420.0
 20
297.0
  9
$UNITMODE
 70
     0
  9
$VISRETAIN
 70
     1
  9
$PLINEGEN
 70
     0
  9
$PSLTSCALE
 70
     1
  0
ENDSEC
  0
SECTION
  2
TABLES
  0
TABLE
  2
VPORT
 70
     3
  0
VPORT
  2
*ACTIVE
 70
     0
 10
0.0
 20
0.0
 11
1.0
 21
1.0
 12
85.020640063426825
 22
11.86519737853007
 13
0.0
 23
0.0
 14
7.0
 24
7.0
 15
7.0
 25
7.0
 16
0.0
 26
0.0
 36
1.0
 17
0.0
 27
0.0
 37
0.0
 40
264.23164940335062
 41
1.444687842278203
 42
50.0
 43
0.0
 44
0.0
 50
0.0
 51
0.0
 71
     0
 72
  2000
 73
     1
 74
     0
 75
     0
 76
     0
 77
     0
 78
     0
  0
ENDTAB
  0
TABLE
  2
LTYPE
 70
    16
  0
LTYPE
  2
CONTINUOUS
 70
     0
  3
Solid line
 72
    65
 73
     0
 40
0.0
  0
LTYPE
  2
CENTER2
 70
     0
  3
___ _ ___ _ ___ _ ___ _ ___ _ ___ _ ___ _ ___ _
 72
    65
 73
     4
 40
1.125
 49
0.75
 49
-0.125
 49
0.125
 49
-0.125
  0
LTYPE
  2
HIDDEN2
 70
     0
  3
_ _ _ _ _ _ _ _ _ _ _ _ _ _ _ _ _ _ _ _ _ _ _ _
 72
    65
 73
     2
 40
0.1875
 49
0.125
 49
-0.0625
  0
LTYPE
  2
PHANTOM2
 70
     0
  3
___ _ _ ___ _ _ ___ _ _ ___ _ _ ___ _ _ ___ _ _
 72
    65
 73
     6
 40
1.25
 49
0.625
 49
-0.125
 49
0.125
 49
-0.125
 49
0.125
 49
-0.125
  0
LTYPE
  2
CENTER
 70
     0
  3
____ _ ____ _ ____ _ ____ _ ____ _ ____ _ ____ 
 72
    65
 73
     4
 40
2.0
 49
1.25
 49
-0.25
 49
0.25
 49
-0.25
  0
LTYPE
  2
AMCONSTR
 70
     0
  3
_______________________
 72
    65
 73
     2
 40
9999.0
 49
9999.0
 49
0.0
  0
LTYPE
  2
HIDDEN
 70
     0
  3
Hidden __ __ __ __ __ __ __ __ __ __ __ __ __ _
 72
    65
 73
     2
 40
9.5249999999999968
 49
6.349999999999997
 49
-3.174999999999998
  0
LTYPE
  2
AMZIGZAG2
 70
     0
  3
/\/-/\/-/\/-/\/-/\/-/\/
 72
    65
 73
     2
 40
0.4401
 49
0.0001
 49
-0.4400000000000003
  0
LTYPE
  2
ACANSTGB
 70
     0
  3
__ . . __ . .
 72
    65
 73
     6
 40
0.35433070866
 49
0.15748031496
 49
-0.03937007874
 49
0.03937007874
 49
-0.03937007874
 49
0.03937007874
 49
-0.03937007874
  0
LTYPE
  2
ACANSTGL
 70
     0
  3
_ _ _ _ _
 72
    65
 73
     2
 40
0.11811023622
 49
0.07874015748
 49
-0.03937007874
  0
ENDTAB
  0
TABLE
  2
LAYER
 70
     8
  0
LAYER
  2
0
 70
     0
 62
     7
  6
CONTINUOUS
  0
LAYER
  2
240
 70
     0
 62
     4
  6
CONTINUOUS
  0
LAYER
  2
DEFPOINTS
 70
     0
 62
     7
  6
CONTINUOUS
  0
LAYER
  2
245
 70
     0
 62
     2
  6
CENTER2
  0
LAYER
  2
241
 70
     0
 62
   211
  6
CONTINUOUS
  0
LAYER
  2
242
 70
     0
 62
     3
  6
CONTINUOUS
  0
LAYER
  2
243
 70
     0
 62
   211
  6
HIDDEN2
  0
LAYER
  2
250
 70
     0
 62
     3
  6
CONTINUOUS
  0
ENDTAB
  0
TABLE
  2
STYLE
 70
     5
  0
STYLE
  2
STANDARD
 70
     0
 40
0.0
 41
1.0
 50
0.0
 71
     0
 42
3.0
  3
romans.shx
  4
extfont.shx
  0
STYLE
  2
YOKO
 70
     0
 40
0.0
 41
1.0
 50
0.0
 71
     0
 42
3.0
  3
romans.shx
  4
extfont.shx
  0
STYLE
  2
ACANSTS
 70
     0
 40
1.0
 41
1.0
 50
0.0
 71
     0
 42
3.0
  3
romans.shx
  4
extfont.shx
  0
STYLE
  2
ACANSGDT
 70
     0
 40
0.0
 41
1.0
 50
0.0
 71
     0
 42
3.0
  3
amgdtans.shx
  4

  0
ENDTAB
  0
TABLE
  2
VIEW
 70
     0
  0
ENDTAB
  0
TABLE
  2
UCS
 70
     0
  0
ENDTAB
  0
TABLE
  2
APPID
 70
    32
  0
APPID
  2
ACAD
 70
     0
  0
APPID
  2
GLOBAL
 70
     0
  0
APPID
  2
DETAIL
 70
     0
  0
APPID
  2
GRPNAME
 70
     0
  0
APPID
  2
GPARA
 70
     0
  0
APPID
  2
MCAD_NO_VIS
 70
     0
  0
APPID
  2
ACAD_TEMP_GRAPHIC
 70
     0
  0
APPID
  2
ACATTRIBSERVICES
 70
     0
  0
APPID
  2
GENIUS_GENSCREG_15
 70
     0
  0
APPID
  2
GENIUS_GENODEF_13
 70
     0
  0
APPID
  2
GENIUS_GENOBJ-N-SDF_13
 70
     0
  0
APPID
  2
GENIUS_GENREC_14
 70
     0
  0
APPID
  2
GENIUS_GENOBJ-N-REC_13
 70
     0
  0
APPID
  2
GENIUS_GENDIMSH_14
 70
     0
  0
APPID
  2
GENIUS_GENOBJ-N-DIM_13
 70
     0
  0
APPID
  2
GENIUS_GENDIM_13
 70
     0
  0
APPID
  2
GENIUS_GENDTOL_13
 70
     0
  0
APPID
  2
GENIUS_GENOLIS_13
 70
     0
  0
APPID
  2
GENIUS_GENOENT_13
 70
     0
  0
APPID
  2
GENIUS_GENOBJ-F-FEM_13
 70
     0
  0
APPID
  2
GENIUS_GENOREF_13
 70
     0
  0
APPID
  2
GENIUS_GEFFEM_13
 70
     0
  0
APPID
  2
GENIUS_GEFFEMP_13
 70
     0
  0
APPID
  2
AD_DRAW
 70
     0
  0
APPID
  2
DESIGNERASSEMBLIES
 70
     0
  0
APPID
  2
ACADM_DIM_EDIT
 70
     0
  0
APPID
  2
AMDT_DM_ADJ
 70
     0
  0
APPID
  2
GENIUS_GENFIL_13
 70
     0
  0
APPID
  2
ACAD_PSEXT
 70
     0
  0
APPID
  2
ASKLEADERCHILD
 70
     0
  0
APPID
  2
ASK_MEN_XD
 70
     0
  0
APPID
  2
GENIUS_GENOBJ-N-FIL_13
 70
     0
  0
ENDTAB
  0
TABLE
  2
DIMSTYLE
 70
     7
  0
DIMSTYLE
  2
BIGT
 70
     0
  3

  4

  5

  6

  7

 40
1.0
 41
2.2299999999999991
 42
0.5
 43
7.0
 44
1.0
 45
0.0
 46
0.0
 47
0.0
 48
0.01
140
2.799999999999998
141
0.0
142
0.0
143
25.399999999999999
144
1.0
145
0.0
146
1.0
147
1.0
 71
     0
 72
     0
 73
     0
 74
     0
 75
     0
 76
     0
 77
     3
 78
     9
170
     0
171
     2
172
     1
173
     0
174
     1
175
     0
176
   256
177
   256
178
    40
  0
DIMSTYLE
  2
AM_ANSI
 70
     0
  3

  4
mm
  5

  6

  7

 40
1.0
 41
0.1
 42
0.05
 43
0.5
 44
0.1
 45
0.0
 46
0.0
 47
0.1
 48
0.1
140
0.12
141
0.0
142
0.0
143
25.399999999999999
144
1.0
145
0.0
146
0.71
147
0.06
 71
     0
 72
     0
 73
     1
 74
     1
 75
     0
 76
     0
 77
     0
 78
     7
170
     0
171
     2
172
     0
173
     0
174
     0
175
     0
176
   256
177
   256
178
     2
  0
DIMSTYLE
  2
AM_ANSI$3
 70
     0
  3

  4
mm
  5

  6

  7

 40
1.0
 41
0.1
 42
0.05
 43
0.5
 44
0.1
 45
0.0
 46
0.0
 47
0.1
 48
0.1
140
0.12
141
0.0
142
0.0
143
25.399999999999999
144
1.0
145
0.0
146
0.71
147
0.06
 71
     0
 72
     0
 73
     1
 74
     1
 75
     0
 76
     0
 77
     0
 78
     7
170
     0
171
     2
172
     0
173
     0
174
     0
175
     0
176
   256
177
   256
178
     2
  0
DIMSTYLE
  2
AM_ANSI$4
 70
     0
  3

  4
mm
  5

  6

  7

 40
1.0
 41
0.1
 42
0.05
 43
0.5
 44
0.1
 45
0.0
 46
0.0
 47
0.1
 48
0.1
140
0.12
141
0.0
142
0.0
143
25.399999999999999
144
1.0
145
0.0
146
0.71
147
0.06
 71
     0
 72
     0
 73
     1
 74
     1
 75
     0
 76
     0
 77
     0
 78
     7
170
     0
171
     2
172
     0
173
     0
174
     0
175
     0
176
   256
177
   256
178
     2
  0
DIMSTYLE
  2
AM_ANSI$7
 70
     0
  3

  4
mm
  5

  6

  7

 40
1.0
 41
0.1
 42
0.05
 43
0.5
 44
0.1
 45
0.0
 46
0.0
 47
0.1
 48
0.1
140
0.24
141
0.0
142
0.0
143
25.399999999999999
144
1.0
145
0.0
146
0.71
147
0.06
 71
     0
 72
     0
 73
     1
 74
     1
 75
     0
 76
     0
 77
     0
 78
     7
170
     0
171
     2
172
     0
173
     0
174
     0
175
     0
176
   256
177
   256
178
     2
  0
DIMSTYLE
  2
AM_ANSI$SF
 70
     0
  3

  4
mm
  5

  6

  7

 40
1.0
 41
0.1
 42
0.05
 43
0.5
 44
0.1
 45
0.0
 46
0.0
 47
0.1
 48
0.1
140
0.12
141
0.0
142
0.0
143
25.399999999999999
144
1.0
145
0.0
146
0.71
147
0.06
 71
     0
 72
     0
 73
     1
 74
     1
 75
     1
 76
     1
 77
     0
 78
     7
170
     0
171
     2
172
     0
173
     0
174
     0
175
     0
176
   256
177
   256
178
     2
  0
DIMSTYLE
  2
AM_ANSI$SH
 70
     0
  3

  4
mm
  5

  6

  7

 40
1.0
 41
0.1
 42
0.05
 43
0.5
 44
0.1
 45
0.0
 46
0.0
 47
0.1
 48
0.1
140
0.12
141
0.0
142
0.0
143
25.399999999999999
144
1.0
145
0.0
146
0.71
147
0.06
 71
     0
 72
     0
 73
     1
 74
     1
 75
     1
 76
     1
 77
     0
 78
     7
170
     0
171
     2
172
     0
173
     1
174
     0
175
     0
176
   256
177
   256
178
     2
  0
ENDTAB
  0
ENDSEC
  0
SECTION
  2
BLOCKS
  0
BLOCK
  8
0
  2
$MODEL_SPACE
 70
     0
 10
0.0
 20
0.0
 30
0.0
  3
$MODEL_SPACE
  1

  0
ENDBLK
  5
1973
  8
0
  0
BLOCK
 67
     1
  8
0
  2
$PAPER_SPACE
 70
     0
 10
0.0
 20
0.0
 30
0.0
  3
$PAPER_SPACE
  1

  0
ENDBLK
  5
196F
 67
     1
  8
0
  0
BLOCK
  8
0
  2
_OPEN
 70
     0
 10
0.0
 20
0.0
 30
0.0
  3
_OPEN
  1

  0
LINE
  5
16F0
  8
0
  6
BYBLOCK
 62
     0
 10
-1.0
 20
0.1666666666666666
 30
0.0
 11
0.0
 21
0.0
 31
0.0
  0
LINE
  5
16F1
  8
0
  6
BYBLOCK
 62
     0
 10
-1.0
 20
-0.1666666666666666
 30
0.0
 11
0.0
 21
0.0
 31
0.0
  0
LINE
  5
16F2
  8
0
  6
BYBLOCK
 62
     0
 10
0.0
 20
0.0
 30
0.0
 11
-1.0
 21
0.0
 31
0.0
  0
ENDBLK
  5
16F3
  8
0
  0
ENDSEC
  0
SECTION
  2
ENTITIES
  0
LINE
  5
13EA
  8
240
 10
220.0
 20
30.000000000001702
 30
0.0
 11
51.87973349054991
 21
30.000000000000679
 31
0.0
  0
LINE
  5
13EB
  8
240
 10
220.00000000000011
 20
-29.999999999998611
 30
0.0
 11
51.879733490550272
 21
-29.999999999999929
 31
0.0
  0
LINE
  5
13ED
  8
240
 10
36.700000000000642
 20
50.000000000005002
 30
0.0
 11
30.699999999999928
 21
50.000000000005002
 31
0.0
  0
ARC
  5
13EE
  8
240
 10
36.700000000000642
 20
48.700000000004991
 30
0.0
 40
1.30000000000001
 50
0.0
 51
90.0
  0
LINE
  5
13F0
  8
240
 10
20.030127018922151
 20
42.500000000005002
 30
0.0
 11
15.69999999999993
 21
50.000000000005002
 31
0.0
  0
LINE
  5
13F1
  8
241
 10
15.69999999999993
 20
50.000000000004903
 30
0.0
 11
15.69999999999993
 21
50.000000000004931
 31
0.0
  0
LINE
  5
13F2
  8
240
 10
26.369872981077719
 20
42.500000000005002
 30
0.0
 11
20.030127018922151
 21
42.500000000005002
 31
0.0
  0
LINE
  5
13F3
  8
240
 10
26.369872981077719
 20
42.500000000005002
 30
0.0
 11
30.699999999999928
 21
50.000000000005002
 31
0.0
  0
LINE
  5
13F4
  8
243
 10
34.0
 20
35.40000000000515
 30
0.0
 11
34.0
 21
50.000000000005002
 31
0.0
  0
LINE
  5
13F5
  8
240
 10
1.5000000000001099
 20
34.925000000005006
 30
0.0
 11
1.5000000000001099
 21
49.000000000004981
 31
0.0
  0
ARC
  5
13F7
  8
240
 10
2.500000000000111
 20
49.000000000004981
 30
0.0
 40
1.0
 50
90.0
 51
180.0
  0
LINE
  5
13FE
  8
240
 10
2.500000000000111
 20
50.000000000005002
 30
0.0
 11
15.69999999999993
 21
50.000000000005002
 31
0.0
  0
LINE
  5
13FF
  8
243
 10
1.5000000000001099
 20
35.40000000000515
 30
0.0
 11
34.0
 21
35.40000000000515
 31
0.0
  0
LINE
  5
1400
  8
243
 10
34.0
 20
-35.399999999994918
 30
0.0
 11
33.999999999999773
 21
-49.999999999995062
 31
0.0
  0
LINE
  5
1401
  8
240
 10
38.000000000002053
 20
-48.700000000001637
 30
0.0
 11
38.000000000001592
 21
-48.122144504496582
 31
0.0
  0
LINE
  5
1402
  8
240
 10
36.699999999999811
 20
-49.999999999995133
 30
0.0
 11
30.69999999999915
 21
-49.999999999994991
 31
0.0
  0
ARC
  5
1403
  8
240
 10
36.699999999999811
 20
-48.699999999995157
 30
0.0
 40
1.30000000000001
 50
270.0
 51
0.0
  0
LINE
  5
1404
  8
240
 10
20.030127018921561
 20
-42.499999999994827
 30
0.0
 11
15.69999999999891
 21
-49.999999999995282
 31
0.0
  0
LINE
  5
1405
  8
241
 10
15.699999999999131
 20
-49.999999999994657
 30
0.0
 11
15.699999999999131
 21
-49.999999999994699
 31
0.0
  0
LINE
  5
1406
  8
240
 10
26.369872981077151
 20
-42.499999999994927
 30
0.0
 11
20.030127018921561
 21
-42.499999999994827
 31
0.0
  0
LINE
  5
1407
  8
240
 10
26.369872981077151
 20
-42.499999999994927
 30
0.0
 11
30.69999999999915
 21
-49.999999999994991
 31
0.0
  0
LINE
  5
1408
  8
241
 10
30.69999999999915
 20
-49.99999999999492
 30
0.0
 11
30.7000000000005
 21
49.999999999995559
 31
0.0
  0
LINE
  5
1409
  8
241
 10
38.000000000001812
 20
-48.122144504489
 30
0.0
 11
38.000000000000469
 21
48.122144504489683
 31
0.0
  0
LINE
  5
140A
  8
241
 10
26.369872981078629
 20
-42.499999999987132
 30
0.0
 11
26.36987298107567
 21
42.499999999987729
 31
0.0
  0
LINE
  5
140B
  8
241
 10
20.030127018925899
 20
-42.499999999987132
 30
0.0
 11
20.030127018922709
 21
42.499999999987679
 31
0.0
  0
LINE
  5
140C
  8
241
 10
15.699999999999591
 20
-49.999999999994031
 30
0.0
 11
15.70000000000004
 21
49.999999999994571
 31
0.0
  0
LINE
  5
1412
  8
240
 10
1.4999999999984071
 20
-48.99999999999504
 30
0.0
 11
1.4999999999984071
 21
-34.924999999995009
 31
0.0
  0
ARC
  5
1413
  8
240
 10
2.4999999999984062
 20
-48.999999999995097
 30
0.0
 40
1.0
 50
179.99999999999659
 51
270.0
  0
LINE
  5
141B
  8
240
 10
2.4999999999984062
 20
-49.99999999999509
 30
0.0
 11
15.69999999999891
 21
-49.999999999995282
 31
0.0
  0
LINE
  5
141C
  8
243
 10
1.4999999999984071
 20
-35.399999999994918
 30
0.0
 11
34.0
 21
-35.399999999994918
 31
0.0
  0
LINE
  5
141D
  8
241
 10
0.0
 20
34.925000000005006
 30
0.0
 11
0.0
 21
-34.924999999995009
 31
0.0
  0
ARC
  5
1423
  8
240
 10
-98.799999999999983
 20
17.48493345776296
 30
0.0
 40
2.999999999999968
 50
98.297144969838385
 51
180.0
  0
ARC
  5
1425
  8
240
 10
-98.799999999999983
 20
-17.484933457752959
 30
0.0
 40
3.0
 50
180.0
 51
261.70285503016129
  0
LINE
  5
1426
  8
240
 10
-101.7999999999999
 20
17.48493345776296
 30
0.0
 11
-101.7999999999999
 21
-17.484933457752959
 31
0.0
  0
LINE
  5
142A
  8
240
 10
0.0
 20
-34.924999999995009
 30
0.0
 11
-99.232920679215127
 21
-20.45353240094278
 31
0.0
  0
LINE
  5
142B
  8
240
 10
0.0
 20
34.925000000005006
 30
0.0
 11
-99.232920679215127
 21
20.453532400952781
 31
0.0
  0
LINE
  5
142D
  8
241
 10
48.000000000000888
 20
-31.17353726157026
 30
0.0
 11
48.000000000000888
 21
31.173537261570999
 31
0.0
  0
LINE
  5
142E
  8
240
 10
38.000000000000469
 20
48.700000000002149
 30
0.0
 11
38.000000000000092
 21
48.122144504497101
 31
0.0
  0
LINE
  5
1432
  8
240
 10
223.0
 20
18.999999999999488
 30
0.0
 11
222.0
 21
17.999999999999488
 31
0.0
  0
LINE
  5
1433
  8
240
 10
222.0
 20
-18.000000000000568
 30
0.0
 11
223.0
 21
-19.000000000000568
 31
0.0
  0
LINE
  5
1434
  8
240
 10
223.0
 20
-19.000000000000568
 30
0.0
 11
239.69999999999999
 21
-19.000000000000568
 31
0.0
  0
LINE
  5
1435
  8
240
 10
239.69999999999999
 20
18.999999999999488
 30
0.0
 11
223.0
 21
18.999999999999488
 31
0.0
  0
LINE
  5
1436
  8
242
 10
240.4499999999999
 20
18.249999999999488
 30
0.0
 11
222.24999999999989
 21
18.249999999999488
 31
0.0
  0
LINE
  5
1437
  8
240
 10
239.69999999999999
 20
-19.000000000000568
 30
0.0
 11
241.0
 21
-17.70000000000055
 31
0.0
  0
LINE
  5
1438
  8
240
 10
241.0
 20
17.699999999999481
 30
0.0
 11
239.69999999999999
 21
18.999999999999488
 31
0.0
  0
LINE
  5
1439
  8
240
 10
243.2999999999999
 20
17.999999999999488
 30
0.0
 11
243.0
 21
17.699999999999481
 31
0.0
  0
LINE
  5
143A
  8
240
 10
243.0
 20
-17.70000000000055
 30
0.0
 11
243.2999999999999
 21
-18.000000000000568
 31
0.0
  0
LINE
  5
143B
  8
240
 10
243.2999999999999
 20
-18.000000000000568
 30
0.0
 11
256.99999999999972
 21
-18.000000000000568
 31
0.0
  0
LINE
  5
143D
  8
240
 10
256.99999999999989
 20
17.999999999999481
 30
0.0
 11
243.2999999999999
 21
17.999999999999488
 31
0.0
  0
LINE
  5
143E
  8
240
 10
220.0
 20
-18.000000000000568
 30
0.0
 11
222.0
 21
-18.000000000000568
 31
0.0
  0
LINE
  5
143F
  8
240
 10
222.0
 20
17.999999999999488
 30
0.0
 11
220.0
 21
17.999999999999488
 31
0.0
  0
LINE
  5
1440
  8
240
 10
241.0
 20
-17.70000000000055
 30
0.0
 11
243.0
 21
-17.70000000000055
 31
0.0
  0
LINE
  5
1441
  8
240
 10
243.0
 20
17.699999999999481
 30
0.0
 11
241.0
 21
17.699999999999481
 31
0.0
  0
LINE
  5
1442
  8
240
 10
220.0
 20
17.999999999999488
 30
0.0
 11
220.0
 21
30.000000000001702
 31
0.0
  0
LINE
  5
1444
  8
241
 10
223.0
 20
-19.000000000000568
 30
0.0
 11
223.0
 21
19.000000000002078
 31
0.0
  0
LINE
  5
1445
  8
241
 10
222.0
 20
-18.000000000000568
 30
0.0
 11
222.0
 21
18.000000000002078
 31
0.0
  0
LINE
  5
1446
  8
241
 10
239.69999999999999
 20
-19.000000000000568
 30
0.0
 11
239.6999999999997
 21
19.000000000002188
 31
0.0
  0
LINE
  5
1447
  8
241
 10
241.0
 20
-17.70000000000055
 30
0.0
 11
241.0
 21
17.700000000002181
 31
0.0
  0
LINE
  5
1448
  8
240
 10
258.0
 20
16.999999999999481
 30
0.0
 11
257.9999999999996
 21
-17.000000000000568
 31
0.0
  0
LINE
  5
144C
  8
243
 10
257.99999999999989
 20
4.0000000000049427
 30
0.0
 11
35.210326019833133
 21
4.0000000000049427
 31
0.0
  0
LINE
  5
144E
  8
241
 10
219.9999999999998
 20
18.000000000002071
 30
0.0
 11
220.0
 21
-18.000000000000568
 31
0.0
  0
LINE
  5
144F
  8
240
 10
219.9999999999998
 20
-18.000000000000568
 30
0.0
 11
220.00000000000011
 21
-29.999999999998611
 31
0.0
  0
LINE
  5
1450
  8
245
 10
-104.9698613532844
 20
-0.0000000000001137
 30
0.0
 11
260.97667442664351
 21
0.0000000000008811
 31
0.0
  0
LINE
  5
1455
  8
242
 10
240.44999999999999
 20
-18.249999999997641
 30
0.0
 11
222.25
 21
-18.24999999999778
 31
0.0
  0
LINE
  5
145B
  8
241
 10
243.0
 20
-17.70000000000055
 30
0.0
 11
243.0
 21
17.700000000002198
 31
0.0
  0
ARC
  5
145D
  8
240
 10
48.018430531518923
 20
-48.876169621647463
 30
0.0
 40
10.01997934381424
 50
148.01067529345491
 51
178.99258316234221
1001
ASK_MEN_XD
1005
0
1070
     0
1005
145C
1070
     0
  0
ARC
  5
145F
  8
240
 10
51.87973349055035
 20
-36.999999999999922
 30
0.0
 40
7.0
 50
90.0
 51
147.99461679191751
1001
ASK_MEN_XD
1005
1460
1070
     0
1005
145E
1070
     0
  0
LINE
  5
1461
  8
240
 10
39.520016959940619
 20
43.567972864095559
 30
0.0
 11
45.943745362514221
 21
33.290007419978281
 31
0.0
  0
LINE
  5
1462
  8
240
 10
45.943745362514711
 20
-33.290007419977627
 30
0.0
 11
39.52001695996433
 21
-43.567972864058241
 31
0.0
  0
ARC
  5
1463
  8
240
 10
51.879733490549853
 20
37.000000000000512
 30
0.0
 40
7.0
 50
212.00538320808249
 51
270.0
1001
ASK_MEN_XD
1005
1460
1070
     0
1005
145E
1070
     0
  0
ARC
  5
1465
  8
240
 10
48.01843053151822
 20
48.876169621647961
 30
0.0
 40
10.01997934381424
 50
181.00741683765909
 51
211.98932470654651
1001
ASK_MEN_XD
1005
0
1070
     0
1005
145C
1070
     0
  0
ARC
  5
1471
  8
240
 10
256.99999999999989
 20
16.999999999999481
 30
0.0
 40
1.0
 50
359.99999999999972
 51
90.0
1001
GENIUS_GENOBJ-N-FIL_13
1002
{
1000
OWNER
1000
GEN
1002
}
1001
GENIUS_GENODEF_13
1002
{
1000
HIER
1070
     0
1002
}
1002
{
1000
MANEDIT
1070
     0
1002
}
1002
{
1000
NOSEL
1070
     0
1002
}
1002
{
1000
BEHIND
1070
     0
1002
}
1002
{
1000
OTHER
1070
     0
1002
}
1002
{
1000
REACTOR
1002
}
  0
ARC
  5
1475
  8
240
 10
256.99999999999972
 20
-17.000000000000568
 30
0.0
 40
1.0
 50
270.0
 51
359.99999999999972
1001
GENIUS_GENODEF_13
1002
{
1000
HIER
1070
     0
1002
}
1002
{
1000
MANEDIT
1070
     0
1002
}
1002
{
1000
NOSEL
1070
     0
1002
}
1002
{
1000
BEHIND
1070
     0
1002
}
1002
{
1000
OTHER
1070
     0
1002
}
1002
{
1000
REACTOR
1002
}
1001
GENIUS_GENOBJ-N-FIL_13
1002
{
1000
OWNER
1000
GEN
1002
}
  0
LINE
  5
1484
  8
240
 10
0.0
 20
34.925000000005006
 30
0.0
 11
1.5000000000001099
 21
34.925000000005006
 31
0.0
  0
LINE
  5
1486
  8
240
 10
0.0
 20
-34.924999999995009
 30
0.0
 11
1.4999999999984071
 21
-34.924999999995009
 31
0.0
  0
LINE
  5
1490
  8
241
 10
1.499999999998185
 20
34.92499999999545
 30
0.0
 11
1.499999999999992
 21
-34.924999999995009
 31
0.0
  0
LINE
  5
1498
  8
243
 10
258.0000000000008
 20
-3.9999999999675881
 30
0.0
 11
35.210326019834049
 21
-4.0000000000070202
 31
0.0
  0
TEXT
  5
1508
  8
241
 10
-84.0
 20
70.000000000000213
 30
0.0
 40
4.0
  1
BBT50-SDF36-60-220
  7
YOKO
  0
LINE
  5
1560
  8
250
 10
220.5
 20
30.000000000001702
 30
0.0
 11
275.0
 21
30.000000000001691
 31
0.0
  0
LINE
  5
1561
  8
250
 10
220.50000000000011
 20
-29.999999999998611
 30
0.0
 11
275.0
 21
-29.999999999998629
 31
0.0
  0
LINE
  5
1562
  8
250
 10
274.0
 20
27.770000000001701
 30
0.0
 11
274.0
 21
-27.769999999998621
 31
0.0
  0
LINE
  5
1566
  8
250
 10
0.0
 20
35.425000000005006
 30
0.0
 11
0.0000000000000018
 21
64.0
 31
0.0
  0
LINE
  5
1567
  8
250
 10
220.0
 20
30.500000000001709
 30
0.0
 11
220.0
 21
64.0
 31
0.0
  0
LINE
  5
1568
  8
250
 10
2.2299999999999991
 20
63.0
 30
0.0
 11
217.77000000000001
 21
63.0
 31
0.0
  0
TEXT
  5
156C
  8
250
 10
273.0
 20
-3.799999999998426
 30
0.0
 40
2.799999999999998
  1
\U+220560
 50
90.0
  0
LINE
  5
156D
  8
250
 10
274.37166666666678
 20
-27.769999999998621
 30
0.0
 11
274.0
 21
-29.999999999998629
 31
0.0
  0
LINE
  5
156E
  8
250
 10
273.62833333333327
 20
-27.769999999998621
 30
0.0
 11
274.0
 21
-29.999999999998629
 31
0.0
  0
LINE
  5
156F
  8
250
 10
274.0
 20
-29.999999999998629
 30
0.0
 11
274.0
 21
-27.769999999998621
 31
0.0
  0
LINE
  5
1570
  8
250
 10
273.62833333333327
 20
27.770000000001701
 30
0.0
 11
274.0
 21
30.000000000001691
 31
0.0
  0
LINE
  5
1571
  8
250
 10
274.37166666666678
 20
27.770000000001701
 30
0.0
 11
274.0
 21
30.000000000001691
 31
0.0
  0
LINE
  5
1572
  8
250
 10
274.0
 20
30.000000000001691
 30
0.0
 11
274.0
 21
27.770000000001701
 31
0.0
  0
TEXT
  5
1573
  8
250
 10
101.6673371453099
 20
64.0
 30
0.0
 40
2.799999999999998
  1
220
  0
LINE
  5
1574
  8
250
 10
217.77000000000001
 20
63.37166666666667
 30
0.0
 11
220.0
 21
63.0
 31
0.0
  0
LINE
  5
1575
  8
250
 10
217.77000000000001
 20
62.62833333333333
 30
0.0
 11
220.0
 21
63.0
 31
0.0
  0
LINE
  5
1576
  8
250
 10
220.0
 20
63.0
 30
0.0
 11
217.77000000000001
 21
63.0
 31
0.0
  0
LINE
  5
1577
  8
250
 10
2.2299999999999991
 20
62.62833333333333
 30
0.0
 11
0.0000000000000017
 21
63.0
 31
0.0
  0
LINE
  5
1578
  8
250
 10
2.2299999999999991
 20
63.37166666666667
 30
0.0
 11
0.0000000000000017
 21
63.0
 31
0.0
  0
LINE
  5
1579
  8
250
 10
0.0000000000000017
 20
63.0
 30
0.0
 11
2.2299999999999991
 21
63.0
 31
0.0
  0
VIEWPORT
  5
22
 67
     1
  8
0
 10
261.51769911504419
 20
148.5
 30
0.0
 40
523.0353982300885
 41
297.0
 68
     1
 69
     1
1001
ACAD
1000
MVIEW
1002
{
1070
    16
1010
0.0
1020
0.0
1030
0.0
1010
0.0
1020
0.0
1030
1.0
1040
0.0
1040
297.0
1040
261.51769911504419
1040
148.5
1040
50.0
1040
0.0
1040
0.0
1070
     0
1070
   100
1070
     1
1070
     1
1070
     0
1070
     0
1070
     0
1070
     0
1040
0.0
1040
0.0
1040
0.0
1040
1.0
1040
1.0
1040
10.0
1040
10.0
1070
     0
1002
{
1002
}
1002
}
1001
GENIUS_GENODEF_13
1002
{
1000
HIER
1070
     0
1002
}
1002
{
1000
MANEDIT
1070
     0
1002
}
1002
{
1000
NOSEL
1070
     0
1002
}
1002
{
1000
BEHIND
1070
     0
1002
}
1002
{
1000
OTHER
1070
     0
1002
}
1002
{
1000
REACTOR
1002
}
1001
GENIUS_GENOBJ-N-SDF_13
1002
{
1000
OWNER
1000
GEN
1002
}
1001
GENIUS_GENSCREG_15
1000
PF
1040
1.0
1000
DF
1040
1.0
1000
MIN
1011
0.0
1021
0.0
1031
0.0
1021
0.0
1031
0.0
1000
MAX
1011
523.0353982300885
1021
0.0
1031
0.0
1021
297.0
1031
0.0
1000
FLAGS
1070
     2
  0
ENDSEC
  0
EOF
