  0
SECTION
  2
HEADER
  9
$ACADVER
  1
AC1015
  9
$ACADMAINTVER
 70
    20
  9
$DWGCODEPAGE
  3
ANSI_932
  9
$INSBASE
 10
0.0
 20
0.0
 30
0.0
  9
$EXTMIN
 10
-104.9698613532844
 20
-50.26923881553768
 30
0.0
  9
$EXTMAX
 10
225.0
 20
74.00000000000033
 30
0.0
  9
$LIMMIN
 10
0.0
 20
0.0
  9
$LIMMAX
 10
297.0
 20
210.0
  9
$ORTHOMODE
 70
     1
  9
$REGENMODE
 70
     1
  9
$FILLMODE
 70
     1
  9
$QTEXTMODE
 70
     0
  9
$MIRRTEXT
 70
     1
  9
$LTSCALE
 40
10.0
  9
$ATTMODE
 70
     1
  9
$TEXTSIZE
 40
3.0
  9
$TRACEWID
 40
1.0
  9
$TEXTSTYLE
  7
YOKO
  9
$CLAYER
  8
240
  9
$CELTYPE
  6
ByLayer
  9
$CECOLOR
 62
   256
  9
$CELTSCALE
 40
1.0
  9
$DISPSILH
 70
     0
  9
$DIMSCALE
 40
1.0
  9
$DIMASZ
 40
2.229999999999999
  9
$DIMEXO
 40
0.5
  9
$DIMDLI
 40
7.0
  9
$DIMRND
 40
0.0
  9
$DIMDLE
 40
0.0
  9
$DIMEXE
 40
1.0
  9
$DIMTP
 40
0.0
  9
$DIMTM
 40
0.01
  9
$DIMTXT
 40
2.799999999999998
  9
$DIMCEN
 40
0.0
  9
$DIMTSZ
 40
0.0
  9
$DIMTOL
 70
     0
  9
$DIMLIM
 70
     0
  9
$DIMTIH
 70
     0
  9
$DIMTOH
 70
     0
  9
$DIMSE1
 70
     0
  9
$DIMSE2
 70
     0
  9
$DIMTAD
 70
     3
  9
$DIMZIN
 70
     9
  9
$DIMBLK
  1
OPEN
  9
$DIMASO
 70
     1
  9
$DIMSHO
 70
     1
  9
$DIMPOST
  1

  9
$DIMAPOST
  1

  9
$DIMALT
 70
     0
  9
$DIMALTD
 70
     2
  9
$DIMALTF
 40
25.4
  9
$DIMLFAC
 40
1.0
  9
$DIMTOFL
 70
     1
  9
$DIMTVP
 40
0.0
  9
$DIMTIX
 70
     1
  9
$DIMSOXD
 70
     0
  9
$DIMSAH
 70
     0
  9
$DIMBLK1
  1

  9
$DIMBLK2
  1

  9
$DIMSTYLE
  2
BIGT
  9
$DIMCLRD
 70
   256
  9
$DIMCLRE
 70
   256
  9
$DIMCLRT
 70
    40
  9
$DIMTFAC
 40
1.0
  9
$DIMGAP
 40
1.0
  9
$DIMJUST
 70
     0
  9
$DIMSD1
 70
     0
  9
$DIMSD2
 70
     0
  9
$DIMTOLJ
 70
     1
  9
$DIMTZIN
 70
     0
  9
$DIMALTZ
 70
     0
  9
$DIMALTTZ
 70
     0
  9
$DIMUPT
 70
     0
  9
$DIMDEC
 70
     4
  9
$DIMTDEC
 70
     4
  9
$DIMALTU
 70
     2
  9
$DIMALTTD
 70
     2
  9
$DIMTXSTY
  7
STANDARD
  9
$DIMAUNIT
 70
     0
  9
$DIMADEC
 70
     0
  9
$DIMALTRND
 40
0.0
  9
$DIMAZIN
 70
     0
  9
$DIMDSEP
 70
    46
  9
$DIMATFIT
 70
     3
  9
$DIMFRAC
 70
     0
  9
$DIMLDRBLK
  1
OPEN
  9
$DIMLUNIT
 70
     2
  9
$DIMLWD
 70
    -2
  9
$DIMLWE
 70
    -2
  9
$DIMTMOVE
 70
     0
  9
$LUNITS
 70
     2
  9
$LUPREC
 70
     3
  9
$SKETCHINC
 40
1.0
  9
$FILLETRAD
 40
1.0
  9
$AUNITS
 70
     0
  9
$AUPREC
 70
     3
  9
$MENU
  1
.
  9
$ELEVATION
 40
0.0
  9
$PELEVATION
 40
0.0
  9
$THICKNESS
 40
0.0
  9
$LIMCHECK
 70
     0
  9
$CHAMFERA
 40
0.25
  9
$CHAMFERB
 40
0.25
  9
$CHAMFERC
 40
0.0
  9
$CHAMFERD
 40
0.0
  9
$SKPOLY
 70
     0
  9
$TDCREATE
 40
2456582.654917743
  9
$TDUCREATE
 40
2456582.279917743
  9
$TDUPDATE
 40
2456582.670096505
  9
$TDUUPDATE
 40
2456582.295096505
  9
$TDINDWG
 40
0.0149443981
  9
$TDUSRTIMER
 40
0.0149443981
  9
$USRTIMER
 70
     1
  9
$ANGBASE
 50
0.0
  9
$ANGDIR
 70
     0
  9
$PDMODE
 70
     1
  9
$PDSIZE
 40
0.0
  9
$PLINEWID
 40
0.0
  9
$SPLFRAME
 70
     0
  9
$SPLINETYPE
 70
     6
  9
$SPLINESEGS
 70
     4
  9
$HANDSEED
  5
1877
  9
$SURFTAB1
 70
     6
  9
$SURFTAB2
 70
     6
  9
$SURFTYPE
 70
     6
  9
$SURFU
 70
     6
  9
$SURFV
 70
     6
  9
$UCSBASE
  2

  9
$UCSNAME
  2

  9
$UCSORG
 10
0.0
 20
0.0
 30
0.0
  9
$UCSXDIR
 10
1.0
 20
0.0
 30
0.0
  9
$UCSYDIR
 10
0.0
 20
1.0
 30
0.0
  9
$UCSORTHOREF
  2

  9
$UCSORTHOVIEW
 70
     0
  9
$UCSORGTOP
 10
0.0
 20
0.0
 30
0.0
  9
$UCSORGBOTTOM
 10
0.0
 20
0.0
 30
0.0
  9
$UCSORGLEFT
 10
0.0
 20
0.0
 30
0.0
  9
$UCSORGRIGHT
 10
0.0
 20
0.0
 30
0.0
  9
$UCSORGFRONT
 10
0.0
 20
0.0
 30
0.0
  9
$UCSORGBACK
 10
0.0
 20
0.0
 30
0.0
  9
$PUCSBASE
  2

  9
$PUCSNAME
  2

  9
$PUCSORG
 10
0.0
 20
0.0
 30
0.0
  9
$PUCSXDIR
 10
1.0
 20
0.0
 30
0.0
  9
$PUCSYDIR
 10
0.0
 20
1.0
 30
0.0
  9
$PUCSORTHOREF
  2

  9
$PUCSORTHOVIEW
 70
     0
  9
$PUCSORGTOP
 10
0.0
 20
0.0
 30
0.0
  9
$PUCSORGBOTTOM
 10
0.0
 20
0.0
 30
0.0
  9
$PUCSORGLEFT
 10
0.0
 20
0.0
 30
0.0
  9
$PUCSORGRIGHT
 10
0.0
 20
0.0
 30
0.0
  9
$PUCSORGFRONT
 10
0.0
 20
0.0
 30
0.0
  9
$PUCSORGBACK
 10
0.0
 20
0.0
 30
0.0
  9
$USERI1
 70
     1
  9
$USERI2
 70
     0
  9
$USERI3
 70
     0
  9
$USERI4
 70
     0
  9
$USERI5
 70
     0
  9
$USERR1
 40
0.0
  9
$USERR2
 40
0.0
  9
$USERR3
 40
0.0
  9
$USERR4
 40
0.0
  9
$USERR5
 40
0.0
  9
$WORLDVIEW
 70
     1
  9
$SHADEDGE
 70
     3
  9
$SHADEDIF
 70
    70
  9
$TILEMODE
 70
     1
  9
$MAXACTVP
 70
    16
  9
$PINSBASE
 10
0.0
 20
0.0
 30
0.0
  9
$PLIMCHECK
 70
     0
  9
$PEXTMIN
 10
1.000000000000000E+20
 20
1.000000000000000E+20
 30
1.000000000000000E+20
  9
$PEXTMAX
 10
-1.000000000000000E+20
 20
-1.000000000000000E+20
 30
-1.000000000000000E+20
  9
$PLIMMIN
 10
0.0
 20
0.0
  9
$PLIMMAX
 10
420.0
 20
297.0
  9
$UNITMODE
 70
     0
  9
$VISRETAIN
 70
     1
  9
$PLINEGEN
 70
     0
  9
$PSLTSCALE
 70
     1
  9
$TREEDEPTH
 70
  3020
  9
$CMLSTYLE
  2
Standard
  9
$CMLJUST
 70
     0
  9
$CMLSCALE
 40
1.0
  9
$PROXYGRAPHICS
 70
     1
  9
$MEASUREMENT
 70
     0
  9
$CELWEIGHT
370
    -1
  9
$ENDCAPS
280
     0
  9
$JOINSTYLE
280
     0
  9
$LWDISPLAY
290
     0
  9
$INSUNITS
 70
     0
  9
$HYPERLINKBASE
  1

  9
$STYLESHEET
  1

  9
$XEDIT
290
     1
  9
$CEPSNTYPE
380
     0
  9
$PSTYLEMODE
290
     1
  9
$FINGERPRINTGUID
  2
{45826583-6DB6-4570-A562-A49336120C05}
  9
$VERSIONGUID
  2
{925C925F-0720-4D02-88EB-4975460473D9}
  9
$EXTNAMES
290
     1
  9
$PSVPSCALE
 40
0.0
  9
$OLESTARTUP
290
     0
  0
ENDSEC
  0
SECTION
  2
CLASSES
  0
CLASS
  1
ACDBDICTIONARYWDFLT
  2
AcDbDictionaryWithDefault
  3
ObjectDBX Classes
 90
        0
280
     0
281
     0
  0
CLASS
  1
TABLESTYLE
  2
AcDbTableStyle
  3
ObjectDBX Classes
 90
     2047
280
     0
281
     0
  0
CLASS
  1
AMGSETTINGSOBJ
  2
AmgSettingsObj
  3
"AcadM|Product Description: AutoCAD Mechanical 2000|Company: Autodesk"
 90
        0
280
     0
281
     0
  0
CLASS
  1
ACME_DOCUMENT
  2
AcMeDbDoc
  3
AcMeServices
 90
        0
280
     0
281
     0
  0
CLASS
  1
ACMESCOPE
  2
AcMeScope
  3
AcMeServices
 90
        0
280
     0
281
     0
  0
CLASS
  1
ACMECOMMANDHISTORY
  2
AcMeCommandHistory
  3
AcMeServices
 90
        0
280
     0
281
     0
  0
CLASS
  1
ACIMSYSVARMAN
  2
AcImSysVarManager
  3
AcMeServices
 90
        0
280
     0
281
     0
  0
CLASS
  1
ACIMINTSYSVAR
  2
AcImIntSysVar
  3
AcMeServices
 90
        0
280
     0
281
     0
  0
CLASS
  1
ACMEDRAWINGMAN
  2
AcMeDrawingMan
  3
AcMeServices
 90
        0
280
     0
281
     0
  0
CLASS
  1
ACMEVIEW
  2
AcMeView
  3
AcMeServices
 90
        0
280
     0
281
     0
  0
CLASS
  1
ACDBENTITYCACHE
  2
AcMeEntityCache
  3
AcMeServices
 90
        0
280
     0
281
     0
  0
CLASS
  1
GSMANAGER
  2
AcMeGSManager
  3
AcMeServices
 90
        0
280
     0
281
     0
  0
CLASS
  1
AMDTINTERNALREACTOR
  2
AmdtInternalReactor
  3
AcMeServices
 90
        0
280
     0
281
     0
  0
CLASS
  1
ACMESTATEMGR
  2
AcMeStateMgr
  3
AcMeServices
 90
        0
280
     0
281
     0
  0
CLASS
  1
ACGREFMASTER
  2
AcGrefMaster
  3
AcAttribServices
 90
        0
280
     0
281
     0
  0
CLASS
  1
AM_DRAWING_MGR
  2
AcDmDwgMgr
  3
AcMechDwgViewMgmt
 90
        0
280
     0
281
     0
  0
CLASS
  1
AM_DWG_DOCUMENT
  2
AcDmDwgDocument
  3
AcMechDwgViewMgmt
 90
        0
280
     0
281
     0
  0
CLASS
  1
AM_DWG_SHEET
  2
AcDmSheet
  3
AcMechDwgViewMgmt
 90
        0
280
     0
281
     0
  0
CLASS
  1
AM_VIEWDIMPARMAP
  2
AcDmViewDimParMap
  3
AcMechDwgViewMgmt
 90
        0
280
     0
281
     0
  0
CLASS
  1
ACIMREALSYSVAR
  2
AcImRealSysVar
  3
AcMeServices
 90
        0
280
     0
281
     0
  0
CLASS
  1
AM_DWGMGR_NAME
  2
AcDmDwgMgrName
  3
AcMechDwgViewMgmt
 90
        0
280
     0
281
     0
  0
CLASS
  1
ACME_DATABASE
  2
AcMeDbDatabase
  3
AcMeServices
 90
        0
280
     0
281
     0
  0
CLASS
  1
ACRFINSADJUSTERMGR
  2
AcRfInsAdjusterMgr
  3
AcMeServices
 90
        0
280
     0
281
     0
  0
CLASS
  1
ACGREFACADMASTER
  2
AcGrefacadMaster
  3
AcGrefServices
 90
        0
280
     0
281
     0
  0
CLASS
  1
AMDTMENUSTATEMGR
  2
AmdtMenuStateMgr
  3
McadcomServices
 90
        0
280
     0
281
     0
  0
CLASS
  1
AMDTMCOMMENUSTATE
  2
AmdtMcomMenuState
  3
McadcomServices
 90
        0
280
     0
281
     0
  0
CLASS
  1
AMIMASTER
  2
AmiMaster
  3
AmiServices
 90
        0
280
     0
281
     0
  0
CLASS
  1
MAPIAMMOUDLE
  2
MApiAmModule
  3
MApiAmServices
 90
        0
280
     0
281
     0
  0
CLASS
  1
AMDTADMENUSTATE
  2
AmdtAdMenuState
  3
DesignerServices
 90
        0
280
     0
281
     0
  0
CLASS
  1
ADAPPL
  2
AcAdAppl
  3
DesignerServices
 90
        0
280
     0
281
     0
  0
CLASS
  1
DEPMGR
  2
AcAdDepMgr
  3
DesignerServices
 90
        0
280
     0
281
     0
  0
CLASS
  1
PARAMMGR
  2
AcAdParamMgr
  3
DesignerServices
 90
        0
280
     0
281
     0
  0
CLASS
  1
PARAMSCOPE
  2
AcAdParamScope
  3
DesignerServices
 90
        0
280
     0
281
     0
  0
CLASS
  1
NAMEDAPPL
  2
AcAdNamedAppl
  3
DesignerServices
 90
        0
280
     0
281
     0
  0
CLASS
  1
AMDTDMMENUSTATE
  2
AmdtDmMenuState
  3
AcMechDwgViewMgmt
 90
        0
280
     0
281
     0
  0
CLASS
  1
AMDTAMMENUSTATE
  2
AmdtAmMenuState
  3
DesignerAssemblies
 90
        0
280
     0
281
     0
  0
CLASS
  1
ACIMSTRSYSVAR
  2
AcImStrSysVar
  3
AcMeServices
 90
        0
280
     0
281
     0
  0
CLASS
  1
ACAMPROJECT
  2
AcAmProject
  3
DesignerAssemblies
 90
        0
280
     0
281
     0
  0
CLASS
  1
ACAMGRCOMPDEF
  2
AcAmGrCompDef
  3
DesignerAssemblies
 90
        0
280
     0
281
     0
  0
CLASS
  1
ACCMCONTEXT
  2
AcCmContext
  3
DesignerAssemblies
 90
        0
280
     0
281
     0
  0
CLASS
  1
ACAMCOMPDEF
  2
AcAmCompDef
  3
DesignerAssemblies
 90
        0
280
     0
281
     0
  0
CLASS
  1
ACAMCOMPDEFMGR
  2
AcAmCompDefMgr
  3
DesignerAssemblies
 90
        0
280
     0
281
     0
  0
CLASS
  1
AMCONTEXTMGR
  2
AcAmContextMgr
  3
DesignerAssemblies
 90
        0
280
     0
281
     0
  0
CLASS
  1
ACAMCONTEXTMODELER
  2
AcAmContextModeler
  3
DesignerAssemblies
 90
        0
280
     0
281
     0
  0
CLASS
  1
ACMDATADICTIONARY
  2
AcmDataDictionary
  3
"AcmSymBB|Product Description: AutoCAD Mechanical 2004 DX|Company: Autodesk"
 90
        0
280
     0
281
     0
  0
CLASS
  1
CATALOGSTATE
  2
AcAmCatalogState
  3
DesignerAssemblies
 90
        0
280
     0
281
     0
  0
CLASS
  1
ACAMGRCOMPDEFSET
  2
AcAmGrCompDefSet
  3
DesignerAssemblies
 90
        0
280
     0
281
     0
  0
CLASS
  1
AMDTBROWSERDBTAB
  2
AmdtBrowserDbTab
  3
McadcomServices
 90
        0
280
     0
281
     0
  0
CLASS
  1
CBROWSERAPPOBJECT
  2
CBrowserAppObject
  3
McadcomServices
 90
        0
280
     0
281
     0
  0
CLASS
  1
DM_PLACEHOLDER
  2
AcDmSelsetPlaceholder
  3
AcMechDwgViewMgmt
 90
        0
280
     0
281
     0
  0
CLASS
  1
ACMSTANDARDANSI
  2
AcmStandardANSI
  3
"Amdt_StdImp|Product Description: AutoCAD Mechanical 2004 DX|Company: Autodesk"
 90
        0
280
     0
281
     0
  0
CLASS
  1
AMGOBJPROPCFG
  2
AmgObjPropCfg
  3
"AmgLay|Product Description: AutoCAD Mechanical 2000|Company: Autodesk"
 90
        1
280
     0
281
     0
  0
CLASS
  1
ACMSURFSTANDARDANSI
  2
AcmSurfTextStdANSI
  3
"Amdt_StdImp|Product Description: AutoCAD Mechanical 2004 DX|Company: Autodesk"
 90
        0
280
     0
281
     0
  0
CLASS
  1
ACMFCFSTANDARDANSI
  2
AcmFCFStdANSI
  3
"Amdt_StdImp|Product Description: AutoCAD Mechanical 2004 DX|Company: Autodesk"
 90
        0
280
     0
281
     0
  0
CLASS
  1
ACMWELDSTANDARDANSI
  2
AcmWeldingStdANSI
  3
"Amdt_StdImp|Product Description: AutoCAD Mechanical 2004 DX|Company: Autodesk"
 90
        0
280
     0
281
     0
  0
CLASS
  1
ACMIDSTANDARDANSI
  2
AcmIdStdANSI
  3
"Amdt_StdImp|Product Description: AutoCAD Mechanical 2004 DX|Company: Autodesk"
 90
        0
280
     0
281
     0
  0
CLASS
  1
ACMDATUMSTANDARDANSI
  2
AcmDatumStdANSI
  3
"Amdt_StdImp|Product Description: AutoCAD Mechanical 2004 DX|Company: Autodesk"
 90
        0
280
     0
281
     0
  0
CLASS
  1
ACMBOMSTANDARDANSI
  2
AcmBOMStdANSI
  3
"Amdt_StdImp|Product Description: AutoCAD Mechanical 2004 DX|Company: Autodesk"
 90
        0
280
     0
281
     0
  0
CLASS
  1
ACMDETAILSTANDARDANSI
  2
AmdtDetailSymStdANSI
  3
"Amdt_StdImp|Product Description: AutoCAD Mechanical 2004 DX|Company: Autodesk"
 90
        0
280
     0
281
     0
  0
CLASS
  1
ACMSECTIONSTANDARDANSI
  2
AmdtSectionSymStdANSI
  3
"Amdt_StdImp|Product Description: AutoCAD Mechanical 2004 DX|Company: Autodesk"
 90
        0
280
     0
281
     0
  0
CLASS
  1
ACMCENTERLINESTANDARDANSI
  2
AmdtCenterLineStdANSI
  3
"Amdt_StdImp|Product Description: AutoCAD Mechanical 2004 DX|Company: Autodesk"
 90
        0
280
     0
281
     0
  0
CLASS
  1
ACMTHREADLINESTANDARDANSI
  2
AmdtThreadLineStdANSI
  3
"Amdt_StdImp|Product Description: AutoCAD Mechanical 2004 DX|Company: Autodesk"
 90
        0
280
     0
281
     0
  0
CLASS
  1
ACMNOTESTANDARDANSI
  2
AmdtNoteStdANSI
  3
"Amdt_StdImp|Product Description: AutoCAD Mechanical 2004 DX|Company: Autodesk"
 90
        0
280
     0
281
     0
  0
CLASS
  1
AMDTNOTETEMPLATEDB
  2
AmdtNoteTemplateDB
  3
AMDT_STDIMP_MODULE_NAME
 90
        0
280
     0
281
     0
  0
CLASS
  1
ACAMGLAYSTD
  2
AcAmgLayStd
  3
"AcAmgLayStd|Product Description: AutoCAD Mechanical 2000|Company: Autodesk"
 90
        0
280
     0
281
     0
  0
CLASS
  1
ACAMGDIMSTD
  2
AcAmgDimStd
  3
"AcAmgDimStd|Product Description: AutoCAD Mechanical 2000|Company: Autodesk"
 90
        0
280
     0
281
     0
  0
CLASS
  1
ACAMGHOLECHARTSTDANSI
  2
AcAmgHoleChartStdANSI
  3
ACMSYMBB_MODULE_NAME
 90
        0
280
     0
281
     0
  0
CLASS
  1
ACAMGTITLESTD
  2
AcAmgTitleStd
  3
"TITLEAPP"
 90
        0
280
     0
281
     0
  0
CLASS
  1
ACAMGFILTERDAT
  2
AcAmgFilterDat
  3
"AcadM|Product Description: AutoCAD Mechanical 2000|Company: Autodesk"
 90
        0
280
     0
281
     0
  0
CLASS
  1
DICTIONARYVAR
  2
AcDbDictionaryVar
  3
ObjectDBX Classes
 90
        0
280
     0
281
     0
  0
CLASS
  1
ACDBPLACEHOLDER
  2
AcDbPlaceHolder
  3
ObjectDBX Classes
 90
        0
280
     0
281
     0
  0
CLASS
  1
LAYOUT
  2
AcDbLayout
  3
ObjectDBX Classes
 90
        0
280
     0
281
     0
  0
ENDSEC
  0
SECTION
  2
TABLES
  0
TABLE
  2
VPORT
  5
1761
330
0
100
AcDbSymbolTable
 70
     3
  0
VPORT
  5
186F
330
1761
100
AcDbSymbolTableRecord
100
AcDbViewportTableRecord
  2
*Active
 70
     0
 10
0.0
 20
0.0
 11
1.0
 21
1.0
 12
60.01542722423971
 22
11.86569251919367
 13
0.0
 23
0.0
 14
7.0
 24
7.0
 15
7.0
 25
7.0
 16
0.0
 26
0.0
 36
1.0
 17
0.0
 27
0.0
 37
0.0
 40
229.4679872993512
 41
1.444687842278203
 42
50.0
 43
0.0
 44
0.0
 50
0.0
 51
0.0
 71
     0
 72
  2000
 73
     1
 74
     0
 75
     0
 76
     0
 77
     0
 78
     0
281
     0
 65
     0
110
0.0
120
0.0
130
0.0
111
1.0
121
0.0
131
0.0
112
0.0
122
1.0
132
0.0
 79
     0
146
0.0
  0
ENDTAB
  0
TABLE
  2
LTYPE
  5
175E
330
0
100
AcDbSymbolTable
 70
    21
  0
LTYPE
  5
176C
330
175E
100
AcDbSymbolTableRecord
100
AcDbLinetypeTableRecord
  2
ByBlock
 70
     0
  3

 72
    65
 73
     0
 40
0.0
  0
LTYPE
  5
176D
330
175E
100
AcDbSymbolTableRecord
100
AcDbLinetypeTableRecord
  2
ByLayer
 70
     0
  3

 72
    65
 73
     0
 40
0.0
  0
LTYPE
  5
176E
330
175E
100
AcDbSymbolTableRecord
100
AcDbLinetypeTableRecord
  2
CONTINUOUS
 70
     0
  3
Solid line
 72
    65
 73
     0
 40
0.0
  0
LTYPE
  5
1782
330
175E
100
AcDbSymbolTableRecord
100
AcDbLinetypeTableRecord
  2
CENTER2
 70
     0
  3
___ _ ___ _ ___ _ ___ _ ___ _ ___ _ ___ _ ___ _
 72
    65
 73
     4
 40
1.125
 49
0.75
 74
     0
 49
-0.125
 74
     0
 49
0.125
 74
     0
 49
-0.125
 74
     0
  0
LTYPE
  5
1783
330
175E
100
AcDbSymbolTableRecord
100
AcDbLinetypeTableRecord
  2
HIDDEN2
 70
     0
  3
_ _ _ _ _ _ _ _ _ _ _ _ _ _ _ _ _ _ _ _ _ _ _ _
 72
    65
 73
     2
 40
0.1875
 49
0.125
 74
     0
 49
-0.0625
 74
     0
  0
LTYPE
  5
1784
330
175E
100
AcDbSymbolTableRecord
100
AcDbLinetypeTableRecord
  2
PHANTOM2
 70
     0
  3
___ _ _ ___ _ _ ___ _ _ ___ _ _ ___ _ _ ___ _ _
 72
    65
 73
     6
 40
1.25
 49
0.625
 74
     0
 49
-0.125
 74
     0
 49
0.125
 74
     0
 49
-0.125
 74
     0
 49
0.125
 74
     0
 49
-0.125
 74
     0
  0
LTYPE
  5
1785
330
175E
100
AcDbSymbolTableRecord
100
AcDbLinetypeTableRecord
  2
CENTER
 70
     0
  3
____ _ ____ _ ____ _ ____ _ ____ _ ____ _ ____ 
 72
    65
 73
     4
 40
2.0
 49
1.25
 74
     0
 49
-0.25
 74
     0
 49
0.25
 74
     0
 49
-0.25
 74
     0
  0
LTYPE
  5
1787
330
175E
100
AcDbSymbolTableRecord
100
AcDbLinetypeTableRecord
  2
AMCONSTR
 70
     0
  3
_______________________
 72
    65
 73
     2
 40
9999.0
 49
9999.0
 74
     0
 49
0.0
 74
     0
  0
LTYPE
  5
178D
330
175E
100
AcDbSymbolTableRecord
100
AcDbLinetypeTableRecord
  2
HIDDEN
 70
     0
  3
Hidden __ __ __ __ __ __ __ __ __ __ __ __ __ _
 72
    65
 73
     2
 40
9.524999999999998
 49
6.349999999999998
 74
     0
 49
-3.174999999999998
 74
     0
  0
LTYPE
  5
1843
330
175E
100
AcDbSymbolTableRecord
100
AcDbLinetypeTableRecord
  2
Amzigzag2
 70
     0
  3
/\/-/\/-/\/-/\/-/\/-/\/
 72
    65
 73
     2
 40
0.4401
 49
0.0001
 74
     4
 75
   135
340
1841
 46
0.0016
 50
0.0
 44
0.0
 45
0.0
 49
-0.4400000000000001
 74
     0
  0
LTYPE
  5
1851
330
175E
100
AcDbSymbolTableRecord
100
AcDbLinetypeTableRecord
  2
ACANSTGB
 70
     0
  3
__ . . __ . .
 72
    65
 73
     6
 40
0.35433070866
 49
0.15748031496
 74
     0
 49
-0.03937007874
 74
     0
 49
0.03937007874
 74
     0
 49
-0.03937007874
 74
     0
 49
0.03937007874
 74
     0
 49
-0.03937007874
 74
     0
  0
LTYPE
  5
1852
330
175E
100
AcDbSymbolTableRecord
100
AcDbLinetypeTableRecord
  2
ACANSTGL
 70
     0
  3
_ _ _ _ _
 72
    65
 73
     2
 40
0.11811023622
 49
0.07874015748
 74
     0
 49
-0.03937007874
 74
     0
  0
ENDTAB
  0
TABLE
  2
LAYER
  5
175B
330
0
100
AcDbSymbolTable
 70
     8
  0
LAYER
  5
1769
330
175B
100
AcDbSymbolTableRecord
100
AcDbLayerTableRecord
  2
0
 70
     0
 62
     7
  6
CONTINUOUS
370
    -3
390
1768
  0
LAYER
  5
177F
330
175B
100
AcDbSymbolTableRecord
100
AcDbLayerTableRecord
  2
240
 70
     0
 62
     4
  6
CONTINUOUS
370
    -3
390
1768
  0
LAYER
  5
178E
330
175B
100
AcDbSymbolTableRecord
100
AcDbLayerTableRecord
  2
DEFPOINTS
 70
     0
 62
     7
  6
CONTINUOUS
290
     0
370
    -3
390
1768
  0
LAYER
  5
178F
330
175B
100
AcDbSymbolTableRecord
100
AcDbLayerTableRecord
  2
245
 70
     0
 62
     2
  6
CENTER2
370
    -3
390
1768
  0
LAYER
  5
1790
330
175B
100
AcDbSymbolTableRecord
100
AcDbLayerTableRecord
  2
241
 70
     0
 62
   211
  6
CONTINUOUS
370
    -3
390
1768
  0
LAYER
  5
1791
330
175B
100
AcDbSymbolTableRecord
100
AcDbLayerTableRecord
  2
242
 70
     0
 62
     3
  6
CONTINUOUS
370
    -3
390
1768
  0
LAYER
  5
1792
330
175B
100
AcDbSymbolTableRecord
100
AcDbLayerTableRecord
  2
243
 70
     0
 62
   211
  6
HIDDEN2
370
    -3
390
1768
  0
LAYER
  5
1793
330
175B
100
AcDbSymbolTableRecord
100
AcDbLayerTableRecord
  2
250
 70
     0
 62
     3
  6
CONTINUOUS
370
    -3
390
1768
  0
ENDTAB
  0
TABLE
  2
STYLE
  5
175C
330
0
100
AcDbSymbolTable
 70
     9
  0
STYLE
  5
176A
330
175C
100
AcDbSymbolTableRecord
100
AcDbTextStyleTableRecord
  2
STANDARD
 70
     0
 40
0.0
 41
1.0
 50
0.0
 71
     0
 42
3.0
  3
romans.shx
  4
extfont.shx
  0
STYLE
  5
1780
330
175C
100
AcDbSymbolTableRecord
100
AcDbTextStyleTableRecord
  2
YOKO
 70
     0
 40
0.0
 41
1.0
 50
0.0
 71
     0
 42
3.0
  3
romans.shx
  4
extfont.shx
  0
STYLE
  5
1841
330
175C
100
AcDbSymbolTableRecord
100
AcDbTextStyleTableRecord
  2

 70
     1
 40
0.0
 41
1.0
 50
0.0
 71
     0
 42
3.0
  3
ltypeshp.shx
  4

  0
STYLE
  5
1844
330
175C
100
AcDbSymbolTableRecord
100
AcDbTextStyleTableRecord
  2
ACANSTS
 70
     0
 40
1.0
 41
1.0
 50
0.0
 71
     0
 42
3.0
  3
romans.shx
  4
extfont.shx
  0
STYLE
  5
1850
330
175C
100
AcDbSymbolTableRecord
100
AcDbTextStyleTableRecord
  2
ACANSGDT
 70
     0
 40
0.0
 41
1.0
 50
0.0
 71
     0
 42
3.0
  3
amgdtans.shx
  4

  0
ENDTAB
  0
TABLE
  2
VIEW
  5
175F
330
0
100
AcDbSymbolTable
 70
     0
  0
ENDTAB
  0
TABLE
  2
UCS
  5
1760
330
0
100
AcDbSymbolTable
 70
     0
  0
ENDTAB
  0
TABLE
  2
APPID
  5
1762
330
0
100
AcDbSymbolTable
 70
    32
  0
APPID
  5
176B
330
1762
100
AcDbSymbolTableRecord
100
AcDbRegAppTableRecord
  2
ACAD
 70
     0
  0
APPID
  5
1798
330
1762
100
AcDbSymbolTableRecord
100
AcDbRegAppTableRecord
  2
GLOBAL
 70
     0
  0
APPID
  5
1799
330
1762
100
AcDbSymbolTableRecord
100
AcDbRegAppTableRecord
  2
DETAIL
 70
     0
  0
APPID
  5
179A
330
1762
100
AcDbSymbolTableRecord
100
AcDbRegAppTableRecord
  2
GRPNAME
 70
     0
  0
APPID
  5
179B
330
1762
100
AcDbSymbolTableRecord
100
AcDbRegAppTableRecord
  2
GPARA
 70
     0
  0
APPID
  5
179C
330
1762
100
AcDbSymbolTableRecord
100
AcDbRegAppTableRecord
  2
MCAD_NO_VIS
 70
     0
  0
APPID
  5
179D
330
1762
100
AcDbSymbolTableRecord
100
AcDbRegAppTableRecord
  2
ACAD_TEMP_GRAPHIC
 70
     0
  0
APPID
  5
179E
330
1762
100
AcDbSymbolTableRecord
100
AcDbRegAppTableRecord
  2
ACATTRIBSERVICES
 70
     0
  0
APPID
  5
179F
330
1762
100
AcDbSymbolTableRecord
100
AcDbRegAppTableRecord
  2
GENIUS_GENSCREG_15
 70
     0
  0
APPID
  5
17A0
330
1762
100
AcDbSymbolTableRecord
100
AcDbRegAppTableRecord
  2
GENIUS_GENODEF_13
 70
     0
  0
APPID
  5
17A1
330
1762
100
AcDbSymbolTableRecord
100
AcDbRegAppTableRecord
  2
GENIUS_GENOBJ-N-SDF_13
 70
     0
  0
APPID
  5
17A2
330
1762
100
AcDbSymbolTableRecord
100
AcDbRegAppTableRecord
  2
GENIUS_GENREC_14
 70
     0
  0
APPID
  5
17A3
330
1762
100
AcDbSymbolTableRecord
100
AcDbRegAppTableRecord
  2
GENIUS_GENOBJ-N-REC_13
 70
     0
  0
APPID
  5
17A4
330
1762
100
AcDbSymbolTableRecord
100
AcDbRegAppTableRecord
  2
GENIUS_GENDIMSH_14
 70
     0
  0
APPID
  5
17A5
330
1762
100
AcDbSymbolTableRecord
100
AcDbRegAppTableRecord
  2
GENIUS_GENOBJ-N-DIM_13
 70
     0
  0
APPID
  5
17A6
330
1762
100
AcDbSymbolTableRecord
100
AcDbRegAppTableRecord
  2
GENIUS_GENDIM_13
 70
     0
  0
APPID
  5
17A7
330
1762
100
AcDbSymbolTableRecord
100
AcDbRegAppTableRecord
  2
GENIUS_GENDTOL_13
 70
     0
  0
APPID
  5
17A8
330
1762
100
AcDbSymbolTableRecord
100
AcDbRegAppTableRecord
  2
GENIUS_GENOLIS_13
 70
     0
  0
APPID
  5
17A9
330
1762
100
AcDbSymbolTableRecord
100
AcDbRegAppTableRecord
  2
GENIUS_GENOENT_13
 70
     0
  0
APPID
  5
17AA
330
1762
100
AcDbSymbolTableRecord
100
AcDbRegAppTableRecord
  2
GENIUS_GENOBJ-F-FEM_13
 70
     0
  0
APPID
  5
17AB
330
1762
100
AcDbSymbolTableRecord
100
AcDbRegAppTableRecord
  2
GENIUS_GENOREF_13
 70
     0
  0
APPID
  5
17AC
330
1762
100
AcDbSymbolTableRecord
100
AcDbRegAppTableRecord
  2
GENIUS_GEFFEM_13
 70
     0
  0
APPID
  5
17AD
330
1762
100
AcDbSymbolTableRecord
100
AcDbRegAppTableRecord
  2
GENIUS_GEFFEMP_13
 70
     0
  0
APPID
  5
17AE
330
1762
100
AcDbSymbolTableRecord
100
AcDbRegAppTableRecord
  2
AD_DRAW
 70
     0
  0
APPID
  5
17AF
330
1762
100
AcDbSymbolTableRecord
100
AcDbRegAppTableRecord
  2
DESIGNERASSEMBLIES
 70
     0
  0
APPID
  5
17B0
330
1762
100
AcDbSymbolTableRecord
100
AcDbRegAppTableRecord
  2
ACADM_DIM_EDIT
 70
     0
  0
APPID
  5
17B1
330
1762
100
AcDbSymbolTableRecord
100
AcDbRegAppTableRecord
  2
AMDT_DM_ADJ
 70
     0
  0
APPID
  5
17B2
330
1762
100
AcDbSymbolTableRecord
100
AcDbRegAppTableRecord
  2
GENIUS_GENFIL_13
 70
     0
  0
APPID
  5
17B3
330
1762
100
AcDbSymbolTableRecord
100
AcDbRegAppTableRecord
  2
ACAD_PSEXT
 70
     0
  0
APPID
  5
17B4
330
1762
100
AcDbSymbolTableRecord
100
AcDbRegAppTableRecord
  2
ASKLEADERCHILD
 70
     0
  0
APPID
  5
17B5
330
1762
100
AcDbSymbolTableRecord
100
AcDbRegAppTableRecord
  2
ASK_MEN_XD
 70
     0
  0
APPID
  5
17B6
330
1762
100
AcDbSymbolTableRecord
100
AcDbRegAppTableRecord
  2
GENIUS_GENOBJ-N-FIL_13
 70
     0
  0
ENDTAB
  0
TABLE
  2
DIMSTYLE
  5
1763
330
0
100
AcDbSymbolTable
 70
    29
100
AcDbDimStyleTable
 71
     0
  0
DIMSTYLE
105
17B7
330
1763
100
AcDbSymbolTableRecord
100
AcDbDimStyleTableRecord
  2
BIGT
 70
     0
 41
2.229999999999999
 42
0.5
 43
7.0
 44
1.0
 48
0.01
 73
     0
 74
     0
 77
     3
 78
     9
140
2.799999999999998
141
0.0
147
1.0
172
     1
174
     1
176
   256
177
   256
178
    40
271
     3
272
     3
279
     2
284
     9
285
     9
286
     9
340
1780
  0
DIMSTYLE
105
185B
330
1763
100
AcDbSymbolTableRecord
100
AcDbDimStyleTableRecord
  2
AM_ANSI
 70
     0
  4
mm
 41
0.1
 42
0.05
 43
0.5
 44
0.1
 47
0.1
 48
0.1
 78
     7
 79
     2
140
0.12
141
0.0
146
0.71
147
0.06
176
   256
177
   256
178
     2
274
     4
284
     7
340
176A
371
    -1
372
    -1
  0
DIMSTYLE
105
185C
330
1763
100
AcDbSymbolTableRecord
100
AcDbDimStyleTableRecord
  2
AM_ANSI$3
 70
     0
  4
mm
 41
0.1
 42
0.05
 43
0.5
 44
0.1
 47
0.1
 48
0.1
 78
     7
 79
     2
140
0.12
141
0.0
146
0.71
147
0.06
176
   256
177
   256
178
     2
274
     4
284
     7
288
     1
289
     0
340
176A
371
    -1
372
    -1
  0
DIMSTYLE
105
185D
330
1763
100
AcDbSymbolTableRecord
100
AcDbDimStyleTableRecord
  2
AM_ANSI$4
 70
     0
  4
mm
 41
0.1
 42
0.05
 43
0.5
 44
0.1
 47
0.1
 48
0.1
 78
     7
 79
     2
140
0.12
141
0.0
146
0.71
147
0.06
176
   256
177
   256
178
     2
274
     4
284
     7
288
     1
289
     0
340
176A
371
    -1
372
    -1
  0
DIMSTYLE
105
185E
330
1763
100
AcDbSymbolTableRecord
100
AcDbDimStyleTableRecord
  2
AM_ANSI$7
 70
     0
  4
mm
 41
0.1
 42
0.05
 43
0.5
 44
0.1
 47
0.1
 48
0.1
 78
     7
 79
     2
140
0.24
141
0.0
146
0.71
147
0.06
176
   256
177
   256
178
     2
274
     4
284
     7
340
176A
371
    -1
372
    -1
  0
DIMSTYLE
105
185F
330
1763
100
AcDbSymbolTableRecord
100
AcDbDimStyleTableRecord
  2
AM_ANSI$SF
 70
     0
  4
mm
 41
0.1
 42
0.05
 43
0.5
 44
0.1
 47
0.1
 48
0.1
 75
     1
 76
     1
 78
     7
 79
     2
140
0.12
141
0.0
146
0.71
147
0.06
176
   256
177
   256
178
     2
274
     4
284
     7
340
176A
371
    -1
372
    -1
  0
DIMSTYLE
105
1860
330
1763
100
AcDbSymbolTableRecord
100
AcDbDimStyleTableRecord
  2
AM_ANSI$SH
 70
     0
  4
mm
 41
0.1
 42
0.05
 43
0.5
 44
0.1
 47
0.1
 48
0.1
 75
     1
 76
     1
 78
     7
 79
     2
140
0.12
141
0.0
146
0.71
147
0.06
173
     1
176
   256
177
   256
178
     2
274
     4
284
     7
340
176A
343
17D7
371
    -1
372
    -1
  0
ENDTAB
  0
TABLE
  2
BLOCK_RECORD
  5
175A
330
0
100
AcDbSymbolTable
 70
     6
  0
BLOCK_RECORD
  5
177B
330
175A
100
AcDbSymbolTableRecord
100
AcDbBlockTableRecord
  2
*Model_Space
340
177E
  0
BLOCK_RECORD
  5
1777
330
175A
100
AcDbSymbolTableRecord
100
AcDbBlockTableRecord
  2
*Paper_Space
340
177A
  0
BLOCK_RECORD
  5
17D5
330
175A
100
AcDbSymbolTableRecord
100
AcDbBlockTableRecord
  2
_OPEN
340
0
  0
BLOCK_RECORD
  5
17D7
330
175A
100
AcDbSymbolTableRecord
100
AcDbBlockTableRecord
  2
GENAXEH
340
0
  0
ENDTAB
  0
ENDSEC
  0
SECTION
  2
BLOCKS
  0
BLOCK
  5
177C
330
177B
100
AcDbEntity
  8
0
100
AcDbBlockBegin
  2
*Model_Space
 70
     0
 10
0.0
 20
0.0
 30
0.0
  3
*Model_Space
  1

  0
ENDBLK
  5
177D
330
177B
100
AcDbEntity
  8
0
100
AcDbBlockEnd
  0
BLOCK
  5
1778
330
1777
100
AcDbEntity
 67
     1
  8
0
100
AcDbBlockBegin
  2
*Paper_Space
 70
     0
 10
0.0
 20
0.0
 30
0.0
  3
*Paper_Space
  1

  0
ENDBLK
  5
1779
330
1777
100
AcDbEntity
 67
     1
  8
0
100
AcDbBlockEnd
  0
BLOCK
  5
17D6
330
17D5
100
AcDbEntity
  8
0
100
AcDbBlockBegin
  2
_OPEN
 70
     0
 10
0.0
 20
0.0
 30
0.0
  3
_OPEN
  1

  0
LINE
  5
16F0
330
17D5
100
AcDbEntity
  8
0
  6
ByBlock
 62
     0
100
AcDbLine
 10
-1.0
 20
0.1666666666666666
 30
0.0
 11
0.0
 21
0.0
 31
0.0
  0
LINE
  5
16F1
330
17D5
100
AcDbEntity
  8
0
  6
ByBlock
 62
     0
100
AcDbLine
 10
-1.0
 20
-0.1666666666666666
 30
0.0
 11
0.0
 21
0.0
 31
0.0
  0
LINE
  5
16F2
330
17D5
100
AcDbEntity
  8
0
  6
ByBlock
 62
     0
100
AcDbLine
 10
0.0
 20
0.0
 30
0.0
 11
-1.0
 21
0.0
 31
0.0
  0
ENDBLK
  5
16F3
330
17D5
100
AcDbEntity
  8
0
100
AcDbBlockEnd
  0
BLOCK
  5
17D8
330
17D7
100
AcDbEntity
  8
0
100
AcDbBlockBegin
  2
GENAXEH
 70
     0
 10
0.0
 20
0.0
 30
0.0
  3
GENAXEH
  1

  0
LINE
  5
171B
330
17D7
100
AcDbEntity
  8
0
100
AcDbLine
 10
-1.0
 20
0.0
 30
0.0
 11
1.0
 21
0.0
 31
0.0
  0
ENDBLK
  5
171C
330
17D7
100
AcDbEntity
  8
0
100
AcDbBlockEnd
  0
ENDSEC
  0
SECTION
  2
ENTITIES
  0
LINE
  5
13EA
330
177B
100
AcDbEntity
  8
240
100
AcDbLine
 10
170.0
 20
30.0000000000017
 30
0.0
 11
51.87973349054991
 21
30.00000000000068
 31
0.0
  0
LINE
  5
13EB
330
177B
100
AcDbEntity
  8
240
100
AcDbLine
 10
170.0000000000001
 20
-29.99999999999861
 30
0.0
 11
51.87973349055027
 21
-29.99999999999993
 31
0.0
  0
LINE
  5
13ED
330
177B
100
AcDbEntity
  8
240
100
AcDbLine
 10
36.70000000000063
 20
50.000000000005
 30
0.0
 11
30.69999999999993
 21
50.000000000005
 31
0.0
  0
ARC
  5
13EE
330
177B
100
AcDbEntity
  8
240
100
AcDbCircle
 10
36.70000000000063
 20
48.70000000000499
 30
0.0
 40
1.30000000000001
100
AcDbArc
 50
0.0
 51
90.0
  0
LINE
  5
13F0
330
177B
100
AcDbEntity
  8
240
100
AcDbLine
 10
20.03012701892215
 20
42.500000000005
 30
0.0
 11
15.69999999999993
 21
50.000000000005
 31
0.0
  0
LINE
  5
13F1
330
177B
100
AcDbEntity
  8
241
100
AcDbLine
 10
15.69999999999993
 20
50.0000000000049
 30
0.0
 11
15.69999999999993
 21
50.00000000000493
 31
0.0
  0
LINE
  5
13F2
330
177B
100
AcDbEntity
  8
240
100
AcDbLine
 10
26.36987298107772
 20
42.500000000005
 30
0.0
 11
20.03012701892215
 21
42.500000000005
 31
0.0
  0
LINE
  5
13F3
330
177B
100
AcDbEntity
  8
240
100
AcDbLine
 10
26.36987298107772
 20
42.500000000005
 30
0.0
 11
30.69999999999993
 21
50.000000000005
 31
0.0
  0
LINE
  5
13F4
330
177B
100
AcDbEntity
  8
243
100
AcDbLine
 10
34.0
 20
35.40000000000515
 30
0.0
 11
34.0
 21
50.000000000005
 31
0.0
  0
LINE
  5
13F5
330
177B
100
AcDbEntity
  8
240
100
AcDbLine
 10
1.500000000000112
 20
34.92500000000501
 30
0.0
 11
1.500000000000112
 21
49.00000000000499
 31
0.0
  0
ARC
  5
13F7
330
177B
100
AcDbEntity
  8
240
100
AcDbCircle
 10
2.500000000000112
 20
49.00000000000499
 30
0.0
 40
1.0
100
AcDbArc
 50
90.0
 51
180.0
  0
LINE
  5
13FE
330
177B
100
AcDbEntity
  8
240
100
AcDbLine
 10
2.500000000000112
 20
50.000000000005
 30
0.0
 11
15.69999999999993
 21
50.000000000005
 31
0.0
  0
LINE
  5
13FF
330
177B
100
AcDbEntity
  8
243
100
AcDbLine
 10
1.500000000000112
 20
35.40000000000515
 30
0.0
 11
34.0
 21
35.40000000000515
 31
0.0
  0
LINE
  5
1400
330
177B
100
AcDbEntity
  8
243
100
AcDbLine
 10
34.0
 20
-35.39999999999492
 30
0.0
 11
33.99999999999977
 21
-49.99999999999506
 31
0.0
  0
LINE
  5
1401
330
177B
100
AcDbEntity
  8
240
100
AcDbLine
 10
38.00000000000205
 20
-48.70000000000164
 30
0.0
 11
38.00000000000159
 21
-48.12214450449658
 31
0.0
  0
LINE
  5
1402
330
177B
100
AcDbEntity
  8
240
100
AcDbLine
 10
36.69999999999981
 20
-49.99999999999515
 30
0.0
 11
30.69999999999915
 21
-49.99999999999499
 31
0.0
  0
ARC
  5
1403
330
177B
100
AcDbEntity
  8
240
100
AcDbCircle
 10
36.69999999999981
 20
-48.69999999999516
 30
0.0
 40
1.30000000000001
100
AcDbArc
 50
270.0
 51
0.0
  0
LINE
  5
1404
330
177B
100
AcDbEntity
  8
240
100
AcDbLine
 10
20.03012701892157
 20
-42.49999999999483
 30
0.0
 11
15.69999999999891
 21
-49.99999999999528
 31
0.0
  0
LINE
  5
1405
330
177B
100
AcDbEntity
  8
241
100
AcDbLine
 10
15.69999999999913
 20
-49.99999999999466
 30
0.0
 11
15.69999999999913
 21
-49.9999999999947
 31
0.0
  0
LINE
  5
1406
330
177B
100
AcDbEntity
  8
240
100
AcDbLine
 10
26.36987298107715
 20
-42.49999999999494
 30
0.0
 11
20.03012701892157
 21
-42.49999999999483
 31
0.0
  0
LINE
  5
1407
330
177B
100
AcDbEntity
  8
240
100
AcDbLine
 10
26.36987298107715
 20
-42.49999999999494
 30
0.0
 11
30.69999999999915
 21
-49.99999999999499
 31
0.0
  0
LINE
  5
1408
330
177B
100
AcDbEntity
  8
241
100
AcDbLine
 10
30.69999999999915
 20
-49.99999999999493
 30
0.0
 11
30.7000000000005
 21
49.99999999999556
 31
0.0
  0
LINE
  5
1409
330
177B
100
AcDbEntity
  8
241
100
AcDbLine
 10
38.00000000000181
 20
-48.122144504489
 30
0.0
 11
38.00000000000047
 21
48.12214450448968
 31
0.0
  0
LINE
  5
140A
330
177B
100
AcDbEntity
  8
241
100
AcDbLine
 10
26.36987298107863
 20
-42.49999999998714
 30
0.0
 11
26.36987298107567
 21
42.49999999998773
 31
0.0
  0
LINE
  5
140B
330
177B
100
AcDbEntity
  8
241
100
AcDbLine
 10
20.0301270189259
 20
-42.49999999998714
 30
0.0
 11
20.03012701892271
 21
42.49999999998769
 31
0.0
  0
LINE
  5
140C
330
177B
100
AcDbEntity
  8
241
100
AcDbLine
 10
15.69999999999959
 20
-49.99999999999403
 30
0.0
 11
15.70000000000004
 21
49.99999999999457
 31
0.0
  0
LINE
  5
1412
330
177B
100
AcDbEntity
  8
240
100
AcDbLine
 10
1.499999999998407
 20
-48.99999999999504
 30
0.0
 11
1.499999999998407
 21
-34.92499999999501
 31
0.0
  0
ARC
  5
1413
330
177B
100
AcDbEntity
  8
240
100
AcDbCircle
 10
2.499999999998407
 20
-48.9999999999951
 30
0.0
 40
1.0
100
AcDbArc
 50
179.9999999999966
 51
270.0
  0
LINE
  5
141B
330
177B
100
AcDbEntity
  8
240
100
AcDbLine
 10
2.499999999998407
 20
-49.9999999999951
 30
0.0
 11
15.69999999999891
 21
-49.99999999999528
 31
0.0
  0
LINE
  5
141C
330
177B
100
AcDbEntity
  8
243
100
AcDbLine
 10
1.499999999998407
 20
-35.39999999999492
 30
0.0
 11
34.0
 21
-35.39999999999492
 31
0.0
  0
LINE
  5
141D
330
177B
100
AcDbEntity
  8
241
100
AcDbLine
 10
0.0
 20
34.92500000000501
 30
0.0
 11
0.0
 21
-34.92499999999501
 31
0.0
  0
ARC
  5
1423
330
177B
100
AcDbEntity
  8
240
100
AcDbCircle
 10
-98.79999999999997
 20
17.48493345776296
 30
0.0
 40
2.999999999999968
100
AcDbArc
 50
98.29714496983838
 51
180.0
  0
ARC
  5
1425
330
177B
100
AcDbEntity
  8
240
100
AcDbCircle
 10
-98.79999999999997
 20
-17.48493345775296
 30
0.0
 40
3.0
100
AcDbArc
 50
180.0
 51
261.7028550301613
  0
LINE
  5
1426
330
177B
100
AcDbEntity
  8
240
100
AcDbLine
 10
-101.7999999999999
 20
17.48493345776296
 30
0.0
 11
-101.7999999999999
 21
-17.48493345775296
 31
0.0
  0
LINE
  5
142A
330
177B
100
AcDbEntity
  8
240
100
AcDbLine
 10
0.0
 20
-34.92499999999501
 30
0.0
 11
-99.23292067921513
 21
-20.45353240094278
 31
0.0
  0
LINE
  5
142B
330
177B
100
AcDbEntity
  8
240
100
AcDbLine
 10
0.0
 20
34.92500000000501
 30
0.0
 11
-99.23292067921513
 21
20.45353240095278
 31
0.0
  0
LINE
  5
142D
330
177B
100
AcDbEntity
  8
241
100
AcDbLine
 10
48.00000000000089
 20
-31.17353726157026
 30
0.0
 11
48.00000000000089
 21
31.173537261571
 31
0.0
  0
LINE
  5
142E
330
177B
100
AcDbEntity
  8
240
100
AcDbLine
 10
38.00000000000047
 20
48.70000000000215
 30
0.0
 11
38.0000000000001
 21
48.1221445044971
 31
0.0
  0
LINE
  5
1432
330
177B
100
AcDbEntity
  8
240
100
AcDbLine
 10
173.0
 20
18.99999999999949
 30
0.0
 11
172.0
 21
17.99999999999949
 31
0.0
  0
LINE
  5
1433
330
177B
100
AcDbEntity
  8
240
100
AcDbLine
 10
172.0
 20
-18.00000000000057
 30
0.0
 11
173.0
 21
-19.00000000000057
 31
0.0
  0
LINE
  5
1434
330
177B
100
AcDbEntity
  8
240
100
AcDbLine
 10
173.0
 20
-19.00000000000057
 30
0.0
 11
189.7
 21
-19.00000000000057
 31
0.0
  0
LINE
  5
1435
330
177B
100
AcDbEntity
  8
240
100
AcDbLine
 10
189.7
 20
18.99999999999949
 30
0.0
 11
173.0
 21
18.99999999999949
 31
0.0
  0
LINE
  5
1436
330
177B
100
AcDbEntity
  8
242
100
AcDbLine
 10
190.4499999999999
 20
18.24999999999949
 30
0.0
 11
172.2499999999999
 21
18.24999999999949
 31
0.0
  0
LINE
  5
1437
330
177B
100
AcDbEntity
  8
240
100
AcDbLine
 10
189.7
 20
-19.00000000000057
 30
0.0
 11
191.0
 21
-17.70000000000055
 31
0.0
  0
LINE
  5
1438
330
177B
100
AcDbEntity
  8
240
100
AcDbLine
 10
191.0
 20
17.69999999999948
 30
0.0
 11
189.7
 21
18.99999999999949
 31
0.0
  0
LINE
  5
1439
330
177B
100
AcDbEntity
  8
240
100
AcDbLine
 10
193.2999999999999
 20
17.99999999999949
 30
0.0
 11
193.0
 21
17.69999999999948
 31
0.0
  0
LINE
  5
143A
330
177B
100
AcDbEntity
  8
240
100
AcDbLine
 10
193.0
 20
-17.70000000000055
 30
0.0
 11
193.2999999999999
 21
-18.00000000000057
 31
0.0
  0
LINE
  5
143B
330
177B
100
AcDbEntity
  8
240
100
AcDbLine
 10
193.2999999999999
 20
-18.00000000000057
 30
0.0
 11
206.9999999999998
 21
-18.00000000000057
 31
0.0
  0
LINE
  5
143D
330
177B
100
AcDbEntity
  8
240
100
AcDbLine
 10
206.9999999999999
 20
17.99999999999948
 30
0.0
 11
193.2999999999999
 21
17.99999999999949
 31
0.0
  0
LINE
  5
143E
330
177B
100
AcDbEntity
  8
240
100
AcDbLine
 10
170.0
 20
-18.00000000000057
 30
0.0
 11
172.0
 21
-18.00000000000057
 31
0.0
  0
LINE
  5
143F
330
177B
100
AcDbEntity
  8
240
100
AcDbLine
 10
172.0
 20
17.99999999999949
 30
0.0
 11
170.0
 21
17.99999999999949
 31
0.0
  0
LINE
  5
1440
330
177B
100
AcDbEntity
  8
240
100
AcDbLine
 10
191.0
 20
-17.70000000000055
 30
0.0
 11
193.0
 21
-17.70000000000055
 31
0.0
  0
LINE
  5
1441
330
177B
100
AcDbEntity
  8
240
100
AcDbLine
 10
193.0
 20
17.69999999999948
 30
0.0
 11
191.0
 21
17.69999999999948
 31
0.0
  0
LINE
  5
1442
330
177B
100
AcDbEntity
  8
240
100
AcDbLine
 10
170.0
 20
17.99999999999949
 30
0.0
 11
170.0
 21
30.0000000000017
 31
0.0
  0
LINE
  5
1444
330
177B
100
AcDbEntity
  8
241
100
AcDbLine
 10
173.0
 20
-19.00000000000057
 30
0.0
 11
173.0
 21
19.00000000000208
 31
0.0
  0
LINE
  5
1445
330
177B
100
AcDbEntity
  8
241
100
AcDbLine
 10
172.0
 20
-18.00000000000057
 30
0.0
 11
172.0
 21
18.00000000000208
 31
0.0
  0
LINE
  5
1446
330
177B
100
AcDbEntity
  8
241
100
AcDbLine
 10
189.7
 20
-19.00000000000057
 30
0.0
 11
189.6999999999997
 21
19.00000000000219
 31
0.0
  0
LINE
  5
1447
330
177B
100
AcDbEntity
  8
241
100
AcDbLine
 10
191.0
 20
-17.70000000000055
 30
0.0
 11
191.0
 21
17.70000000000218
 31
0.0
  0
LINE
  5
1448
330
177B
100
AcDbEntity
  8
240
100
AcDbLine
 10
208.0
 20
16.99999999999948
 30
0.0
 11
207.9999999999997
 21
-17.00000000000057
 31
0.0
  0
LINE
  5
144C
330
177B
100
AcDbEntity
  8
243
100
AcDbLine
 10
207.9999999999999
 20
4.000000000004945
 30
0.0
 11
35.21032601983313
 21
4.000000000004945
 31
0.0
  0
LINE
  5
144E
330
177B
100
AcDbEntity
  8
241
100
AcDbLine
 10
169.9999999999998
 20
18.00000000000207
 30
0.0
 11
170.0
 21
-18.00000000000057
 31
0.0
  0
LINE
  5
144F
330
177B
100
AcDbEntity
  8
240
100
AcDbLine
 10
169.9999999999998
 20
-18.00000000000057
 30
0.0
 11
170.0000000000001
 21
-29.99999999999861
 31
0.0
  0
LINE
  5
1450
330
177B
100
AcDbEntity
  8
245
100
AcDbLine
 10
-104.9698613532844
 20
-0.0000000000001137
 30
0.0
 11
210.9766744266435
 21
0.0000000000008811
 31
0.0
  0
LINE
  5
1455
330
177B
100
AcDbEntity
  8
242
100
AcDbLine
 10
190.45
 20
-18.24999999999764
 30
0.0
 11
172.25
 21
-18.24999999999778
 31
0.0
  0
LINE
  5
145B
330
177B
100
AcDbEntity
  8
241
100
AcDbLine
 10
193.0
 20
-17.70000000000055
 30
0.0
 11
193.0
 21
17.7000000000022
 31
0.0
  0
ARC
  5
145D
330
177B
100
AcDbEntity
  8
240
100
AcDbCircle
 10
48.01843053151892
 20
-48.87616962164746
 30
0.0
 40
10.01997934381424
100
AcDbArc
 50
148.0106752934549
 51
178.9925831623422
1001
ASK_MEN_XD
1005
0
1070
     0
1005
145C
1070
     0
  0
ARC
  5
145F
330
177B
100
AcDbEntity
  8
240
100
AcDbCircle
 10
51.87973349055035
 20
-36.99999999999992
 30
0.0
 40
7.0
100
AcDbArc
 50
90.0
 51
147.9946167919175
1001
ASK_MEN_XD
1005
1460
1070
     0
1005
145E
1070
     0
  0
LINE
  5
1461
330
177B
100
AcDbEntity
  8
240
100
AcDbLine
 10
39.52001695994062
 20
43.56797286409556
 30
0.0
 11
45.94374536251422
 21
33.29000741997828
 31
0.0
  0
LINE
  5
1462
330
177B
100
AcDbEntity
  8
240
100
AcDbLine
 10
45.94374536251472
 20
-33.29000741997763
 30
0.0
 11
39.52001695996433
 21
-43.56797286405824
 31
0.0
  0
ARC
  5
1463
330
177B
100
AcDbEntity
  8
240
100
AcDbCircle
 10
51.87973349054985
 20
37.00000000000051
 30
0.0
 40
7.0
100
AcDbArc
 50
212.0053832080825
 51
270.0
1001
ASK_MEN_XD
1005
1460
1070
     0
1005
145E
1070
     0
  0
ARC
  5
1465
330
177B
100
AcDbEntity
  8
240
100
AcDbCircle
 10
48.01843053151822
 20
48.87616962164796
 30
0.0
 40
10.01997934381424
100
AcDbArc
 50
181.0074168376592
 51
211.9893247065465
1001
ASK_MEN_XD
1005
0
1070
     0
1005
145C
1070
     0
  0
ARC
  5
1471
330
177B
100
AcDbEntity
  8
240
100
AcDbCircle
 10
206.9999999999999
 20
16.99999999999948
 30
0.0
 40
1.0
100
AcDbArc
 50
359.9999999999997
 51
90.0
1001
GENIUS_GENOBJ-N-FIL_13
1002
{
1000
OWNER
1000
GEN
1002
}
1001
GENIUS_GENODEF_13
1002
{
1000
HIER
1070
     0
1002
}
1002
{
1000
MANEDIT
1070
     0
1002
}
1002
{
1000
NOSEL
1070
     0
1002
}
1002
{
1000
BEHIND
1070
     0
1002
}
1002
{
1000
OTHER
1070
     0
1002
}
1002
{
1000
REACTOR
1002
}
  0
ARC
  5
1475
330
177B
100
AcDbEntity
  8
240
100
AcDbCircle
 10
206.9999999999998
 20
-17.00000000000057
 30
0.0
 40
1.0
100
AcDbArc
 50
270.0
 51
359.9999999999997
1001
GENIUS_GENODEF_13
1002
{
1000
HIER
1070
     0
1002
}
1002
{
1000
MANEDIT
1070
     0
1002
}
1002
{
1000
NOSEL
1070
     0
1002
}
1002
{
1000
BEHIND
1070
     0
1002
}
1002
{
1000
OTHER
1070
     0
1002
}
1002
{
1000
REACTOR
1002
}
1001
GENIUS_GENOBJ-N-FIL_13
1002
{
1000
OWNER
1000
GEN
1002
}
  0
LINE
  5
1484
330
177B
100
AcDbEntity
  8
240
100
AcDbLine
 10
0.0
 20
34.92500000000501
 30
0.0
 11
1.500000000000112
 21
34.92500000000501
 31
0.0
  0
LINE
  5
1486
330
177B
100
AcDbEntity
  8
240
100
AcDbLine
 10
0.0
 20
-34.92499999999501
 30
0.0
 11
1.499999999998407
 21
-34.92499999999501
 31
0.0
  0
LINE
  5
1490
330
177B
100
AcDbEntity
  8
241
100
AcDbLine
 10
1.499999999998187
 20
34.92499999999545
 30
0.0
 11
1.499999999999992
 21
-34.92499999999501
 31
0.0
  0
LINE
  5
1498
330
177B
100
AcDbEntity
  8
243
100
AcDbLine
 10
208.0000000000008
 20
-3.999999999967588
 30
0.0
 11
35.21032601983405
 21
-4.00000000000702
 31
0.0
  0
TEXT
  5
1508
330
177B
100
AcDbEntity
  8
241
100
AcDbText
 10
-84.0
 20
70.00000000000021
 30
0.0
 40
4.0
  1
BBT50-SDF36-60-170
  7
YOKO
100
AcDbText
  0
LINE
  5
1560
330
177B
100
AcDbEntity
  8
250
100
AcDbLine
 10
170.5
 20
30.0000000000017
 30
0.0
 11
225.0
 21
30.00000000000169
 31
0.0
  0
LINE
  5
1561
330
177B
100
AcDbEntity
  8
250
100
AcDbLine
 10
170.5000000000001
 20
-29.99999999999861
 30
0.0
 11
225.0
 21
-29.99999999999863
 31
0.0
  0
LINE
  5
1562
330
177B
100
AcDbEntity
  8
250
100
AcDbLine
 10
224.0
 20
27.7700000000017
 30
0.0
 11
224.0
 21
-27.76999999999862
 31
0.0
  0
LINE
  5
1566
330
177B
100
AcDbEntity
  8
250
100
AcDbLine
 10
0.0
 20
35.42500000000501
 30
0.0
 11
0.0000000000000018
 21
64.0
 31
0.0
  0
LINE
  5
1567
330
177B
100
AcDbEntity
  8
250
100
AcDbLine
 10
170.0
 20
30.50000000000171
 30
0.0
 11
170.0
 21
64.0
 31
0.0
  0
LINE
  5
1568
330
177B
100
AcDbEntity
  8
250
100
AcDbLine
 10
2.23
 20
63.0
 30
0.0
 11
167.77
 21
63.0
 31
0.0
  0
TEXT
  5
156C
330
177B
100
AcDbEntity
  8
250
100
AcDbText
 10
223.0
 20
-3.799999999998426
 30
0.0
 40
2.799999999999998
  1
\U+220560
 50
90.0
100
AcDbText
  0
LINE
  5
156D
330
177B
100
AcDbEntity
  8
250
100
AcDbLine
 10
224.3716666666667
 20
-27.76999999999862
 30
0.0
 11
224.0
 21
-29.99999999999863
 31
0.0
  0
LINE
  5
156E
330
177B
100
AcDbEntity
  8
250
100
AcDbLine
 10
223.6283333333333
 20
-27.76999999999862
 30
0.0
 11
224.0
 21
-29.99999999999863
 31
0.0
  0
LINE
  5
156F
330
177B
100
AcDbEntity
  8
250
100
AcDbLine
 10
224.0
 20
-29.99999999999863
 30
0.0
 11
224.0
 21
-27.76999999999862
 31
0.0
  0
LINE
  5
1570
330
177B
100
AcDbEntity
  8
250
100
AcDbLine
 10
223.6283333333333
 20
27.7700000000017
 30
0.0
 11
224.0
 21
30.00000000000169
 31
0.0
  0
LINE
  5
1571
330
177B
100
AcDbEntity
  8
250
100
AcDbLine
 10
224.3716666666667
 20
27.7700000000017
 30
0.0
 11
224.0
 21
30.00000000000169
 31
0.0
  0
LINE
  5
1572
330
177B
100
AcDbEntity
  8
250
100
AcDbLine
 10
224.0
 20
30.00000000000169
 30
0.0
 11
224.0
 21
27.7700000000017
 31
0.0
  0
TEXT
  5
1573
330
177B
100
AcDbEntity
  8
250
100
AcDbText
 10
80.80000000000003
 20
64.0
 30
0.0
 40
2.799999999999998
  1
170
100
AcDbText
  0
LINE
  5
1574
330
177B
100
AcDbEntity
  8
250
100
AcDbLine
 10
167.77
 20
63.37166666666667
 30
0.0
 11
170.0
 21
63.0
 31
0.0
  0
LINE
  5
1575
330
177B
100
AcDbEntity
  8
250
100
AcDbLine
 10
167.77
 20
62.62833333333333
 30
0.0
 11
170.0
 21
63.0
 31
0.0
  0
LINE
  5
1576
330
177B
100
AcDbEntity
  8
250
100
AcDbLine
 10
170.0
 20
63.0
 30
0.0
 11
167.77
 21
63.0
 31
0.0
  0
LINE
  5
1577
330
177B
100
AcDbEntity
  8
250
100
AcDbLine
 10
2.23
 20
62.62833333333333
 30
0.0
 11
0.0000000000000017
 21
63.0
 31
0.0
  0
LINE
  5
1578
330
177B
100
AcDbEntity
  8
250
100
AcDbLine
 10
2.23
 20
63.37166666666667
 30
0.0
 11
0.0000000000000017
 21
63.0
 31
0.0
  0
LINE
  5
1579
330
177B
100
AcDbEntity
  8
250
100
AcDbLine
 10
0.0000000000000017
 20
63.0
 30
0.0
 11
2.23
 21
63.0
 31
0.0
  0
VIEWPORT
  5
22
102
{ACAD_XDICTIONARY
360
1871
102
}
330
1777
100
AcDbEntity
 67
     1
  8
0
100
AcDbViewport
 10
261.5176991150442
 20
148.5
 30
0.0
 40
523.0353982300885
 41
297.0
 68
     1
 69
     1
 12
261.5176991150442
 22
148.5
 13
0.0
 23
0.0
 14
1.0
 24
1.0
 15
10.0
 25
10.0
 16
0.0
 26
0.0
 36
1.0
 17
0.0
 27
0.0
 37
0.0
 42
50.0
 43
0.0
 44
0.0
 45
297.0
 50
0.0
 51
0.0
 72
   100
 90
    32800
  1

281
     0
 71
     0
 74
     0
110
0.0
120
0.0
130
0.0
111
0.0
121
0.0
131
0.0
112
0.0
122
0.0
132
0.0
 79
     0
146
0.0
1001
GENIUS_GENODEF_13
1002
{
1000
HIER
1070
     0
1002
}
1002
{
1000
MANEDIT
1070
     0
1002
}
1002
{
1000
NOSEL
1070
     0
1002
}
1002
{
1000
BEHIND
1070
     0
1002
}
1002
{
1000
OTHER
1070
     0
1002
}
1002
{
1000
REACTOR
1002
}
1001
GENIUS_GENOBJ-N-SDF_13
1002
{
1000
OWNER
1000
GEN
1002
}
1001
GENIUS_GENSCREG_15
1000
PF
1040
1.0
1000
DF
1040
1.0
1000
MIN
1011
0.0
1021
0.0
1031
0.0
1000
MAX
1011
523.0353982300885
1021
297.0
1031
0.0
1000
FLAGS
1070
     2
  0
ENDSEC
  0
SECTION
  2
OBJECTS
  0
DICTIONARY
  5
1765
330
0
100
AcDbDictionary
281
     1
  3
ACAD_COLOR
350
1774
  3
ACAD_GROUP
350
1766
  3
ACAD_LAYOUT
350
1772
  3
ACAD_MATERIAL
350
1773
  3
ACAD_MLINESTYLE
350
176F
  3
ACAD_PLOTSETTINGS
350
1771
  3
ACAD_PLOTSTYLENAME
350
1767
  3
ACAD_TABLESTYLE
350
1775
  3
ACDBHEADERROUNDTRIPXREC
350
1870
  3
AcDbVariableDictionary
350
186B
  3
AcmDictionary
350
182E
  3
AMG
350
17DE
  3
AMGSNAPSETTINGS
350
1864
  0
DICTIONARY
  5
1871
330
22
100
AcDbDictionary
280
     1
281
     1
  3
ACAD_XREC_ROUNDTRIP
360
1872
  0
DICTIONARY
  5
1774
102
{ACAD_REACTORS
330
1765
102
}
330
1765
100
AcDbDictionary
281
     1
  0
DICTIONARY
  5
1766
102
{ACAD_REACTORS
330
1765
102
}
330
1765
100
AcDbDictionary
281
     1
  0
DICTIONARY
  5
1772
102
{ACAD_REACTORS
330
1765
102
}
330
1765
100
AcDbDictionary
281
     1
  3
Model
350
177E
  3
レイアウト1
350
177A
  0
DICTIONARY
  5
1773
102
{ACAD_REACTORS
330
1765
102
}
330
1765
100
AcDbDictionary
281
     1
  0
DICTIONARY
  5
176F
102
{ACAD_REACTORS
330
1765
102
}
330
1765
100
AcDbDictionary
281
     1
  3
Standard
350
1770
  0
DICTIONARY
  5
1771
102
{ACAD_REACTORS
330
1765
102
}
330
1765
100
AcDbDictionary
281
     1
  0
ACDBDICTIONARYWDFLT
  5
1767
102
{ACAD_REACTORS
330
1765
102
}
330
1765
100
AcDbDictionary
281
     1
  3
Normal
350
1768
100
AcDbDictionaryWithDefault
340
1768
  0
DICTIONARY
  5
1775
102
{ACAD_REACTORS
330
1765
102
}
330
1765
100
AcDbDictionary
281
     1
  3
Standard
350
1776
  0
DICTIONARY
  5
1870
102
{ACAD_REACTORS
330
1765
102
}
330
1765
100
AcDbDictionary
281
     1
  0
DICTIONARY
  5
186B
102
{ACAD_REACTORS
330
1765
102
}
330
1765
100
AcDbDictionary
281
     1
  3
CTABLESTYLE
350
186C
  3
DIMASSOC
350
186D
  3
PROJECTNAME
350
186E
  0
DICTIONARY
  5
182E
102
{ACAD_REACTORS
330
1765
102
}
330
1765
100
AcDbDictionary
281
     1
  3
AcmStdDictionary
350
1839
  3
AMDTSECTSYM_ARROWCOLOR
350
1853
  0
DICTIONARY
  5
17DE
102
{ACAD_REACTORS
330
1765
102
}
330
1765
100
AcDbDictionary
281
     1
  0
DICTIONARY
  5
1864
102
{ACAD_REACTORS
330
1765
102
}
330
1765
100
AcDbDictionary
281
     1
  0
XRECORD
  5
1872
102
{ACAD_REACTORS
330
1871
102
}
330
1871
100
AcDbXrecord
280
     1
102
SHADEPLOT
 70
     0
  0
LAYOUT
  5
177E
102
{ACAD_XDICTIONARY
360
1875
102
}
102
{ACAD_REACTORS
330
1772
102
}
330
1772
100
AcDbPlotSettings
  1

  2
Canon LBP3800 LIPS
  4

  6

 40
0.0
 41
0.0
 42
0.0
 43
0.0
 44
0.0
 45
0.0
 46
0.0
 47
0.0
 48
0.0
 49
0.0
140
0.0
141
0.0
142
1.0
143
1.0
 70
  1712
 72
     0
 73
     0
 74
     0
  7

 75
     0
147
1.0
148
0.0
149
0.0
100
AcDbLayout
  1
Model
 70
     1
 71
     0
 10
0.0
 20
0.0
 11
12.0
 21
9.0
 12
0.0
 22
0.0
 32
0.0
 14
0.0
 24
0.0
 34
0.0
 15
0.0
 25
0.0
 35
0.0
146
0.0
 13
0.0
 23
0.0
 33
0.0
 16
1.0
 26
0.0
 36
0.0
 17
0.0
 27
1.0
 37
0.0
 76
     0
330
177B
  0
LAYOUT
  5
177A
102
{ACAD_XDICTIONARY
360
1873
102
}
102
{ACAD_REACTORS
330
1772
102
}
330
1772
100
AcDbPlotSettings
  1

  2
Canon LBP3800 LIPS
  4

  6

 40
0.0
 41
0.0
 42
0.0
 43
0.0
 44
0.0
 45
0.0
 46
0.0
 47
0.0
 48
0.0
 49
0.0
140
0.0
141
0.0
142
1.0
143
1.0
 70
   688
 72
     0
 73
     0
 74
     5
  7

 75
    16
147
1.0
148
0.0
149
0.0
100
AcDbLayout
  1
レイアウト1
 70
     1
 71
     1
 10
0.0
 20
0.0
 11
420.0
 21
297.0
 12
0.0
 22
0.0
 32
0.0
 14
1.000000000000000E+20
 24
1.000000000000000E+20
 34
1.000000000000000E+20
 15
-1.000000000000000E+20
 25
-1.000000000000000E+20
 35
-1.000000000000000E+20
146
0.0
 13
0.0
 23
0.0
 33
0.0
 16
1.0
 26
0.0
 36
0.0
 17
0.0
 27
1.0
 37
0.0
 76
     0
330
1777
331
22
  0
MLINESTYLE
  5
1770
102
{ACAD_REACTORS
330
176F
102
}
330
176F
100
AcDbMlineStyle
  2
STANDARD
 70
     0
  3

 62
   256
 51
90.0
 52
90.0
 71
     2
 49
0.5
 62
   256
  6
BYLAYER
 49
-0.5
 62
   256
  6
BYLAYER
  0
ACDBPLACEHOLDER
  5
1768
102
{ACAD_REACTORS
330
1767
102
}
330
1767
  0
TABLESTYLE
  5
1776
102
{ACAD_REACTORS
330
1775
102
}
330
1775
100
AcDbTableStyle
  3
Standard
 70
     0
 71
     0
 40
0.06
 41
0.06
280
     0
281
     0
  7
STANDARD
140
0.18
170
     2
 62
     0
 63
     7
283
     0
274
    -2
284
     1
 64
     0
275
    -2
285
     1
 65
     0
276
    -2
286
     1
 66
     0
277
    -2
287
     1
 67
     0
278
    -2
288
     1
 68
     0
279
    -2
289
     1
 69
     0
  7
STANDARD
140
0.25
170
     5
 62
     0
 63
     7
283
     0
274
    -2
284
     1
 64
     0
275
    -2
285
     1
 65
     0
276
    -2
286
     1
 66
     0
277
    -2
287
     1
 67
     0
278
    -2
288
     1
 68
     0
279
    -2
289
     1
 69
     0
  7
STANDARD
140
0.18
170
     5
 62
     0
 63
     7
283
     0
274
    -2
284
     1
 64
     0
275
    -2
285
     1
 65
     0
276
    -2
286
     1
 66
     0
277
    -2
287
     1
 67
     0
278
    -2
288
     1
 68
     0
279
    -2
289
     1
 69
     0
  0
DICTIONARYVAR
  5
186C
102
{ACAD_REACTORS
330
186B
102
}
330
186B
100
DictionaryVariables
280
     0
  1
STANDARD
  0
DICTIONARYVAR
  5
186D
102
{ACAD_REACTORS
330
186B
102
}
330
186B
100
DictionaryVariables
280
     0
  1
1
  0
DICTIONARYVAR
  5
186E
102
{ACAD_REACTORS
330
186B
102
}
330
186B
100
DictionaryVariables
280
     0
  1

  0
DICTIONARY
  5
1839
102
{ACAD_REACTORS
330
182E
102
}
330
182E
100
AcDbDictionary
281
     1
  0
XRECORD
  5
1853
102
{ACAD_REACTORS
330
182E
102
}
330
182E
100
AcDbXrecord
280
     1
 90
-1023410169
  0
DICTIONARY
  5
1875
330
177E
100
AcDbDictionary
280
     1
281
     1
  3
ACAD_XREC_ROUNDTRIP
360
1876
  0
DICTIONARY
  5
1873
330
177A
100
AcDbDictionary
280
     1
281
     1
  3
ACAD_XREC_ROUNDTRIP
360
1874
  0
XRECORD
  5
1876
102
{ACAD_REACTORS
330
1875
102
}
330
1875
100
AcDbXrecord
280
     1
102
SHADEPLOT
 70
     0
102
SHADEPLOTRESLEVEL
 70
     2
102
SHADEPLOTCUSTOMDPI
 70
   300
  0
XRECORD
  5
1874
102
{ACAD_REACTORS
330
1873
102
}
330
1873
100
AcDbXrecord
280
     1
102
SHADEPLOT
 70
     0
102
SHADEPLOTRESLEVEL
 70
     2
102
SHADEPLOTCUSTOMDPI
 70
   300
  0
ENDSEC
  0
EOF
