  0
SECTION
  2
HEADER
  9
$ACADVER
  1
AC1009
  9
$INSBASE
 10
0.0
 20
0.0
 30
0.0
  9
$EXTMIN
 10
-112.0
 20
-113.0
 30
0.0
  9
$EXTMAX
 10
341.23334642779321
 20
89.0
 30
0.0
  9
$LIMMIN
 10
0.0
 20
0.0
  9
$LIMMAX
 10
297.0
 20
210.0
  9
$ORTHOMODE
 70
     0
  9
$REGENMODE
 70
     1
  9
$FILLMODE
 70
     1
  9
$QTEXTMODE
 70
     0
  9
$MIRRTEXT
 70
     1
  9
$DRAGMODE
 70
     2
  9
$LTSCALE
 40
10.0
  9
$OSMODE
 70
    39
  9
$ATTMODE
 70
     1
  9
$TEXTSIZE
 40
3.0
  9
$TRACEWID
 40
1.0
  9
$TEXTSTYLE
  7
YOKO
  9
$CLAYER
  8
240
  9
$CELTYPE
  6
BYLAYER
  9
$CECOLOR
 62
   256
  9
$DIMSCALE
 40
1.0
  9
$DIMASZ
 40
2.2299999999999991
  9
$DIMEXO
 40
0.5
  9
$DIMDLI
 40
7.0
  9
$DIMRND
 40
0.0
  9
$DIMDLE
 40
0.0
  9
$DIMEXE
 40
1.0
  9
$DIMTP
 40
0.0
  9
$DIMTM
 40
0.01
  9
$DIMTXT
 40
2.799999999999998
  9
$DIMCEN
 40
0.0
  9
$DIMTSZ
 40
0.0
  9
$DIMTOL
 70
     0
  9
$DIMLIM
 70
     0
  9
$DIMTIH
 70
     0
  9
$DIMTOH
 70
     0
  9
$DIMSE1
 70
     0
  9
$DIMSE2
 70
     0
  9
$DIMTAD
 70
     3
  9
$DIMZIN
 70
     9
  9
$DIMBLK
  1
OPEN
  9
$DIMASO
 70
     1
  9
$DIMSHO
 70
     1
  9
$DIMPOST
  1

  9
$DIMAPOST
  1

  9
$DIMALT
 70
     0
  9
$DIMALTD
 70
     2
  9
$DIMALTF
 40
25.399999999999999
  9
$DIMLFAC
 40
1.0
  9
$DIMTOFL
 70
     1
  9
$DIMTVP
 40
0.0
  9
$DIMTIX
 70
     1
  9
$DIMSOXD
 70
     0
  9
$DIMSAH
 70
     0
  9
$DIMBLK1
  1

  9
$DIMBLK2
  1

  9
$DIMSTYLE
  2
BIGT
  9
$DIMCLRD
 70
   256
  9
$DIMCLRE
 70
   256
  9
$DIMCLRT
 70
    40
  9
$DIMTFAC
 40
1.0
  9
$DIMGAP
 40
1.0
  9
$LUNITS
 70
     2
  9
$LUPREC
 70
     3
  9
$SKETCHINC
 40
1.0
  9
$FILLETRAD
 40
0.0
  9
$AUNITS
 70
     0
  9
$AUPREC
 70
     3
  9
$MENU
  1
.
  9
$ELEVATION
 40
0.0
  9
$PELEVATION
 40
0.0
  9
$THICKNESS
 40
0.0
  9
$LIMCHECK
 70
     0
  9
$BLIPMODE
 70
     0
  9
$CHAMFERA
 40
0.25
  9
$CHAMFERB
 40
0.25
  9
$SKPOLY
 70
     0
  9
$TDCREATE
 40
2454055.3437136109
  9
$TDUPDATE
 40
2456629.6329512391
  9
$TDINDWG
 40
0.0352620023
  9
$TDUSRTIMER
 40
0.0352616435
  9
$USRTIMER
 70
     1
  9
$ANGBASE
 50
0.0
  9
$ANGDIR
 70
     0
  9
$PDMODE
 70
     1
  9
$PDSIZE
 40
0.0
  9
$PLINEWID
 40
0.0
  9
$COORDS
 70
     2
  9
$SPLFRAME
 70
     0
  9
$SPLINETYPE
 70
     6
  9
$SPLINESEGS
 70
     4
  9
$ATTDIA
 70
     1
  9
$ATTREQ
 70
     1
  9
$HANDLING
 70
     1
  9
$HANDSEED
  5
3AA1
  9
$SURFTAB1
 70
     6
  9
$SURFTAB2
 70
     6
  9
$SURFTYPE
 70
     6
  9
$SURFU
 70
     6
  9
$SURFV
 70
     6
  9
$UCSNAME
  2

  9
$UCSORG
 10
0.0
 20
0.0
 30
0.0
  9
$UCSXDIR
 10
1.0
 20
0.0
 30
0.0
  9
$UCSYDIR
 10
0.0
 20
1.0
 30
0.0
  9
$PUCSNAME
  2

  9
$PUCSORG
 10
0.0
 20
0.0
 30
0.0
  9
$PUCSXDIR
 10
1.0
 20
0.0
 30
0.0
  9
$PUCSYDIR
 10
0.0
 20
1.0
 30
0.0
  9
$USERI1
 70
     1
  9
$USERI2
 70
     0
  9
$USERI3
 70
     0
  9
$USERI4
 70
     0
  9
$USERI5
 70
     0
  9
$USERR1
 40
0.0
  9
$USERR2
 40
0.0
  9
$USERR3
 40
0.0
  9
$USERR4
 40
0.0
  9
$USERR5
 40
0.0
  9
$WORLDVIEW
 70
     1
  9
$SHADEDGE
 70
     3
  9
$SHADEDIF
 70
    70
  9
$TILEMODE
 70
     1
  9
$MAXACTVP
 70
    16
  9
$PLIMCHECK
 70
     0
  9
$PEXTMIN
 10
1.0000000000000000E+020
 20
1.0000000000000000E+020
 30
1.0000000000000000E+020
  9
$PEXTMAX
 10
-1.0000000000000000E+020
 20
-1.0000000000000000E+020
 30
-1.0000000000000000E+020
  9
$PLIMMIN
 10
0.0
 20
0.0
  9
$PLIMMAX
 10
420.0
 20
297.0
  9
$UNITMODE
 70
     0
  9
$VISRETAIN
 70
     1
  9
$PLINEGEN
 70
     0
  9
$PSLTSCALE
 70
     1
  0
ENDSEC
  0
SECTION
  2
TABLES
  0
TABLE
  2
VPORT
 70
     3
  0
VPORT
  2
*ACTIVE
 70
     0
 10
0.0
 20
0.0
 11
1.0
 21
1.0
 12
114.6166763798882
 22
-11.99965432062862
 13
0.0
 23
0.0
 14
7.0
 24
7.0
 15
7.0
 25
7.0
 16
0.0
 26
0.0
 36
1.0
 17
0.0
 27
0.0
 37
0.0
 40
298.01420013771082
 41
1.527196652719665
 42
50.0
 43
0.0
 44
0.0
 50
0.0
 51
0.0
 71
     0
 72
  2000
 73
     1
 74
     0
 75
     0
 76
     0
 77
     0
 78
     0
  0
ENDTAB
  0
TABLE
  2
LTYPE
 70
    16
  0
LTYPE
  2
CONTINUOUS
 70
     0
  3
Solid line
 72
    65
 73
     0
 40
0.0
  0
LTYPE
  2
CENTER2
 70
     0
  3
___ _ ___ _ ___ _ ___ _ ___ _ ___ _ ___ _ ___ _
 72
    65
 73
     4
 40
1.125
 49
0.75
 49
-0.125
 49
0.125
 49
-0.125
  0
LTYPE
  2
HIDDEN2
 70
     0
  3
_ _ _ _ _ _ _ _ _ _ _ _ _ _ _ _ _ _ _ _ _ _ _ _
 72
    65
 73
     2
 40
0.1875
 49
0.125
 49
-0.0625
  0
LTYPE
  2
PHANTOM2
 70
     0
  3
___ _ _ ___ _ _ ___ _ _ ___ _ _ ___ _ _ ___ _ _
 72
    65
 73
     6
 40
1.25
 49
0.625
 49
-0.125
 49
0.125
 49
-0.125
 49
0.125
 49
-0.125
  0
LTYPE
  2
CENTER
 70
     0
  3
____ _ ____ _ ____ _ ____ _ ____ _ ____ _ ____ 
 72
    65
 73
     4
 40
2.0
 49
1.25
 49
-0.25
 49
0.25
 49
-0.25
  0
LTYPE
  2
AMCONSTR
 70
     0
  3
_______________________
 72
    65
 73
     2
 40
9999.0
 49
9999.0
 49
0.0
  0
LTYPE
  2
HIDDEN
 70
     0
  3
Hidden __ __ __ __ __ __ __ __ __ __ __ __ __ _
 72
    65
 73
     2
 40
9.5249999999999968
 49
6.349999999999997
 49
-3.174999999999998
  0
LTYPE
  2
AMZIGZAG2
 70
     0
  3
/\/-/\/-/\/-/\/-/\/-/\/
 72
    65
 73
     2
 40
0.4401
 49
0.0001
 49
-0.4400000000000003
  0
LTYPE
  2
ACANSTGB
 70
     0
  3
__ . . __ . .
 72
    65
 73
     6
 40
0.35433070866
 49
0.15748031496
 49
-0.03937007874
 49
0.03937007874
 49
-0.03937007874
 49
0.03937007874
 49
-0.03937007874
  0
LTYPE
  2
ACANSTGL
 70
     0
  3
_ _ _ _ _
 72
    65
 73
     2
 40
0.11811023622
 49
0.07874015748
 49
-0.03937007874
  0
ENDTAB
  0
TABLE
  2
LAYER
 70
    10
  0
LAYER
  2
0
 70
     0
 62
     7
  6
CONTINUOUS
  0
LAYER
  2
240
 70
     0
 62
     4
  6
CONTINUOUS
  0
LAYER
  2
DEFPOINTS
 70
     0
 62
     7
  6
CONTINUOUS
  0
LAYER
  2
245
 70
     0
 62
     2
  6
CENTER2
  0
LAYER
  2
241
 70
     0
 62
   211
  6
CONTINUOUS
  0
LAYER
  2
243
 70
     0
 62
   211
  6
HIDDEN2
  0
LAYER
  2
244
 70
     0
 62
     3
  6
HIDDEN2
  0
LAYER
  2
246
 70
     0
 62
     3
  6
PHANTOM2
  0
LAYER
  2
247
 70
     0
 62
    60
  6
CONTINUOUS
  0
LAYER
  2
250
 70
     0
 62
     3
  6
CONTINUOUS
  0
ENDTAB
  0
TABLE
  2
STYLE
 70
     5
  0
STYLE
  2
STANDARD
 70
     0
 40
0.0
 41
1.0
 50
0.0
 71
     0
 42
3.0
  3
romans.shx
  4
extfont.shx
  0
STYLE
  2
YOKO
 70
     0
 40
0.0
 41
1.0
 50
0.0
 71
     0
 42
3.0
  3
romans.shx
  4
extfont.shx
  0
STYLE
  2
ACANSTS
 70
     0
 40
1.0
 41
1.0
 50
0.0
 71
     0
 42
3.0
  3
romans.shx
  4
extfont.shx
  0
STYLE
  2
ACANSGDT
 70
     0
 40
0.0
 41
1.0
 50
0.0
 71
     0
 42
3.0
  3
amgdtans.shx
  4

  0
ENDTAB
  0
TABLE
  2
VIEW
 70
     0
  0
ENDTAB
  0
TABLE
  2
UCS
 70
     0
  0
ENDTAB
  0
TABLE
  2
APPID
 70
    36
  0
APPID
  2
ACAD
 70
     0
  0
APPID
  2
GLOBAL
 70
     0
  0
APPID
  2
DETAIL
 70
     0
  0
APPID
  2
GRPNAME
 70
     0
  0
APPID
  2
GPARA
 70
     0
  0
APPID
  2
MCAD_NO_VIS
 70
     0
  0
APPID
  2
ACAD_TEMP_GRAPHIC
 70
     0
  0
APPID
  2
ACATTRIBSERVICES
 70
     0
  0
APPID
  2
GENIUS_GENSCREG_15
 70
     0
  0
APPID
  2
GENIUS_GENODEF_13
 70
     0
  0
APPID
  2
GENIUS_GENOBJ-N-SDF_13
 70
     0
  0
APPID
  2
GENIUS_GENREC_14
 70
     0
  0
APPID
  2
GENIUS_GENOBJ-N-REC_13
 70
     0
  0
APPID
  2
GENIUS_GENDIMSH_14
 70
     0
  0
APPID
  2
GENIUS_GENOBJ-N-DIM_13
 70
     0
  0
APPID
  2
GENIUS_GENDIM_13
 70
     0
  0
APPID
  2
GENIUS_GENDTOL_13
 70
     0
  0
APPID
  2
GENIUS_GENOLIS_13
 70
     0
  0
APPID
  2
GENIUS_GENOENT_13
 70
     0
  0
APPID
  2
GENIUS_GENOBJ-F-FEM_13
 70
     0
  0
APPID
  2
GENIUS_GENOREF_13
 70
     0
  0
APPID
  2
GENIUS_GEFFEM_13
 70
     0
  0
APPID
  2
GENIUS_GEFFEMP_13
 70
     0
  0
APPID
  2
AD_DRAW
 70
     0
  0
APPID
  2
DESIGNERASSEMBLIES
 70
     0
  0
APPID
  2
ACADM_DIM_EDIT
 70
     0
  0
APPID
  2
AMDT_DM_ADJ
 70
     0
  0
APPID
  2
GENIUS_GENFIL_13
 70
     0
  0
APPID
  2
GENIUS_GENOBJ-N-CHA_13
 70
     0
  0
APPID
  2
GENIUS_GENOBJ-N-HTC_13
 70
     0
  0
APPID
  2
GENIUS_GENHATCH_13
 70
     0
  0
APPID
  2
HATCH_TYPE
 70
     0
  0
APPID
  2
HATCH_DISPLAY
 70
     0
  0
APPID
  2
HATCH_DISTANCE
 70
     0
  0
APPID
  2
GENIUS_GENOBJ-N-FIL_13
 70
     0
  0
APPID
  2
ITEMNAME
 70
     0
  0
ENDTAB
  0
TABLE
  2
DIMSTYLE
 70
     7
  0
DIMSTYLE
  2
BIGT
 70
     0
  3

  4

  5

  6

  7

 40
1.0
 41
2.2299999999999991
 42
0.5
 43
7.0
 44
1.0
 45
0.0
 46
0.0
 47
0.0
 48
0.01
140
2.799999999999998
141
0.0
142
0.0
143
25.399999999999999
144
1.0
145
0.0
146
1.0
147
1.0
 71
     0
 72
     0
 73
     0
 74
     0
 75
     0
 76
     0
 77
     3
 78
     9
170
     0
171
     2
172
     1
173
     0
174
     1
175
     0
176
   256
177
   256
178
    40
  0
DIMSTYLE
  2
AM_ANSI
 70
     0
  3

  4
mm
  5

  6

  7

 40
1.0
 41
0.1
 42
0.05
 43
0.5
 44
0.1
 45
0.0
 46
0.0
 47
0.1
 48
0.1
140
0.12
141
0.0
142
0.0
143
25.399999999999999
144
1.0
145
0.0
146
0.71
147
0.06
 71
     0
 72
     0
 73
     1
 74
     1
 75
     0
 76
     0
 77
     0
 78
     7
170
     0
171
     2
172
     0
173
     0
174
     0
175
     0
176
   256
177
   256
178
     2
  0
DIMSTYLE
  2
AM_ANSI$3
 70
     0
  3

  4
mm
  5

  6

  7

 40
1.0
 41
0.1
 42
0.05
 43
0.5
 44
0.1
 45
0.0
 46
0.0
 47
0.1
 48
0.1
140
0.12
141
0.0
142
0.0
143
25.399999999999999
144
1.0
145
0.0
146
0.71
147
0.06
 71
     0
 72
     0
 73
     1
 74
     1
 75
     0
 76
     0
 77
     0
 78
     7
170
     0
171
     2
172
     0
173
     0
174
     0
175
     0
176
   256
177
   256
178
     2
  0
DIMSTYLE
  2
AM_ANSI$4
 70
     0
  3

  4
mm
  5

  6

  7

 40
1.0
 41
0.1
 42
0.05
 43
0.5
 44
0.1
 45
0.0
 46
0.0
 47
0.1
 48
0.1
140
0.12
141
0.0
142
0.0
143
25.399999999999999
144
1.0
145
0.0
146
0.71
147
0.06
 71
     0
 72
     0
 73
     1
 74
     1
 75
     0
 76
     0
 77
     0
 78
     7
170
     0
171
     2
172
     0
173
     0
174
     0
175
     0
176
   256
177
   256
178
     2
  0
DIMSTYLE
  2
AM_ANSI$7
 70
     0
  3

  4
mm
  5

  6

  7

 40
1.0
 41
0.1
 42
0.05
 43
0.5
 44
0.1
 45
0.0
 46
0.0
 47
0.1
 48
0.1
140
0.24
141
0.0
142
0.0
143
25.399999999999999
144
1.0
145
0.0
146
0.71
147
0.06
 71
     0
 72
     0
 73
     1
 74
     1
 75
     0
 76
     0
 77
     0
 78
     7
170
     0
171
     2
172
     0
173
     0
174
     0
175
     0
176
   256
177
   256
178
     2
  0
DIMSTYLE
  2
AM_ANSI$SF
 70
     0
  3

  4
mm
  5

  6

  7

 40
1.0
 41
0.1
 42
0.05
 43
0.5
 44
0.1
 45
0.0
 46
0.0
 47
0.1
 48
0.1
140
0.12
141
0.0
142
0.0
143
25.399999999999999
144
1.0
145
0.0
146
0.71
147
0.06
 71
     0
 72
     0
 73
     1
 74
     1
 75
     1
 76
     1
 77
     0
 78
     7
170
     0
171
     2
172
     0
173
     0
174
     0
175
     0
176
   256
177
   256
178
     2
  0
DIMSTYLE
  2
AM_ANSI$SH
 70
     0
  3

  4
mm
  5

  6

  7

 40
1.0
 41
0.1
 42
0.05
 43
0.5
 44
0.1
 45
0.0
 46
0.0
 47
0.1
 48
0.1
140
0.12
141
0.0
142
0.0
143
25.399999999999999
144
1.0
145
0.0
146
0.71
147
0.06
 71
     0
 72
     0
 73
     1
 74
     1
 75
     1
 76
     1
 77
     0
 78
     7
170
     0
171
     2
172
     0
173
     1
174
     0
175
     0
176
   256
177
   256
178
     2
  0
ENDTAB
  0
ENDSEC
  0
SECTION
  2
BLOCKS
  0
BLOCK
  8
0
  2
$MODEL_SPACE
 70
     0
 10
0.0
 20
0.0
 30
0.0
  3
$MODEL_SPACE
  1

  0
ENDBLK
  5
25D1
  8
0
  0
BLOCK
 67
     1
  8
0
  2
$PAPER_SPACE
 70
     0
 10
0.0
 20
0.0
 30
0.0
  3
$PAPER_SPACE
  1

  0
ENDBLK
  5
25CD
 67
     1
  8
0
  0
BLOCK
  8
0
  2
_OPEN
 70
     0
 10
0.0
 20
0.0
 30
0.0
  3
_OPEN
  1

  0
LINE
  5
230E
  8
0
  6
BYBLOCK
 62
     0
 10
-1.0
 20
0.1666666666666666
 30
0.0
 11
0.0
 21
0.0
 31
0.0
  0
LINE
  5
230F
  8
0
  6
BYBLOCK
 62
     0
 10
-1.0
 20
-0.1666666666666666
 30
0.0
 11
0.0
 21
0.0
 31
0.0
  0
LINE
  5
2310
  8
0
  6
BYBLOCK
 62
     0
 10
0.0
 20
0.0
 30
0.0
 11
-1.0
 21
0.0
 31
0.0
  0
ENDBLK
  5
2311
  8
0
  0
ENDSEC
  0
SECTION
  2
ENTITIES
  0
LINE
  5
1B77
  8
250
 10
-37.703462348264502
 20
-97.527074794636022
 30
0.0
 11
-71.932033776835937
 21
-97.527074794636022
 31
0.0
1001
ITEMNAME
1000
LNSP2
  0
TEXT
  5
1DF2
  8
241
 10
-98.0
 20
84.0
 30
0.0
 40
5.0
  1
BBT50-RBX5-4S-166
  7
YOKO
  0
LINE
  5
1DFA
  8
250
 10
312.73236229415141
 20
47.128572440443392
 30
0.0
 11
317.01217776292401
 21
54.541430279376662
 31
0.0
  0
LINE
  5
1DFB
  8
250
 10
285.5226683091384
 20
56.210678118654783
 30
0.0
 11
285.5226683091384
 21
62.979018907570712
 31
0.0
  0
ARC
  5
1DFC
  8
250
 10
285.5226683091384
 20
-0.000000000000469
 30
0.0
 40
61.979018907571167
 50
62.06160864486786
 51
87.938391355132126
  0
LINE
  5
1E00
  8
250
 10
285.5226683091384
 20
56.210678118654783
 30
0.0
 11
285.5226683091384
 21
62.963311194904421
 31
0.0
  0
LINE
  5
1E01
  8
250
 10
258.31297432412521
 20
47.128572440443392
 30
0.0
 11
254.04101271168591
 21
54.527827001172291
 31
0.0
  0
ARC
  5
1E02
  8
250
 10
285.5226683091384
 20
-0.0000000000004547
 30
0.0
 40
61.963311194904868
 50
92.062131319515757
 51
117.9378686804842
  0
LINE
  5
1E06
  8
250
 10
0.0
 20
35.42499999999994
 30
0.0
 11
0.0000000000000018
 21
63.999999999999943
 31
0.0
  0
LINE
  5
1E0E
  8
250
 10
101.2679487742614
 20
50.0
 30
0.0
 11
190.0
 21
49.999999999999972
 31
0.0
  0
LINE
  5
1E0F
  8
250
 10
189.0
 20
47.769999999999968
 30
0.0
 11
189.0
 21
-5.866666666666692
 31
0.0
  0
LINE
  5
1E12
  8
250
 10
165.00000389689939
 20
6.0
 30
0.0
 11
183.0
 21
5.999999999999992
 31
0.0
  0
LINE
  5
1E13
  8
250
 10
165.00000389689939
 20
-6.0
 30
0.0
 11
183.0
 21
-6.0000000000000027
 31
0.0
  0
LINE
  5
1E14
  8
250
 10
182.0
 20
3.7699999999999951
 30
0.0
 11
182.0
 21
-3.770000000000004
 31
0.0
  0
LINE
  5
1E18
  8
250
 10
166.5000038968995
 20
2.0000000000000542
 30
0.0
 11
176.0
 21
2.0000000000000528
 31
0.0
  0
LINE
  5
1E19
  8
250
 10
166.5000038968995
 20
-2.0
 30
0.0
 11
176.0
 21
-2.0000000000000022
 31
0.0
  0
LINE
  5
1E1A
  8
250
 10
175.0
 20
-4.2300000000000004
 30
0.0
 11
175.0
 21
-6.4599999999999991
 31
0.0
  0
LINE
  5
1E1B
  8
250
 10
175.0
 20
4.2300000000000511
 30
0.0
 11
175.0
 21
29.468918349573642
 31
0.0
  0
LINE
  5
1E1C
  8
250
 10
175.0
 20
-2.0000000000000022
 30
0.0
 11
175.0
 21
2.0000000000000528
 31
0.0
  0
LINE
  5
1E20
  8
250
 10
166.00000389689939
 20
-4.9257359312879849
 30
0.0
 11
166.00000389689939
 21
-57.000000000000092
 31
0.0
  0
LINE
  5
1E21
  8
250
 10
117.0000038968993
 20
-2.5
 30
0.0
 11
117.0000038968993
 21
-57.000000000000092
 31
0.0
  0
LINE
  5
1E22
  8
250
 10
163.7700038968994
 20
-56.000000000000107
 30
0.0
 11
119.23000389689931
 21
-56.000000000000107
 31
0.0
  0
LINE
  5
1E26
  8
250
 10
0.0
 20
35.42499999999994
 30
0.0
 11
0.0000000000000022
 21
71.0
 31
0.0
  0
LINE
  5
1E27
  8
250
 10
166.00000389689939
 20
4.9257359312879849
 30
0.0
 11
166.00000389689939
 21
71.0
 31
0.0
  0
LINE
  5
1E28
  8
250
 10
2.2300000000000022
 20
70.0
 30
0.0
 11
163.7700038968994
 21
70.0
 31
0.0
  0
LINE
  5
1E32
  8
250
 10
0.0
 20
-35.425000000000011
 30
0.0
 11
-0.0000000000000016
 21
-61.736032890331202
 31
0.0
  0
LINE
  5
1E33
  8
250
 10
5.9999999999999973
 20
-72.071174565272344
 30
0.0
 11
5.9999999999999991
 21
-59.736032890331209
 31
0.0
  0
LINE
  5
1E34
  8
250
 10
-2.2299999999999991
 20
-60.736032890331231
 30
0.0
 11
-4.4599999999999991
 21
-60.736032890331231
 31
0.0
  0
LINE
  5
1E35
  8
250
 10
8.2299999999999969
 20
-60.736032890331231
 30
0.0
 11
10.460000000000001
 21
-60.736032890331231
 31
0.0
  0
LINE
  5
1E36
  8
250
 10
-0.0000000000000016
 20
-60.736032890331231
 30
0.0
 11
5.9999999999999991
 21
-60.736032890331231
 31
0.0
  0
LINE
  5
1E3A
  8
250
 10
30.767175992800389
 20
-71.000000000000014
 30
0.0
 11
27.000000000000011
 21
-71.000000000000014
 31
0.0
  0
LINE
  5
1E3B
  8
250
 10
30.7671759928004
 20
-89.0
 30
0.0
 11
27.0
 21
-89.0
 31
0.0
  0
LINE
  5
1E3C
  8
250
 10
28.0
 20
-73.230000000000032
 30
0.0
 11
28.0
 21
-86.769999999999968
 31
0.0
  0
LINE
  5
1E40
  8
250
 10
-8.9101377038094824
 20
0.0000000000000001
 30
0.0
 11
-14.999999999999989
 21
0.0000000000000019
 31
0.0
  0
LINE
  5
1E41
  8
250
 10
-4.291775528273547
 20
-80.0
 30
0.0
 11
-15.000000000000011
 21
-80.0
 31
0.0
  0
LINE
  5
1E42
  8
250
 10
-13.999999999999989
 20
-2.2299999999999969
 30
0.0
 11
-14.000000000000011
 21
-77.769999999999982
 31
0.0
  0
TEXT
  5
1E46
  8
250
 10
-68.932033776835937
 20
-96.527074794635993
 30
0.0
 40
3.0
  1
位置決めブロック
  7
YOKO
1001
ITEMNAME
1000
LNSP3
  0
LINE
  5
1E49
  8
250
 10
5.9999999999998144
 20
-72.071174565878366
 30
0.0
 11
5.9999999999998153
 21
-59.736032890331209
 31
0.0
  0
LINE
  5
1E4A
  8
250
 10
15.000000000000091
 20
-63.499999999999893
 30
0.0
 11
15.000000000000091
 21
-59.736032890331209
 31
0.0
  0
LINE
  5
1E4B
  8
250
 10
8.2299999999998086
 20
-60.736032890331231
 30
0.0
 11
12.77000000000009
 21
-60.736032890331231
 31
0.0
  0
TEXT
  5
1EB1
  8
241
 10
294.8034227160947
 20
63.268919040821153
 30
0.0
 40
4.5
  1
-θ°
 50
345.0
  0
TEXT
  5
1EB2
  8
241
 10
261.92694901979343
 20
59.234845586681509
 30
0.0
 40
4.5
  1
+θ°
 50
15.000000000000011
  0
TEXT
  5
1EB3
  8
250
 10
9.1428571428570944
 20
-59.736032890331209
 30
0.0
 40
3.0
  1
9
  0
LINE
  5
1EB4
  8
250
 10
12.77000000000009
 20
-60.364366223664547
 30
0.0
 11
15.000000000000091
 21
-60.736032890331231
 31
0.0
  0
LINE
  5
1EB5
  8
250
 10
12.77000000000009
 20
-61.107699556997879
 30
0.0
 11
15.000000000000091
 21
-60.736032890331231
 31
0.0
  0
LINE
  5
1EB6
  8
250
 10
15.000000000000091
 20
-60.736032890331231
 30
0.0
 11
12.77000000000009
 21
-60.736032890331231
 31
0.0
  0
LINE
  5
1EB7
  8
250
 10
8.2299999999998086
 20
-61.107699556997879
 30
0.0
 11
5.9999999999998153
 21
-60.736032890331231
 31
0.0
  0
LINE
  5
1EB8
  8
250
 10
8.2299999999998086
 20
-60.364366223664547
 30
0.0
 11
5.9999999999998153
 21
-60.736032890331231
 31
0.0
  0
LINE
  5
1EB9
  8
250
 10
5.9999999999998153
 20
-60.736032890331231
 30
0.0
 11
8.2299999999998086
 21
-60.736032890331231
 31
0.0
  0
LINE
  5
1EBA
  8
250
 10
-31.11500000000045
 20
-86.115523263688161
 30
0.0
 11
-37.703462348264502
 21
-97.527074794636022
 31
0.0
1001
ACAD
1000
DSTYLE
1002
{
1070
     6
1000
OPEN
1070
    78
1070
     8
1070
   140
1040
3.0
1070
   173
1070
     1
1002
}
  0
LINE
  5
1EBB
  8
250
 10
-31.43687277507367
 20
-85.929689930354826
 30
0.0
 11
-30.000000000000451
 21
-84.184286613248858
 31
0.0
  0
LINE
  5
1EBC
  8
250
 10
-30.793127224927229
 20
-86.301356597021453
 30
0.0
 11
-30.000000000000451
 21
-84.184286613248858
 31
0.0
  0
LINE
  5
1EBD
  8
250
 10
-30.000000000000451
 20
-84.184286613248858
 30
0.0
 11
-31.11500000000045
 21
-86.115523263688161
 31
0.0
  0
TEXT
  5
1EBE
  8
250
 10
-14.999999999999989
 20
-42.666666666666643
 30
0.0
 40
2.799999999999998
  1
80
 50
90.0
  0
LINE
  5
1EBF
  8
250
 10
-13.628333333333339
 20
-77.769999999999982
 30
0.0
 11
-14.000000000000011
 21
-80.0
 31
0.0
  0
LINE
  5
1EC0
  8
250
 10
-14.37166666666667
 20
-77.769999999999982
 30
0.0
 11
-14.000000000000011
 21
-80.0
 31
0.0
  0
LINE
  5
1EC1
  8
250
 10
-14.000000000000011
 20
-80.0
 30
0.0
 11
-14.000000000000011
 21
-77.769999999999982
 31
0.0
  0
LINE
  5
1EC2
  8
250
 10
-14.37166666666665
 20
-2.2299999999999969
 30
0.0
 11
-13.999999999999989
 21
0.0000000000000016
 31
0.0
  0
LINE
  5
1EC3
  8
250
 10
-13.62833333333332
 20
-2.2299999999999969
 30
0.0
 11
-13.999999999999989
 21
0.0000000000000016
 31
0.0
  0
LINE
  5
1EC4
  8
250
 10
-13.999999999999989
 20
0.0000000000000016
 30
0.0
 11
-13.999999999999989
 21
-2.2299999999999969
 31
0.0
  0
TEXT
  5
1EC5
  8
250
 10
27.000000000000011
 20
-83.799999999999983
 30
0.0
 40
2.799999999999998
  1
\U+220518
 50
90.0
  0
LINE
  5
1EC6
  8
250
 10
28.371666666666659
 20
-86.769999999999968
 30
0.0
 11
28.0
 21
-89.0
 31
0.0
  0
LINE
  5
1EC7
  8
250
 10
27.62833333333333
 20
-86.769999999999968
 30
0.0
 11
28.0
 21
-89.0
 31
0.0
  0
LINE
  5
1EC8
  8
250
 10
28.0
 20
-89.0
 30
0.0
 11
28.0
 21
-86.769999999999968
 31
0.0
  0
LINE
  5
1EC9
  8
250
 10
27.628333333333341
 20
-73.230000000000032
 30
0.0
 11
28.000000000000011
 21
-71.000000000000014
 31
0.0
  0
LINE
  5
1ECA
  8
250
 10
28.37166666666667
 20
-73.230000000000032
 30
0.0
 11
28.000000000000011
 21
-71.000000000000014
 31
0.0
  0
LINE
  5
1ECB
  8
250
 10
28.000000000000011
 20
-71.000000000000014
 30
0.0
 11
28.000000000000011
 21
-73.230000000000032
 31
0.0
  0
TEXT
  5
1ECC
  8
250
 10
1.533333333333331
 20
-59.736032890331209
 30
0.0
 40
2.799999999999998
  1
H
  0
LINE
  5
1ECD
  8
250
 10
8.2299999999999969
 20
-61.107699556997879
 30
0.0
 11
5.9999999999999991
 21
-60.736032890331231
 31
0.0
  0
LINE
  5
1ECE
  8
250
 10
8.2299999999999969
 20
-60.364366223664547
 30
0.0
 11
5.9999999999999991
 21
-60.736032890331231
 31
0.0
  0
LINE
  5
1ECF
  8
250
 10
5.9999999999999991
 20
-60.736032890331231
 30
0.0
 11
8.2299999999999969
 21
-60.736032890331231
 31
0.0
  0
LINE
  5
1ED0
  8
250
 10
-2.2299999999999991
 20
-60.364366223664547
 30
0.0
 11
-0.0000000000000016
 21
-60.736032890331231
 31
0.0
  0
LINE
  5
1ED1
  8
250
 10
-2.2299999999999991
 20
-61.107699556997879
 30
0.0
 11
-0.0000000000000016
 21
-60.736032890331231
 31
0.0
  0
LINE
  5
1ED2
  8
250
 10
-0.0000000000000016
 20
-60.736032890331231
 30
0.0
 11
-2.2299999999999991
 21
-60.736032890331231
 31
0.0
  0
TEXT
  5
1ED4
  8
250
 10
78.800001948449733
 20
71.0
 30
0.0
 40
2.799999999999998
  1
166
  0
LINE
  5
1ED5
  8
250
 10
163.7700038968994
 20
70.37166666666667
 30
0.0
 11
166.00000389689939
 21
70.0
 31
0.0
  0
LINE
  5
1ED6
  8
250
 10
163.7700038968994
 20
69.62833333333333
 30
0.0
 11
166.00000389689939
 21
70.0
 31
0.0
  0
LINE
  5
1ED7
  8
250
 10
166.00000389689939
 20
70.0
 30
0.0
 11
163.7700038968994
 21
70.0
 31
0.0
  0
LINE
  5
1ED8
  8
250
 10
2.2300000000000022
 20
69.62833333333333
 30
0.0
 11
0.0000000000000021
 21
70.0
 31
0.0
  0
LINE
  5
1ED9
  8
250
 10
2.2300000000000022
 20
70.37166666666667
 30
0.0
 11
0.0000000000000021
 21
70.0
 31
0.0
  0
LINE
  5
1EDA
  8
250
 10
0.0000000000000021
 20
70.0
 30
0.0
 11
2.2300000000000022
 21
70.0
 31
0.0
  0
TEXT
  5
1EDB
  8
250
 10
138.90000389689939
 20
-55.000000000000099
 30
0.0
 40
2.799999999999998
  1
49
  0
LINE
  5
1EDC
  8
250
 10
119.23000389689931
 20
-56.371666666666769
 30
0.0
 11
117.0000038968993
 21
-56.000000000000107
 31
0.0
  0
LINE
  5
1EDD
  8
250
 10
119.23000389689931
 20
-55.628333333333423
 30
0.0
 11
117.0000038968993
 21
-56.000000000000107
 31
0.0
  0
LINE
  5
1EDE
  8
250
 10
117.0000038968993
 20
-56.000000000000107
 30
0.0
 11
119.23000389689931
 21
-56.000000000000107
 31
0.0
  0
LINE
  5
1EDF
  8
250
 10
163.7700038968994
 20
-55.628333333333423
 30
0.0
 11
166.00000389689939
 21
-56.000000000000107
 31
0.0
  0
LINE
  5
1EE0
  8
250
 10
163.7700038968994
 20
-56.371666666666769
 30
0.0
 11
166.00000389689939
 21
-56.000000000000107
 31
0.0
  0
LINE
  5
1EE1
  8
250
 10
166.00000389689939
 20
-56.000000000000107
 30
0.0
 11
163.7700038968994
 21
-56.000000000000107
 31
0.0
  0
TEXT
  5
1EE2
  8
250
 10
174.0
 20
7.1933333333334151
 30
0.0
 40
2.799999999999998
  1
MAX.φ4.05
 50
90.0
  0
LINE
  5
1EE3
  8
250
 10
175.3716666666667
 20
4.2300000000000511
 30
0.0
 11
175.0
 21
2.0000000000000528
 31
0.0
  0
LINE
  5
1EE4
  8
250
 10
174.6283333333333
 20
4.2300000000000511
 30
0.0
 11
175.0
 21
2.0000000000000528
 31
0.0
  0
LINE
  5
1EE5
  8
250
 10
175.0
 20
2.0000000000000528
 30
0.0
 11
175.0
 21
4.2300000000000511
 31
0.0
  0
LINE
  5
1EE6
  8
250
 10
174.6283333333333
 20
-4.2300000000000004
 30
0.0
 11
175.0
 21
-2.0000000000000022
 31
0.0
  0
LINE
  5
1EE7
  8
250
 10
175.3716666666667
 20
-4.2300000000000004
 30
0.0
 11
175.0
 21
-2.0000000000000022
 31
0.0
  0
LINE
  5
1EE8
  8
250
 10
175.0
 20
-2.0000000000000022
 30
0.0
 11
175.0
 21
-4.2300000000000004
 31
0.0
  0
TEXT
  5
1EE9
  8
250
 10
181.0
 20
-3.7999999999999949
 30
0.0
 40
2.799999999999998
  1
\U+220512
 50
90.0
  0
LINE
  5
1EEA
  8
250
 10
182.37166666666661
 20
-3.770000000000004
 30
0.0
 11
182.0
 21
-6.0000000000000027
 31
0.0
  0
LINE
  5
1EEB
  8
250
 10
181.6283333333333
 20
-3.770000000000004
 30
0.0
 11
182.0
 21
-6.0000000000000027
 31
0.0
  0
LINE
  5
1EEC
  8
250
 10
182.0
 20
-6.0000000000000027
 30
0.0
 11
182.0
 21
-3.770000000000004
 31
0.0
  0
LINE
  5
1EED
  8
250
 10
181.6283333333333
 20
3.7699999999999911
 30
0.0
 11
182.0
 21
5.999999999999992
 31
0.0
  0
LINE
  5
1EEE
  8
250
 10
182.37166666666661
 20
3.7699999999999911
 30
0.0
 11
182.0
 21
5.999999999999992
 31
0.0
  0
LINE
  5
1EEF
  8
250
 10
182.0
 20
5.999999999999992
 30
0.0
 11
182.0
 21
3.7699999999999911
 31
0.0
  0
TEXT
  5
1EF0
  8
250
 10
188.0
 20
-5.1333333333333284
 30
0.0
 40
2.799999999999998
  1
\U+2205100
 50
90.0
  0
LINE
  5
1EF1
  8
250
 10
188.6283333333333
 20
47.769999999999968
 30
0.0
 11
189.0
 21
49.999999999999972
 31
0.0
  0
LINE
  5
1EF2
  8
250
 10
189.37166666666661
 20
47.769999999999968
 30
0.0
 11
189.0
 21
49.999999999999972
 31
0.0
  0
LINE
  5
1EF3
  8
250
 10
189.0
 20
49.999999999999972
 30
0.0
 11
189.0
 21
47.769999999999968
 31
0.0
  0
LINE
  5
1EFC
  8
250
 10
256.67201185435908
 20
54.416704746829573
 30
0.0
 11
254.54101271168591
 21
53.66180159738785
 31
0.0
  0
LINE
  5
1EFD
  8
250
 10
256.31198925763903
 20
55.06703402826728
 30
0.0
 11
254.54101271168591
 21
53.66180159738785
 31
0.0
  0
LINE
  5
1EFE
  8
250
 10
254.54101271168591
 20
53.66180159738785
 30
0.0
 11
256.49200055599903
 21
54.741869387548419
 31
0.0
  0
LINE
  5
1EFF
  8
250
 10
283.28634141539692
 20
62.294789905291232
 30
0.0
 11
285.5226683091384
 21
61.963311194904421
 31
0.0
  0
LINE
  5
1F00
  8
250
 10
283.29971734141969
 20
61.551576928381209
 30
0.0
 11
285.5226683091384
 21
61.963311194904421
 31
0.0
  0
LINE
  5
1F01
  8
250
 10
285.5226683091384
 20
61.963311194904421
 30
0.0
 11
283.29302937840822
 21
61.923183416836217
 31
0.0
  0
LINE
  5
1F03
  8
250
 10
287.74562115483508
 20
61.567294780368513
 30
0.0
 11
285.5226683091384
 21
61.979018907570669
 31
0.0
  0
LINE
  5
1F04
  8
250
 10
287.75899369091701
 20
62.31050781828106
 30
0.0
 11
285.5226683091384
 21
61.979018907570669
 31
0.0
  0
LINE
  5
1F05
  8
250
 10
285.5226683091384
 20
61.979018907570669
 30
0.0
 11
287.75230742287602
 21
61.938901299324762
 31
0.0
  0
LINE
  5
1F06
  8
250
 10
314.74120762653092
 20
55.080645384229491
 30
0.0
 11
316.51217776292401
 21
53.675404875592207
 31
0.0
  0
LINE
  5
1F07
  8
250
 10
314.38118206353471
 20
54.430317744932452
 30
0.0
 11
316.51217776292401
 21
53.675404875592207
 31
0.0
  0
LINE
  5
1F08
  8
250
 10
316.51217776292401
 20
53.675404875592207
 30
0.0
 11
314.56119484503279
 21
54.755481564580968
 31
0.0
  0
LINE
  5
1F6D
  8
250
 10
-0.0000000000000018
 20
-87.928825434727685
 30
0.0
 11
-0.0000000000000033
 21
-113.0
 31
0.0
  0
LINE
  5
1F6E
  8
250
 10
5.9999999999999929
 20
-87.928825434727685
 30
0.0
 11
5.999999999999992
 21
-113.0
 31
0.0
  0
LINE
  5
1F6F
  8
250
 10
-2.2300000000000031
 20
-112.0
 30
0.0
 11
-4.46
 21
-112.0
 31
0.0
  0
LINE
  5
1F70
  8
250
 10
8.2299999999999951
 20
-112.0
 30
0.0
 11
24.806666666666668
 21
-112.0
 31
0.0
  0
LINE
  5
1F71
  8
250
 10
-0.0000000000000033
 20
-112.0
 30
0.0
 11
5.999999999999992
 21
-112.0
 31
0.0
  0
TEXT
  5
1F75
  8
250
 10
11.45999999999999
 20
-111.0
 30
0.0
 40
2.799999999999998
  1
作動量6
  0
LINE
  5
1F76
  8
250
 10
8.2299999999999951
 20
-112.3716666666666
 30
0.0
 11
5.999999999999992
 21
-112.0
 31
0.0
  0
LINE
  5
1F77
  8
250
 10
8.2299999999999951
 20
-111.6283333333333
 30
0.0
 11
5.999999999999992
 21
-112.0
 31
0.0
  0
LINE
  5
1F78
  8
250
 10
5.999999999999992
 20
-112.0
 30
0.0
 11
8.2299999999999951
 21
-112.0
 31
0.0
  0
LINE
  5
1F79
  8
250
 10
-2.2300000000000031
 20
-111.6283333333333
 30
0.0
 11
-0.0000000000000033
 21
-112.0
 31
0.0
  0
LINE
  5
1F7A
  8
250
 10
-2.2300000000000031
 20
-112.3716666666666
 30
0.0
 11
-0.0000000000000033
 21
-112.0
 31
0.0
  0
LINE
  5
1F7B
  8
250
 10
-0.0000000000000033
 20
-112.0
 30
0.0
 11
-2.2300000000000031
 21
-112.0
 31
0.0
  0
LINE
  5
26A8
  8
247
 10
7.766554403183445
 20
-22.133287684137599
 30
0.0
 11
7.766554403183445
 21
-22.133287684137599
 31
0.0
1001
HATCH_DISTANCE
1040
1.0
1001
HATCH_DISPLAY
1070
     0
1001
HATCH_TYPE
1070
     7
  0
LINE
  5
26A9
  8
247
 10
7.380552816269387
 20
-22.255007044489162
 30
0.0
 11
7.766554403183445
 21
-22.133287684137599
 31
0.0
1001
HATCH_DISTANCE
1040
1.0
1001
HATCH_DISPLAY
1070
     0
1001
HATCH_TYPE
1070
     7
  0
LINE
  5
26AA
  8
247
 10
7.380552816269387
 20
-22.255007044489162
 30
0.0
 11
7.380552816269387
 21
-22.255007044489162
 31
0.0
1001
HATCH_DISTANCE
1040
1.0
1001
HATCH_DISPLAY
1070
     0
1001
HATCH_TYPE
1070
     7
  0
LINE
  5
26AB
  8
247
 10
7.766554403183445
 20
-22.133287684137599
 30
0.0
 11
7.380552816269387
 21
-22.255007044489162
 31
0.0
1001
HATCH_DISTANCE
1040
1.0
1001
HATCH_DISPLAY
1070
     0
1001
HATCH_TYPE
1070
     7
  0
LINE
  5
26AC
  8
247
 10
7.766554403183445
 20
-22.133287684137599
 30
0.0
 11
7.766554403183445
 21
-22.133287684137599
 31
0.0
  0
LINE
  5
26AD
  8
247
 10
7.380552816269387
 20
-22.255007044489162
 30
0.0
 11
7.766554403183445
 21
-22.133287684137599
 31
0.0
  0
LINE
  5
26AE
  8
247
 10
7.380552816269387
 20
-22.255007044489162
 30
0.0
 11
7.380552816269387
 21
-22.255007044489162
 31
0.0
  0
LINE
  5
26AF
  8
247
 10
7.766554403183445
 20
-22.133287684137599
 30
0.0
 11
7.380552816269387
 21
-22.255007044489162
 31
0.0
  0
LINE
  5
26B0
  8
247
 10
7.766554403183445
 20
-22.133287684137599
 30
0.0
 11
7.766554403183445
 21
-22.133287684137599
 31
0.0
1001
HATCH_DISTANCE
1040
1.0
1001
HATCH_DISPLAY
1070
     0
1001
HATCH_TYPE
1070
     7
  0
LINE
  5
26B1
  8
247
 10
7.380552816269387
 20
-22.255007044489162
 30
0.0
 11
7.766554403183445
 21
-22.133287684137599
 31
0.0
1001
HATCH_DISTANCE
1040
1.0
1001
HATCH_DISPLAY
1070
     0
1001
HATCH_TYPE
1070
     7
  0
LINE
  5
26B2
  8
247
 10
7.380552816269387
 20
-22.255007044489162
 30
0.0
 11
7.380552816269387
 21
-22.255007044489162
 31
0.0
1001
HATCH_DISTANCE
1040
1.0
1001
HATCH_DISPLAY
1070
     0
1001
HATCH_TYPE
1070
     7
  0
LINE
  5
26B3
  8
247
 10
7.766554403183445
 20
-22.133287684137599
 30
0.0
 11
7.380552816269387
 21
-22.255007044489162
 31
0.0
1001
HATCH_DISTANCE
1040
1.0
1001
HATCH_DISPLAY
1070
     0
1001
HATCH_TYPE
1070
     7
  0
LINE
  5
26B4
  8
247
 10
7.766554403183445
 20
-22.133287684137599
 30
0.0
 11
7.766554403183445
 21
-22.133287684137599
 31
0.0
  0
LINE
  5
26B5
  8
247
 10
7.380552816269387
 20
-22.255007044489162
 30
0.0
 11
7.766554403183445
 21
-22.133287684137599
 31
0.0
  0
LINE
  5
26B6
  8
247
 10
7.380552816269387
 20
-22.255007044489162
 30
0.0
 11
7.380552816269387
 21
-22.255007044489162
 31
0.0
  0
LINE
  5
26B7
  8
247
 10
7.766554403183445
 20
-22.133287684137599
 30
0.0
 11
7.380552816269387
 21
-22.255007044489162
 31
0.0
  0
LINE
  5
26B8
  8
247
 10
7.310438680527195
 20
-24.85843111675479
 30
0.0
 11
7.310438680527195
 21
-25.90957857769229
 31
0.0
1001
HATCH_DISTANCE
1040
1.0
1001
HATCH_DISPLAY
1070
     0
1001
HATCH_TYPE
1070
     7
  0
LINE
  5
26B9
  8
247
 10
10.94798188197373
 20
-25.90147616070011
 30
0.0
 11
7.310438680527195
 21
-24.85843111675479
 31
0.0
1001
HATCH_DISTANCE
1040
1.0
1001
HATCH_DISPLAY
1070
     0
1001
HATCH_TYPE
1070
     7
  0
LINE
  5
26BA
  8
247
 10
10.94798188197373
 20
-26.80546785991886
 30
0.0
 11
10.94798188197373
 21
-25.90147616070011
 31
0.0
1001
HATCH_DISTANCE
1040
1.0
1001
HATCH_DISPLAY
1070
     0
1001
HATCH_TYPE
1070
     7
  0
LINE
  5
26BB
  8
247
 10
7.755018758652195
 20
-25.889894739801669
 30
0.0
 11
10.94798188197373
 21
-26.80546785991886
 31
0.0
1001
HATCH_DISTANCE
1040
1.0
1001
HATCH_DISPLAY
1070
     0
1001
HATCH_TYPE
1070
     7
  0
LINE
  5
26BC
  8
247
 10
7.755018758652195
 20
-26.037065760309481
 30
0.0
 11
7.755018758652195
 21
-25.889894739801669
 31
0.0
1001
HATCH_DISTANCE
1040
1.0
1001
HATCH_DISPLAY
1070
     0
1001
HATCH_TYPE
1070
     7
  0
LINE
  5
26BD
  8
247
 10
7.310438680527195
 20
-25.90957857769229
 30
0.0
 11
7.755018758652195
 21
-26.037065760309481
 31
0.0
1001
HATCH_DISTANCE
1040
1.0
1001
HATCH_DISPLAY
1070
     0
1001
HATCH_TYPE
1070
     7
  0
LINE
  5
26BE
  8
247
 10
7.310438680527195
 20
-24.85843111675479
 30
0.0
 11
7.310438680527195
 21
-25.90957857769229
 31
0.0
  0
LINE
  5
26BF
  8
247
 10
10.94798188197373
 20
-25.90147616070011
 30
0.0
 11
7.310438680527195
 21
-24.85843111675479
 31
0.0
  0
LINE
  5
26C0
  8
247
 10
10.94798188197373
 20
-26.80546785991886
 30
0.0
 11
10.94798188197373
 21
-25.90147616070011
 31
0.0
  0
LINE
  5
26C1
  8
247
 10
7.755018758652195
 20
-25.889894739801669
 30
0.0
 11
10.94798188197373
 21
-26.80546785991886
 31
0.0
  0
LINE
  5
26C2
  8
247
 10
7.755018758652195
 20
-26.037065760309481
 30
0.0
 11
7.755018758652195
 21
-25.889894739801669
 31
0.0
  0
LINE
  5
26C3
  8
247
 10
7.310438680527195
 20
-25.90957857769229
 30
0.0
 11
7.755018758652195
 21
-26.037065760309481
 31
0.0
  0
LINE
  5
26C4
  8
247
 10
7.3522036377152373
 20
-25.921555040394999
 30
0.0
 11
7.3104386805272004
 21
-25.879790083206959
 31
0.0
  0
LINE
  5
26C5
  8
247
 10
7.7754005696844191
 20
-25.895739166310729
 30
0.0
 11
7.3104386805272004
 21
-25.43077727715351
 31
0.0
  0
LINE
  5
26C6
  8
247
 10
8.404928814565892
 20
-26.07625460513874
 30
0.0
 11
7.310438680527187
 21
-24.98176447110005
 31
0.0
  0
LINE
  5
26C7
  8
247
 10
9.0344570594473463
 20
-26.25677004396675
 30
0.0
 11
7.7670483998237341
 21
-24.98936138434313
 31
0.0
  0
LINE
  5
26C8
  8
247
 10
9.6639853043288184
 20
-26.437285482794749
 30
0.0
 11
8.3965741812547048
 21
-25.16987435972063
 31
0.0
  0
LINE
  5
26C9
  8
247
 10
10.29351354921026
 20
-26.617800921622749
 30
0.0
 11
9.026099962685695
 21
-25.350387335098169
 31
0.0
  0
LINE
  5
26CA
  8
247
 10
10.923041794091731
 20
-26.798316360450752
 30
0.0
 11
9.6556257441166782
 21
-25.53090031047569
 31
0.0
  0
LINE
  5
26CB
  8
247
 10
10.94798188197373
 20
-26.374243642279311
 30
0.0
 11
10.28515152554764
 21
-25.711413285853212
 31
0.0
  0
LINE
  5
26CC
  8
247
 10
10.94798188197373
 20
-25.925230836225829
 30
0.0
 11
10.9146773069786
 21
-25.891926261230719
 31
0.0
  0
LINE
  5
26CD
  8
247
 10
8.5764651721766576
 20
-24.900752544589128
 30
0.0
 11
7.3168823027320817
 21
-23.64116967514455
 31
0.0
  0
LINE
  5
26CE
  8
247
 10
9.1745470067218395
 20
-25.04982157308087
 30
0.0
 11
7.3434193670288019
 21
-23.218693933387812
 31
0.0
  0
LINE
  5
26CF
  8
247
 10
9.6871826023523191
 20
-25.11344436265788
 30
0.0
 11
8.3693027708639551
 21
-23.795564531169511
 31
0.0
  0
LINE
  5
26D0
  8
247
 10
7.768251019910636
 20
-23.194512780216201
 30
0.0
 11
7.4656076805310114
 21
-22.891869440836569
 31
0.0
  0
LINE
  5
26D1
  8
247
 10
10.06476417507872
 20
-25.042013129330829
 30
0.0
 11
8.9988309116828482
 21
-23.976079865934931
 31
0.0
  0
LINE
  5
26D2
  8
247
 10
7.959446761810641
 20
-22.936695716062751
 30
0.0
 11
7.4635003450351327
 21
-22.440749299287241
 31
0.0
  0
LINE
  5
26D3
  8
247
 10
10.364617812098709
 20
-24.892853960297359
 30
0.0
 11
9.6283590525017342
 21
-24.15659520070038
 31
0.0
  0
LINE
  5
26D4
  8
247
 10
7.8469491893918804
 20
-22.375185337590519
 30
0.0
 11
7.8048682886167464
 21
-22.33310443681539
 31
0.0
  0
LINE
  5
26D5
  8
247
 10
10.60587767770688
 20
-24.685101019852091
 30
0.0
 11
10.17782647592912
 21
-24.257049818074321
 31
0.0
  0
LINE
  5
26D6
  8
247
 10
9.2908769129490754
 20
-23.370100255094261
 30
0.0
 11
8.8867021082615771
 21
-22.965925450406768
 31
0.0
  0
LINE
  5
26D7
  8
247
 10
10.791861550803731
 20
-24.422072086895451
 30
0.0
 11
10.43894598430691
 21
-24.069156520398639
 31
0.0
  0
LINE
  5
26D8
  8
247
 10
9.6494653077450625
 20
-23.279675843836781
 30
0.0
 11
8.8867021082615771
 21
-22.516912644353312
 31
0.0
  0
LINE
  5
26D9
  8
247
 10
10.914498029996651
 20
-24.095695760034928
 30
0.0
 11
10.43999019289005
 21
-23.621187922928339
 31
0.0
  0
LINE
  5
26DA
  8
247
 10
10.302152699548961
 20
-23.48335042958724
 30
0.0
 11
9.0999979839046166
 21
-22.281195713942889
 31
0.0
  0
LINE
  5
26DB
  8
247
 10
10.94185273566611
 20
-23.674037659650949
 30
0.0
 11
9.7295255111283918
 21
-22.461710435113211
 31
0.0
  0
LINE
  5
26DC
  8
247
 10
10.737960817301939
 20
-23.0211329352333
 30
0.0
 11
10.35905303835216
 21
-22.642225156283509
 31
0.0
  0
LINE
  5
26DD
  8
247
 10
8.9178144504825703
 20
-31.977293913696911
 30
0.0
 11
7.373765824991354
 21
-30.433245288205701
 31
0.0
  0
LINE
  5
26DE
  8
247
 10
9.4301532730522748
 20
-32.040619930213161
 30
0.0
 11
8.9596651984480662
 21
-31.570131855608949
 31
0.0
  0
LINE
  5
26DF
  8
247
 10
7.7809278830793023
 20
-30.391394540240181
 30
0.0
 11
7.3104398084750972
 21
-29.92090646563598
 31
0.0
  0
LINE
  5
26E0
  8
247
 10
9.8396984400006744
 20
-32.001152291108092
 30
0.0
 11
9.4744755636711524
 21
-31.63592941477857
 31
0.0
  0
LINE
  5
26E1
  8
247
 10
7.7146134852147004
 20
-29.87606733632213
 30
0.0
 11
7.3104386805272004
 21
-29.47189253163463
 31
0.0
  0
LINE
  5
26E2
  8
247
 10
10.18877166831113
 20
-31.901212713365108
 30
0.0
 11
9.8678732083319982
 21
-31.580314253385989
 31
0.0
  0
LINE
  5
26E3
  8
247
 10
7.7146134852147004
 20
-29.427054530268681
 30
0.0
 11
7.3961960462984422
 21
-29.108637091352421
 31
0.0
  0
LINE
  5
26E4
  8
247
 10
10.4930510839076
 20
-31.756479322908131
 30
0.0
 11
10.194616416850151
 21
-31.45804465585066
 31
0.0
  0
LINE
  5
26E5
  8
247
 10
10.75974188152045
 20
-31.574157314467492
 30
0.0
 11
10.471813710252381
 21
-31.286229143199421
 31
0.0
  0
LINE
  5
26E6
  8
247
 10
10.99202044171885
 20
-31.357423068612469
 30
0.0
 11
10.70593837458496
 21
-31.071341001478562
 31
0.0
  0
LINE
  5
26E7
  8
247
 10
11.190431549110951
 20
-31.106821369951099
 30
0.0
 11
10.89804351132109
 21
-30.81443333216124
 31
0.0
  0
LINE
  5
26E8
  8
247
 10
11.35309774104261
 20
-30.820474755829292
 30
0.0
 11
11.04443089990704
 21
-30.51180791469374
 31
0.0
  0
LINE
  5
26E9
  8
247
 10
11.474961275925081
 20
-30.493325484658289
 30
0.0
 11
11.13409176145476
 21
-30.15245597018799
 31
0.0
  0
LINE
  5
26EA
  8
247
 10
11.54518853227728
 20
-30.114539934957062
 30
0.0
 11
11.15006928431748
 21
-29.71942068699725
 31
0.0
  0
LINE
  5
26EB
  8
247
 10
11.55424407860307
 20
-29.674582675229381
 30
0.0
 11
11.15006928431748
 21
-29.27040788094379
 31
0.0
  0
LINE
  5
26EC
  8
247
 10
11.554244078603091
 20
-29.225569869175938
 30
0.0
 11
11.15006928431748
 21
-28.82139507489034
 31
0.0
  0
LINE
  5
26ED
  8
247
 10
11.554244078603091
 20
-28.776557063122478
 30
0.0
 11
11.15006928431748
 21
-28.37238226883688
 31
0.0
  0
LINE
  5
26EE
  8
247
 10
11.554244078603091
 20
-28.327544257069029
 30
0.0
 11
11.15006928431748
 21
-27.92336946278342
 31
0.0
  0
LINE
  5
26EF
  8
247
 10
11.554244078603091
 20
-27.878531451015562
 30
0.0
 11
11.15006928431746
 21
-27.474356656729949
 31
0.0
  0
LINE
  5
26F0
  8
247
 10
11.554244078603091
 20
-27.429518644962091
 30
0.0
 11
11.15006928431748
 21
-27.02534385067651
 31
0.0
  0
LINE
  5
26F1
  8
247
 10
11.554244078603091
 20
-26.980505838908648
 30
0.0
 11
11.15006928431748
 21
-26.576331044623039
 31
0.0
  0
LINE
  5
26F2
  8
247
 10
11.55424407860307
 20
-26.531493032855181
 30
0.0
 11
11.15006928431748
 21
-26.127318238569579
 31
0.0
  0
LINE
  5
26F3
  8
247
 10
11.554244078603091
 20
-26.082480226801732
 30
0.0
 11
11.15006928431748
 21
-25.67830543251613
 31
0.0
  0
LINE
  5
26F4
  8
247
 10
7.6437697054409472
 20
-22.172005853639579
 30
0.0
 11
7.3143362217396941
 21
-21.842572369938331
 31
0.0
  0
LINE
  5
26F5
  8
247
 10
11.55424407860307
 20
-25.633467420748289
 30
0.0
 11
11.15006928431748
 21
-25.229292626462669
 31
0.0
  0
LINE
  5
26F6
  8
247
 10
7.7165604748111321
 20
-21.79578381695632
 30
0.0
 11
7.332135215241137
 21
-21.411358557386329
 31
0.0
  0
LINE
  5
26F7
  8
247
 10
11.554244078603091
 20
-25.184454614694811
 30
0.0
 11
11.150069284317491
 21
-24.78027982040922
 31
0.0
  0
LINE
  5
26F8
  8
247
 10
7.7477985690811852
 20
-21.3780091051729
 30
0.0
 11
7.4177024755406924
 21
-21.047913011632421
 31
0.0
  0
LINE
  5
26F9
  8
247
 10
11.55424407860307
 20
-24.735441808641362
 30
0.0
 11
11.15006928431748
 21
-24.33126701435576
 31
0.0
  0
LINE
  5
26FA
  8
247
 10
7.8543045736125361
 20
-21.035502303650809
 30
0.0
 11
7.5511664702001147
 21
-20.73236420023839
 31
0.0
  0
LINE
  5
26FB
  8
247
 10
11.55424407860307
 20
-24.286429002587901
 30
0.0
 11
11.15006928431748
 21
-23.88225420830231
 31
0.0
  0
LINE
  5
26FC
  8
247
 10
8.0135415668826813
 20
-20.745726490867501
 30
0.0
 11
7.723682006890769
 21
-20.45586693087559
 31
0.0
  0
LINE
  5
26FD
  8
247
 10
11.554244078603091
 20
-23.837416196534441
 30
0.0
 11
11.15006928431748
 21
-23.433241402248829
 31
0.0
  0
LINE
  5
26FE
  8
247
 10
8.2169788342076391
 20
-20.500150952138991
 30
0.0
 11
7.9311840454309692
 21
-20.214356163362321
 31
0.0
  0
LINE
  5
26FF
  8
247
 10
11.55424407860307
 20
-23.388403390480971
 30
0.0
 11
11.15006928431748
 21
-22.984228596195369
 31
0.0
  0
LINE
  5
2700
  8
247
 10
8.4622738871002277
 20
-20.296433198978111
 30
0.0
 11
8.1724691250352102
 21
-20.0066284369131
 31
0.0
  0
LINE
  5
2701
  8
247
 10
11.554244078603091
 20
-22.939390584427521
 30
0.0
 11
11.15006928431748
 21
-22.535215790141908
 31
0.0
  0
LINE
  5
2702
  8
247
 10
8.7517368488551881
 20
-20.136883354679629
 30
0.0
 11
8.4487243527762974
 21
-19.833870858600719
 31
0.0
  0
LINE
  5
2703
  8
247
 10
11.55424407860307
 20
-22.490377778374061
 30
0.0
 11
11.15006928431748
 21
-22.086202984088469
 31
0.0
  0
LINE
  5
2704
  8
247
 10
9.0938432567362515
 20
-20.02997695650723
 30
0.0
 11
8.7639917318599991
 21
-19.700125431631001
 31
0.0
  0
LINE
  5
2705
  8
247
 10
11.55424407860307
 20
-22.041364972320601
 30
0.0
 11
11.14826805961928
 21
-21.635388953336811
 31
0.0
  0
LINE
  5
2706
  8
247
 10
9.5109741300779849
 20
-19.998095023795511
 30
0.0
 11
9.1270722470902736
 21
-19.614193140807789
 31
0.0
  0
LINE
  5
2707
  8
247
 10
11.55053625875264
 20
-21.588644346416711
 30
0.0
 11
11.01984150929893
 21
-21.057949596962992
 31
0.0
  0
LINE
  5
2708
  8
247
 10
10.08841348645181
 20
-20.12652157411588
 30
0.0
 11
9.5577187369980994
 21
-19.595826824662161
 31
0.0
  0
LINE
  5
2709
  8
247
 10
11.441001515041689
 20
-21.030096796652309
 30
0.0
 11
10.116266286762491
 21
-19.705361568373121
 31
0.0
  0
LINE
  5
270A
  8
243
 10
126.0
 20
-2.0
 30
0.0
 11
166.0000038968995
 21
-2.0
 31
0.0
  0
LINE
  5
270B
  8
243
 10
126.0
 20
1.999999999999964
 30
0.0
 11
166.0000038968995
 21
2.0000000000000542
 31
0.0
1001
GRPNAME
1000
00000001
  0
LINE
  5
270C
  8
246
 10
2.9999999999997962
 20
-71.0
 30
0.0
 11
8.9999999999997993
 21
-71.0
 31
0.0
  0
LINE
  5
270D
  8
246
 10
2.9999999999997962
 20
-88.999999999999872
 30
0.0
 11
8.9999999999997993
 21
-88.999999999999872
 31
0.0
  0
LINE
  5
270E
  8
246
 10
15.000000000000091
 20
-63.999999999999893
 30
0.0
 11
-30.000000000000909
 21
-63.999999999999893
 31
0.0
  0
LINE
  5
270F
  8
246
 10
15.000000000000091
 20
-96.0
 30
0.0
 11
-30.000000000000188
 21
-96.000000000000043
 31
0.0
  0
LINE
  5
2710
  8
246
 10
2.9999999999997962
 20
-88.999999999999872
 30
0.0
 11
2.9999999999997962
 21
-71.0
 31
0.0
  0
LINE
  5
2711
  8
246
 10
-0.0000000000000018
 20
-72.571174565272401
 30
0.0
 11
-0.0000000000000018
 21
-80.0
 31
0.0
  0
LINE
  5
2712
  8
246
 10
-0.0000000000000018
 20
-87.428825434727713
 30
0.0
 11
-0.0000000000000018
 21
-80.0
 31
0.0
  0
ARC
  5
2713
  8
246
 10
0.9999999999999982
 20
-87.428825434727472
 30
0.0
 40
1.0
 50
179.9999999652816
 51
254.99999996528541
  0
LINE
  5
2714
  8
246
 10
0.7411809548974997
 20
-88.394751261016793
 30
0.0
 11
2.9999999999997962
 21
-88.999999999999872
 31
0.0
  0
ARC
  5
2715
  8
246
 10
0.9999999999999982
 20
-72.571174565272401
 30
0.0
 40
1.0000000000001841
 50
105.0000000347145
 51
180.0000000347184
  0
LINE
  5
2716
  8
246
 10
0.7411809548974997
 20
-71.605248738983391
 30
0.0
 11
2.9999999999997962
 21
-71.0
 31
0.0
  0
LINE
  5
2717
  8
246
 10
15.000000000000091
 20
-96.0
 30
0.0
 11
15.000000000000091
 21
-88.999999999999872
 31
0.0
  0
LINE
  5
2718
  8
246
 10
15.000000000000091
 20
-71.0
 30
0.0
 11
15.000000000000091
 21
-63.999999999999893
 31
0.0
  0
LINE
  5
2719
  8
246
 10
-30.00000000000119
 20
-51.539069608863507
 30
0.0
 11
-29.999999999999851
 21
-110.6763195780223
 31
0.0
  0
LINE
  5
271A
  8
245
 10
-3.7917755282735439
 20
-80.0
 30
0.0
 11
117.20495466109681
 21
-80.0
 31
0.0
1001
GRPNAME
1000
0000006R
  0
ARC
  5
271B
  8
240
 10
6.9999999999999929
 20
-87.428825434727656
 30
0.0
 40
1.0
 50
180.0
 51
254.9999999999998
1001
GENIUS_GENOBJ-N-FIL_13
1002
{
1000
OWNER
1000
GEN
1002
}
1001
GENIUS_GENODEF_13
1002
{
1000
HIER
1070
     0
1002
}
1002
{
1000
MANEDIT
1070
     0
1002
}
1002
{
1000
NOSEL
1070
     0
1002
}
1002
{
1000
BEHIND
1070
     0
1002
}
1002
{
1000
OTHER
1070
     0
1002
}
1002
{
1000
REACTOR
1002
}
  0
ARC
  5
271C
  8
240
 10
6.9999999999999973
 20
-72.571174565272344
 30
0.0
 40
1.0
 50
105.0000000000004
 51
180.0
1001
GENIUS_GENODEF_13
1002
{
1000
HIER
1070
     0
1002
}
1002
{
1000
MANEDIT
1070
     0
1002
}
1002
{
1000
NOSEL
1070
     0
1002
}
1002
{
1000
BEHIND
1070
     0
1002
}
1002
{
1000
OTHER
1070
     0
1002
}
1002
{
1000
REACTOR
1002
}
1001
GENIUS_GENOBJ-N-FIL_13
1002
{
1000
OWNER
1000
GEN
1002
}
  0
LINE
  5
271D
  8
240
 10
9.0
 20
-89.0
 30
0.0
 11
6.7411809548974713
 21
-88.394751261016737
 31
0.0
  0
LINE
  5
271E
  8
240
 10
6.7411809548974713
 20
-71.605248738983278
 30
0.0
 11
8.9999999999999698
 21
-71.0
 31
0.0
  0
LINE
  5
271F
  8
241
 10
8.9999999999999982
 20
-70.999999999999986
 30
0.0
 11
8.9999999999999964
 21
-89.0
 31
0.0
  0
LINE
  5
2720
  8
240
 10
5.9999999999999929
 20
-87.428825434727656
 30
0.0
 11
5.9999999999999973
 21
-72.571174565272344
 31
0.0
  0
LINE
  5
2721
  8
240
 10
9.0
 20
-89.0
 30
0.0
 11
46.999999581830437
 21
-89.0
 31
0.0
1001
GRPNAME
1000
0000006R
  0
LINE
  5
2722
  8
240
 10
8.9999999999999698
 20
-71.0
 30
0.0
 11
46.999999581830437
 21
-71.000000000000014
 31
0.0
1001
GRPNAME
1000
0000006R
  0
LINE
  5
2723
  8
240
 10
0.0
 20
34.92499999999994
 30
0.0
 11
-99.232921000000005
 21
20.45353299999999
 31
0.0
  0
LINE
  5
2724
  8
240
 10
0.0
 20
-34.925000000000011
 30
0.0
 11
-99.232921000000005
 21
-20.453531999999921
 31
0.0
  0
ARC
  5
2725
  8
240
 10
-98.800000000000026
 20
-17.484932999999991
 30
0.0
 40
3.0
 50
180.0
 51
261.70285499999972
  0
LINE
  5
2726
  8
240
 10
-101.8
 20
17.484933999999939
 30
0.0
 11
-101.8
 21
-17.484932999999991
 31
0.0
  0
ARC
  5
2727
  8
240
 10
-98.800000000000026
 20
17.484933999999939
 30
0.0
 40
3.0
 50
98.297145000000285
 51
180.0
  0
LINE
  5
2728
  8
241
 10
20.030127000000011
 20
42.555050968617891
 30
0.0
 11
20.030127000000011
 21
-42.555050999999992
 31
0.0
  0
LINE
  5
2729
  8
241
 10
26.369872999999998
 20
42.555050968617898
 30
0.0
 11
26.369873000000009
 21
-42.555050999999992
 31
0.0
  0
LINE
  5
272A
  8
241
 10
30.700000000000021
 20
-49.858600000000017
 30
0.0
 11
30.700000000000021
 21
49.858599999999953
 31
0.0
  0
ARC
  5
272B
  8
247
 10
9.4323411463475164
 20
-21.71402193706729
 30
0.0
 40
1.7177276611328101
 50
0.0
 51
194.1274364964118
  0
ARC
  5
272C
  8
247
 10
9.4323411463475164
 20
-21.71402193706729
 30
0.0
 40
2.1219024658203121
 50
0.0
 51
194.77079396609381
  0
LINE
  5
272D
  8
241
 10
1.5
 20
34.92499999999994
 30
0.0
 11
1.5
 21
-34.925000000000011
 31
0.0
  0
LINE
  5
272E
  8
241
 10
0.0
 20
34.92499999999994
 30
0.0
 11
0.0
 21
-34.925000000000011
 31
0.0
  0
LINE
  5
272F
  8
241
 10
15.70000000000001
 20
-49.858600000000017
 30
0.0
 11
15.70000000000001
 21
49.858599999999932
 31
0.0
  0
LINE
  5
2730
  8
240
 10
30.944911999999981
 20
-50.0
 30
0.0
 11
36.700000000000699
 21
-50.0
 31
0.0
  0
LINE
  5
2731
  8
243
 10
34.0
 20
-35.400000000000041
 30
0.0
 11
1.5
 21
-35.400000000000041
 31
0.0
  0
ARC
  5
2732
  8
240
 10
2.8000000000000109
 20
-48.700000000000038
 30
0.0
 40
1.3
 50
180.0
 51
270.0
  0
LINE
  5
2733
  8
240
 10
1.5
 20
-34.925000000000011
 30
0.0
 11
1.5
 21
-48.700000000000038
 31
0.0
  0
LINE
  5
2734
  8
240
 10
0.0
 20
-34.925000000000011
 30
0.0
 11
1.5
 21
-34.925000000000011
 31
0.0
  0
LINE
  5
2735
  8
240
 10
19.943523999999961
 20
-42.650000000000027
 30
0.0
 11
15.822455999999979
 21
-49.787900000000022
 31
0.0
  0
LINE
  5
2736
  8
240
 10
2.8000000000000109
 20
-50.0
 30
0.0
 11
15.455087999999989
 21
-50.0
 31
0.0
  0
LINE
  5
2737
  8
240
 10
15.455087999999989
 20
-50.0
 30
0.0
 11
15.822455999999979
 21
-49.787900000000022
 31
0.0
  0
LINE
  5
2738
  8
240
 10
26.196667999999999
 20
-42.5
 30
0.0
 11
20.203331999999989
 21
-42.5
 31
0.0
  0
ARC
  5
2739
  8
240
 10
20.203331999999989
 20
-42.800000000000011
 30
0.0
 40
0.3
 50
90.0
 51
150.00000000000011
  0
LINE
  5
273A
  8
240
 10
26.456475000000001
 20
-42.650000000000027
 30
0.0
 11
30.577544000000021
 21
-49.787900000000022
 31
0.0
  0
LINE
  5
273B
  8
240
 10
30.944911999999981
 20
-50.0
 30
0.0
 11
30.577544000000021
 21
-49.787900000000022
 31
0.0
  0
ARC
  5
273C
  8
240
 10
26.196667999999999
 20
-42.800000000000011
 30
0.0
 40
0.3
 50
29.999999999999719
 51
90.0
  0
ARC
  5
273D
  8
247
 10
9.4323411463475164
 20
-29.918718592340731
 30
0.0
 40
2.1219024658203121
 50
180.0
 51
0.0
  0
ARC
  5
273E
  8
247
 10
9.4323411463475164
 20
-29.918718592340731
 30
0.0
 40
1.7177276611328101
 50
180.0
 51
0.0
  0
ARC
  5
273F
  8
247
 10
9.8971391199803271
 20
-28.480303064996981
 30
0.0
 40
0.6062626242637637
 50
351.66285421114878
 51
156.3381921591137
  0
LINE
  5
2740
  8
247
 10
9.3418447294489848
 20
-28.236987407005941
 30
0.0
 11
10.49699478337126
 21
-28.568209564626049
 31
0.0
  0
LINE
  5
2741
  8
247
 10
10.94798188197373
 20
-25.90147616070011
 30
0.0
 11
7.310438680527195
 21
-24.85843111675479
 31
0.0
  0
LINE
  5
2742
  8
247
 10
10.94798188197373
 20
-26.80546785991886
 30
0.0
 11
7.755018758652195
 21
-25.889894739801669
 31
0.0
  0
LINE
  5
2743
  8
247
 10
9.9620347498631414
 20
-24.252275721246971
 30
0.0
 11
8.0624223231053254
 21
-23.70756746929386
 31
0.0
  0
LINE
  5
2744
  8
247
 10
10.94798188197373
 20
-22.811098353082912
 30
0.0
 11
8.8867021082615718
 21
-22.220033899957919
 31
0.0
  0
ARC
  5
2745
  8
247
 10
10.07900862681625
 20
-23.84433199566104
 30
0.0
 40
0.4243830442428589
 50
254.00027305718419
 51
74.000273057184273
  0
LINE
  5
2746
  8
247
 10
10.195982503769381
 20
-23.43638827007511
 30
0.0
 11
9.2908769129490754
 21
-23.17685152691103
 31
0.0
  0
ARC
  5
2747
  8
247
 10
9.9375596522068932
 20
-28.029390589411051
 30
0.0
 40
1.0104217529296871
 50
0.0
 51
130.3298406541675
  0
LINE
  5
2748
  8
247
 10
9.7676842852313523
 20
-27.888022881857879
 30
0.0
 11
8.442378050656119
 21
-26.562716647282631
 31
0.0
  0
ARC
  5
2749
  8
247
 10
9.6344285486912629
 20
-23.800935999567301
 30
0.0
 40
1.313568115234375
 50
253.99975070172761
 51
34.963873291630819
  0
LINE
  5
274A
  8
247
 10
10.94798188197373
 20
-29.70663668316099
 30
0.0
 11
7.7146134852158941
 21
-28.77948214214587
 31
0.0
  0
LINE
  5
274B
  8
247
 10
10.58386292196948
 20
-29.602227130702889
 30
0.0
 11
8.8737569600728232
 21
-27.892121168806231
 31
0.0
  0
LINE
  5
274C
  8
247
 10
10.94798188197373
 20
-28.619307672546771
 30
0.0
 11
9.4649726288301128
 21
-27.13629841940314
 31
0.0
  0
LINE
  5
274D
  8
247
 10
9.9543359536800473
 20
-29.421712968466881
 30
0.0
 11
8.5395503480002315
 21
-28.006927362787131
 31
0.0
  0
LINE
  5
274E
  8
247
 10
7.310438680527195
 20
-25.90957857769229
 30
0.0
 11
7.310438680527195
 21
-24.85843111675479
 31
0.0
  0
LINE
  5
274F
  8
247
 10
8.0078507142829114
 20
-27.47522772906979
 30
0.0
 11
7.503874602892183
 21
-26.971251617679052
 31
0.0
  0
ARC
  5
2750
  8
247
 10
8.3208604334568914
 20
-27.565813318903231
 30
0.0
 40
1.010430335998534
 50
17.669577547398148
 51
180.2361598426715
  0
LINE
  5
2751
  8
247
 10
7.755018758652195
 20
-26.037065760309481
 30
0.0
 11
7.310438680527195
 21
-25.90957857769229
 31
0.0
  0
LINE
  5
2752
  8
247
 10
7.7712822897604772
 20
-27.68767211060079
 30
0.0
 11
7.3544456502480386
 21
-27.270835471088329
 31
0.0
  0
LINE
  5
2753
  8
247
 10
8.4050597857023224
 20
-27.423423994435741
 30
0.0
 11
7.7287122689476462
 21
-26.747076477681048
 31
0.0
  0
LINE
  5
2754
  8
247
 10
9.4754086122692662
 20
-28.044760014949201
 30
0.0
 11
8.0290776688029606
 21
-26.598429071482879
 31
0.0
  0
LINE
  5
2755
  8
247
 10
7.755018758652195
 20
-26.037065760309481
 30
0.0
 11
7.755018758652195
 21
-25.889894739801669
 31
0.0
  0
LINE
  5
2756
  8
247
 10
7.7251775927593069
 20
-27.77341496039838
 30
0.0
 11
8.8802933847931929
 21
-28.104631669085059
 31
0.0
  0
ARC
  5
2757
  8
247
 10
8.2804551600193932
 20
-28.016725794489151
 30
0.0
 40
0.6062452793121338
 50
351.66260168792923
 51
156.3381550951899
  0
LINE
  5
2758
  8
247
 10
7.310438680527195
 20
-29.084047571832912
 30
0.0
 11
7.7146134852146959
 21
-29.19993807476261
 31
0.0
  0
LINE
  5
2759
  8
247
 10
7.310438680527195
 20
-28.873827234918629
 30
0.0
 11
7.7146134852146959
 21
-28.989717737848999
 31
0.0
  0
LINE
  5
275A
  8
247
 10
7.310438680527195
 20
-29.918718592340731
 30
0.0
 11
7.310438680527195
 21
-29.084047571832912
 31
0.0
  0
LINE
  5
275B
  8
247
 10
7.7146134852146959
 20
-29.918718592340731
 30
0.0
 11
7.7146134852146959
 21
-29.19993807476261
 31
0.0
  0
LINE
  5
275C
  8
247
 10
7.7146134852146959
 20
-28.989717737848999
 30
0.0
 11
7.7146134852158941
 21
-28.77948214214587
 31
0.0
  0
LINE
  5
275D
  8
247
 10
8.0657550488117291
 20
-28.880170481758981
 30
0.0
 11
7.310438680527314
 21
-28.12485411347453
 31
0.0
  0
LINE
  5
275E
  8
247
 10
7.7146134852147581
 20
-28.97804172421548
 30
0.0
 11
7.310438680527195
 21
-28.573866919527919
 31
0.0
  0
LINE
  5
275F
  8
247
 10
8.6952820171011656
 20
-29.06068464399495
 30
0.0
 11
7.310438680527314
 21
-27.675841307421091
 31
0.0
  0
LINE
  5
2760
  8
247
 10
7.310438680527195
 20
-28.873827234918629
 30
0.0
 11
7.310438680527314
 21
-27.569978065339178
 31
0.0
  0
LINE
  5
2761
  8
247
 10
9.3248089853906073
 20
-29.241198806230909
 30
0.0
 11
7.9100293379869679
 21
-27.826419158827271
 31
0.0
  0
ARC
  5
2762
  8
247
 10
8.6239915369725129
 20
-23.51120211284854
 30
0.0
 40
1.3135547637939451
 50
143.44401219705779
 51
254.00018438768541
  0
ARC
  5
2763
  8
247
 10
9.7034898279881414
 20
-21.653322474176669
 30
0.0
 40
3.43743896484375
 50
245.20517736984229
 51
262.79482596205048
  0
LINE
  5
2764
  8
247
 10
7.766554403183445
 20
-22.133287684137599
 30
0.0
 11
7.380552816269387
 21
-22.255007044489162
 31
0.0
  0
LINE
  5
2765
  8
247
 10
7.827330160019387
 20
-22.32602144878603
 30
0.0
 11
7.44132857310532
 21
-22.447740809137599
 31
0.0
  0
ARC
  5
2766
  8
247
 10
9.4323411463475164
 20
-21.71402193706729
 30
0.0
 40
2.121903419494628
 50
200.22964506331999
 51
208.57168892371641
  0
ARC
  5
2767
  8
247
 10
9.4323411463475164
 20
-21.71402193706729
 30
0.0
 40
1.717732429504389
 50
200.8721834020736
 51
222.5419489373881
  0
ARC
  5
2768
  8
247
 10
8.1794114588475164
 20
-23.299623743707912
 30
0.0
 40
0.4243833422660829
 50
91.710121382064258
 51
253.9983983544486
  0
LINE
  5
2769
  8
247
 10
9.2908769129490754
 20
-23.51321627300479
 30
0.0
 11
8.8867021082615718
 21
-23.39732577007511
 31
0.0
  0
LINE
  5
276A
  8
247
 10
9.2908769129490754
 20
-23.51321627300479
 30
0.0
 11
9.2908769129490754
 21
-23.17685152691103
 31
0.0
  0
LINE
  5
276B
  8
247
 10
8.8867021082615718
 20
-23.39732577007511
 30
0.0
 11
8.8867021082615718
 21
-22.220033899957919
 31
0.0
  0
LINE
  5
276C
  8
247
 10
11.55424407860308
 20
-29.918718592340731
 30
0.0
 11
11.55424407860308
 21
-21.71402193706729
 31
0.0
  0
LINE
  5
276D
  8
247
 10
11.15006928431748
 20
-29.918718592340731
 30
0.0
 11
11.15006928431748
 21
-21.71402193706729
 31
0.0
  0
LINE
  5
276E
  8
247
 10
10.94798188197373
 20
-26.80546785991886
 30
0.0
 11
10.94798188197373
 21
-25.90147616070011
 31
0.0
  0
LINE
  5
276F
  8
247
 10
10.87222513862414
 20
-27.64552531709024
 30
0.0
 11
10.32142492452768
 21
-27.094725102993792
 31
0.0
  0
LINE
  5
2770
  8
247
 10
10.94798188197373
 20
-28.1702948664933
 30
0.0
 11
9.8053435921617371
 21
-27.027656576681299
 31
0.0
  0
LINE
  5
2771
  8
247
 10
10.94798188197373
 20
-29.517333284653681
 30
0.0
 11
9.7986053397288817
 21
-28.367956742408818
 31
0.0
  0
LINE
  5
2772
  8
247
 10
10.94798188197373
 20
-29.068320478600249
 30
0.0
 11
10.428123006811539
 21
-28.54846160343806
 31
0.0
  0
LINE
  5
2773
  8
247
 10
10.94798188197373
 20
-29.70663668316099
 30
0.0
 11
10.94798188197373
 21
-28.029390589411051
 31
0.0
  0
LINE
  5
2774
  8
247
 10
10.71090607630966
 20
-23.04818941753603
 30
0.0
 11
10.94798188197373
 21
-22.811098353082912
 31
0.0
  0
LINE
  5
2775
  8
243
 10
34.0
 20
-35.400000000000041
 30
0.0
 11
34.0
 21
-49.0
 31
0.0
  0
ARC
  5
2776
  8
240
 10
36.700000000000699
 20
-48.700000000000038
 30
0.0
 40
1.3
 50
270.0
 51
5.215217999999421
  0
LINE
  5
2777
  8
243
 10
34.0
 20
-49.0
 30
0.0
 11
35.0
 21
-50.0
 31
0.0
  0
LINE
  5
2778
  8
240
 10
30.944911999999981
 20
50.0
 30
0.0
 11
36.700000000000699
 21
50.0
 31
0.0
  0
LINE
  5
2779
  8
243
 10
34.0
 20
35.39999999999997
 30
0.0
 11
1.5
 21
35.39999999999997
 31
0.0
  0
TEXT
  5
277A
  8
247
 10
11.042263444061261
 20
-18.76338854332818
 30
0.0
 40
3.0
  1
BBT50-RBX5-4S-166
 50
90.0
  7
YOKO
 11
11.042263444061261
 21
-18.76338854332818
 31
0.0
 73
     1
  0
ARC
  5
277B
  8
240
 10
2.8000000000000109
 20
48.699999999999932
 30
0.0
 40
1.3
 50
90.0
 51
180.0
  0
LINE
  5
277C
  8
240
 10
1.5
 20
34.92499999999994
 30
0.0
 11
1.5
 21
48.699999999999932
 31
0.0
  0
LINE
  5
277D
  8
240
 10
0.0
 20
34.92499999999994
 30
0.0
 11
1.5
 21
34.92499999999994
 31
0.0
  0
LINE
  5
277E
  8
240
 10
26.456475000000001
 20
42.64999999999997
 30
0.0
 11
30.577544000000021
 21
49.787899999999922
 31
0.0
  0
LINE
  5
277F
  8
240
 10
19.943523999999961
 20
42.64999999999997
 30
0.0
 11
15.822455999999979
 21
49.787899999999922
 31
0.0
  0
LINE
  5
2780
  8
240
 10
26.196667999999999
 20
42.5
 30
0.0
 11
20.203331999999989
 21
42.5
 31
0.0
  0
ARC
  5
2781
  8
240
 10
20.203331999999989
 20
42.79999999999994
 30
0.0
 40
0.3
 50
209.9999999999996
 51
270.0
  0
ARC
  5
2782
  8
240
 10
26.196667999999999
 20
42.79999999999994
 30
0.0
 40
0.3
 50
270.0
 51
330.00000000000011
  0
LINE
  5
2783
  8
240
 10
15.455087999999989
 20
50.0
 30
0.0
 11
2.8000000000000109
 21
50.0
 31
0.0
  0
LINE
  5
2784
  8
240
 10
15.455087999999989
 20
50.0
 30
0.0
 11
15.822455999999979
 21
49.787899999999922
 31
0.0
  0
LINE
  5
2785
  8
240
 10
30.944911999999981
 20
50.0
 30
0.0
 11
30.577544000000021
 21
49.787899999999922
 31
0.0
  0
LINE
  5
2786
  8
243
 10
34.0
 20
35.39999999999997
 30
0.0
 11
34.0
 21
49.0
 31
0.0
  0
ARC
  5
2787
  8
240
 10
36.700000000000699
 20
48.699999999999932
 30
0.0
 40
1.3
 50
0.0
 51
90.0
  0
LINE
  5
2788
  8
243
 10
34.0
 20
49.0
 30
0.0
 11
35.0
 21
50.0
 31
0.0
  0
LINE
  5
2789
  8
240
 10
63.000000000003311
 20
-100.9999999999999
 30
0.0
 11
99.499999581833464
 21
-100.9999999999999
 31
0.0
1001
GRPNAME
1000
0000006C
  0
LINE
  5
278A
  8
240
 10
56.999999581833507
 20
-57.500000000000099
 30
0.0
 11
56.999999581833507
 21
-44.000000000000107
 31
0.0
1001
GRPNAME
1000
0000002V
  0
ARC
  5
278B
  8
240
 10
63.000000000003311
 20
-98.999999999999957
 30
0.0
 40
2.0
 50
180.0
 51
270.0
1001
GRPNAME
1000
0000006C
  0
LINE
  5
278C
  8
240
 10
49.000000000003197
 20
-101.0
 30
0.0
 11
60.700000000003243
 21
-101.0000000000001
 31
0.0
1001
GRPNAME
1000
0000003G
  0
LINE
  5
278D
  8
241
 10
46.999999581830423
 20
-71.000000000000014
 30
0.0
 11
46.999999581830437
 21
-88.999999999999957
 31
0.0
1001
GRPNAME
1000
0000002V
  0
LINE
  5
278E
  8
240
 10
48.000000000003197
 20
-100.0
 30
0.0
 11
48.000000000003233
 21
-93.577350510621869
 31
0.0
1001
GRPNAME
1000
0000003G
  0
LINE
  5
278F
  8
240
 10
49.000000000003197
 20
-101.0
 30
0.0
 11
48.000000000003197
 21
-100.0
 31
0.0
1001
GRPNAME
1000
0000003G
  0
LINE
  5
2790
  8
240
 10
46.999999581830437
 20
-93.000000000000128
 30
0.0
 11
48.000000000003233
 21
-93.577350510621869
 31
0.0
1001
GRPNAME
1000
0000002V
  0
LINE
  5
2791
  8
241
 10
61.000000000003311
 20
-98.999999999999957
 30
0.0
 11
61.000000000003311
 21
-94.999999999999943
 31
0.0
1001
GRPNAME
1000
0000006C
  0
LINE
  5
2792
  8
240
 10
61.000000000003311
 20
-100.7000000000001
 30
0.0
 11
61.000000000003311
 21
-98.999999999999957
 31
0.0
1001
GRPNAME
1000
0000003G
  0
LINE
  5
2793
  8
240
 10
60.700000000003243
 20
-101.0000000000001
 30
0.0
 11
61.000000000003311
 21
-100.7000000000001
 31
0.0
1001
GRPNAME
1000
0000003G
  0
LINE
  5
2794
  8
240
 10
46.999999581830437
 20
-67.000000000000085
 30
0.0
 11
46.999999581830437
 21
-71.000000000000014
 31
0.0
1001
GRPNAME
1000
0000002V
  0
LINE
  5
2795
  8
240
 10
48.000000000003539
 20
-63.000000000000057
 30
0.0
 11
49.000000000003908
 21
-61.999999999999687
 31
0.0
1001
GRPNAME
1000
0000003G
  0
LINE
  5
2796
  8
240
 10
46.999999581830437
 20
-67.000000000000085
 30
0.0
 11
48.000000000003141
 21
-66.422649489378401
 31
0.0
1001
GRPNAME
1000
0000002V
  0
LINE
  5
2797
  8
241
 10
48.000000000002203
 20
-79.999999999999901
 30
0.0
 11
48.000000000003162
 21
-66.249444408621457
 31
0.0
1001
GRPNAME
1000
0000003G
  0
LINE
  5
2798
  8
240
 10
59.000000000003652
 20
-62.000000000000099
 30
0.0
 11
61.000000000003652
 21
-64.000000000000099
 31
0.0
1001
GRPNAME
1000
0000003G
  0
LINE
  5
2799
  8
240
 10
56.999999581833507
 20
-57.500000000000099
 30
0.0
 11
57.999999581833507
 21
-57.500000000000099
 31
0.0
1001
GRPNAME
1000
0000002V
  0
LINE
  5
279A
  8
240
 10
49.000000000003908
 20
-61.999999999999687
 30
0.0
 11
51.999999581833542
 21
-61.999999999999801
 31
0.0
1001
GRPNAME
1000
0000003G
  0
LINE
  5
279B
  8
241
 10
38.00000000000081
 20
-40.600000000000009
 30
0.0
 11
38.00000000000081
 21
-48.699999999999527
 31
0.0
1001
GRPNAME
1000
0000000K
  0
LINE
  5
279C
  8
241
 10
38.000000000000703
 20
-48.699999999999932
 30
0.0
 11
38.000000000000703
 21
48.699999999999847
 31
0.0
1001
GRPNAME
1000
0000001N
  0
LINE
  5
279D
  8
240
 10
50.000000000000469
 20
-48.499999999999879
 30
0.0
 11
50.000000000000469
 21
-41.303265717640322
 31
0.0
1001
GRPNAME
1000
0000001N
  0
LINE
  5
279E
  8
240
 10
38.300000000000651
 20
-48.999999999999879
 30
0.0
 11
49.500000000000469
 21
-48.999999999999879
 31
0.0
1001
GRPNAME
1000
0000001N
  0
LINE
  5
279F
  8
240
 10
38.300000000000651
 20
-48.999999999999879
 30
0.0
 11
38.000000000000703
 21
-48.699999999999932
 31
0.0
1001
GRPNAME
1000
0000001N
  0
LINE
  5
27A0
  8
240
 10
49.500000000000469
 20
-48.999999999999879
 30
0.0
 11
50.000000000000469
 21
-48.499999999999879
 31
0.0
1001
GRPNAME
1000
0000001N
  0
LINE
  5
27A1
  8
241
 10
52.499999581833507
 20
-50.500000000000107
 30
0.0
 11
56.499999581833499
 21
-50.500000000000107
 31
0.0
1001
GRPNAME
1000
0000002V
  0
LINE
  5
27A2
  8
241
 10
52.499999581833507
 20
-50.500000000000107
 30
0.0
 11
51.999999581833507
 21
-51.000000000000121
 31
0.0
1001
GRPNAME
1000
0000002V
  0
LINE
  5
27A3
  8
241
 10
56.499999581833499
 20
-50.500000000000107
 30
0.0
 11
56.999999581833507
 21
-51.000000000000121
 31
0.0
1001
GRPNAME
1000
0000002V
  0
LINE
  5
27A4
  8
240
 10
56.499999581833499
 20
-43.500000000000107
 30
0.0
 11
52.499999581830423
 21
-43.500000000000107
 31
0.0
1001
GRPNAME
1000
0000002V
  0
LINE
  5
27A5
  8
240
 10
52.499999581830423
 20
-43.500000000000107
 30
0.0
 11
51.999999581830437
 21
-44.000000000000107
 31
0.0
1001
GRPNAME
1000
0000002V
  0
LINE
  5
27A6
  8
240
 10
56.499999581833499
 20
-43.500000000000107
 30
0.0
 11
56.999999581833507
 21
-44.000000000000107
 31
0.0
1001
GRPNAME
1000
0000002V
  0
LINE
  5
27A7
  8
240
 10
50.000000000000469
 20
48.499999999999829
 30
0.0
 11
50.000000000000469
 21
41.26423106235967
 31
0.0
1001
GRPNAME
1000
0000001N
  0
LINE
  5
27A8
  8
240
 10
38.300000000000651
 20
48.999999999999829
 30
0.0
 11
49.500000000000469
 21
48.999999999999829
 31
0.0
1001
GRPNAME
1000
0000001N
  0
LINE
  5
27A9
  8
240
 10
38.300000000000651
 20
48.999999999999829
 30
0.0
 11
38.000000000000703
 21
48.699999999999847
 31
0.0
1001
GRPNAME
1000
0000001N
  0
LINE
  5
27AA
  8
240
 10
49.500000000000469
 20
48.999999999999829
 30
0.0
 11
50.000000000000469
 21
48.499999999999829
 31
0.0
1001
GRPNAME
1000
0000001N
  0
LINE
  5
27AB
  8
240
 10
101.49999958183351
 20
-63.499999999999943
 30
0.0
 11
101.49999958183351
 21
-49.681250038629692
 31
0.0
1001
GRPNAME
1000
0000006C
  0
ARC
  5
27AC
  8
240
 10
99.499999581833464
 20
-98.999999999999957
 30
0.0
 40
2.0
 50
270.0
 51
0.0
1001
GRPNAME
1000
0000006C
  0
LINE
  5
27AD
  8
240
 10
110.4999995818338
 20
-70.82842712474627
 30
0.0
 11
110.4999995818338
 21
-79.999999999999901
 31
0.0
1001
GRPNAME
1000
0000000W
  0
ARC
  5
27AE
  8
240
 10
108.4999995818338
 20
-89.171572875253617
 30
0.0
 40
1.9999999999999141
 50
315.00000000257251
 51
0.0000000025729415
1001
GRPNAME
1000
0000000W
  0
LINE
  5
27AF
  8
240
 10
109.9142131442069
 20
-90.585786437626723
 30
0.0
 11
103.79289280064719
 21
-96.707106781186383
 31
0.0
1001
GRPNAME
1000
0000000W
  0
LINE
  5
27B0
  8
240
 10
101.49999958183341
 20
-98.999999999999957
 30
0.0
 11
101.49999958183341
 21
-96.499999999999844
 31
0.0
1001
GRPNAME
1000
0000006C
  0
LINE
  5
27B1
  8
241
 10
101.49999958183351
 20
-63.499999999999943
 30
0.0
 11
101.49999958183351
 21
-96.499999999999957
 31
0.0
1001
GRPNAME
1000
0000000W
  0
ARC
  5
27B2
  8
240
 10
103.0857860194605
 20
-95.999999999999943
 30
0.0
 40
1.000000000000012
 50
270.00000003726859
 51
315.00000003726842
1001
GRPNAME
1000
0000000W
  0
LINE
  5
27B3
  8
240
 10
101.99999958183351
 20
-96.999999999999943
 30
0.0
 11
101.49999958183351
 21
-96.499999999999957
 31
0.0
1001
GRPNAME
1000
0000000W
  0
LINE
  5
27B4
  8
240
 10
101.99999958183351
 20
-96.999999999999943
 30
0.0
 11
103.0857860194605
 21
-96.999999999999943
 31
0.0
1001
GRPNAME
1000
0000000W
  0
LINE
  5
27B5
  8
240
 10
110.4999995818338
 20
-89.171572875253617
 30
0.0
 11
110.4999995818338
 21
-79.999999999999901
 31
0.0
1001
GRPNAME
1000
0000000W
  0
LINE
  5
27B6
  8
240
 10
109.9142131442069
 20
-69.414213562373149
 30
0.0
 11
103.79289280064719
 21
-63.292893218813511
 31
0.0
1001
GRPNAME
1000
0000000W
  0
ARC
  5
27B7
  8
240
 10
108.4999995818338
 20
-70.82842712474627
 30
0.0
 40
1.999999999999885
 50
359.99999998713861
 51
44.999999987137919
1001
GRPNAME
1000
0000000W
  0
ARC
  5
27B8
  8
240
 10
103.0857860194605
 20
-63.99999999999995
 30
0.0
 40
0.9999999999999879
 50
44.999999952441982
 51
89.999999952442934
1001
GRPNAME
1000
0000000W
  0
LINE
  5
27B9
  8
240
 10
101.99999958183351
 20
-62.999999999999929
 30
0.0
 11
101.49999958183351
 21
-63.499999999999943
 31
0.0
1001
GRPNAME
1000
0000000W
  0
LINE
  5
27BA
  8
240
 10
101.99999958183351
 20
-62.999999999999929
 30
0.0
 11
103.0857860194605
 21
-62.999999999999929
 31
0.0
1001
GRPNAME
1000
0000000W
  0
POLYLINE
  5
27BB
  8
241
 66
     1
 10
0.0
 20
0.0
 30
0.0
 70
     8
  0
VERTEX
  5
27BC
  8
241
 10
63.25
 20
-58.675199999999982
 30
0.0
 70
    32
  0
VERTEX
  5
27BD
  8
241
 10
63.255099999999999
 20
-58.861699999999992
 30
0.0
 70
    32
  0
VERTEX
  5
27BE
  8
241
 10
63.270499999999991
 20
-59.047800000000002
 30
0.0
 70
    32
  0
VERTEX
  5
27BF
  8
241
 10
63.296000000000006
 20
-59.233000000000011
 30
0.0
 70
    32
  0
VERTEX
  5
27C0
  8
241
 10
63.331699999999991
 20
-59.416800000000002
 30
0.0
 70
    32
  0
VERTEX
  5
27C1
  8
241
 10
63.377400000000002
 20
-59.5989
 30
0.0
 70
    32
  0
VERTEX
  5
27C2
  8
241
 10
63.433
 20
-59.778700000000001
 30
0.0
 70
    32
  0
VERTEX
  5
27C3
  8
241
 10
63.498399999999997
 20
-59.955899999999993
 30
0.0
 70
    32
  0
VERTEX
  5
27C4
  8
241
 10
63.573500000000003
 20
-60.130000000000003
 30
0.0
 70
    32
  0
VERTEX
  5
27C5
  8
241
 10
63.658000000000001
 20
-60.300600000000003
 30
0.0
 70
    32
  0
VERTEX
  5
27C6
  8
241
 10
63.751800000000003
 20
-60.467300000000002
 30
0.0
 70
    32
  0
VERTEX
  5
27C7
  8
241
 10
63.854700000000001
 20
-60.629600000000003
 30
0.0
 70
    32
  0
VERTEX
  5
27C8
  8
241
 10
63.966299999999997
 20
-60.787300000000002
 30
0.0
 70
    32
  0
VERTEX
  5
27C9
  8
241
 10
64.086399999999998
 20
-60.939799999999998
 30
0.0
 70
    32
  0
VERTEX
  5
27CA
  8
241
 10
64.214699999999993
 20
-61.0869
 30
0.0
 70
    32
  0
VERTEX
  5
27CB
  8
241
 10
64.350999999999999
 20
-61.228200000000001
 30
0.0
 70
    32
  0
VERTEX
  5
27CC
  8
241
 10
64.494799999999998
 20
-61.363399999999999
 30
0.0
 70
    32
  0
VERTEX
  5
27CD
  8
241
 10
64.645899999999997
 20
-61.491999999999997
 30
0.0
 70
    32
  0
VERTEX
  5
27CE
  8
241
 10
64.803799999999995
 20
-61.613900000000001
 30
0.0
 70
    32
  0
VERTEX
  5
27CF
  8
241
 10
64.968299999999999
 20
-61.728700000000003
 30
0.0
 70
    32
  0
VERTEX
  5
27D0
  8
241
 10
65.138800000000003
 20
-61.836199999999998
 30
0.0
 70
    32
  0
VERTEX
  5
27D1
  8
241
 10
65.315100000000001
 20
-61.935999999999993
 30
0.0
 70
    32
  0
VERTEX
  5
27D2
  8
241
 10
65.496600000000001
 20
-62.027999999999992
 30
0.0
 70
    32
  0
VERTEX
  5
27D3
  8
241
 10
65.682900000000004
 20
-62.111899999999999
 30
0.0
 70
    32
  0
VERTEX
  5
27D4
  8
241
 10
65.873599999999996
 20
-62.1875
 30
0.0
 70
    32
  0
VERTEX
  5
27D5
  8
241
 10
66.068200000000004
 20
-62.254600000000003
 30
0.0
 70
    32
  0
VERTEX
  5
27D6
  8
241
 10
66.266300000000001
 20
-62.313200000000002
 30
0.0
 70
    32
  0
VERTEX
  5
27D7
  8
241
 10
66.467299999999994
 20
-62.362900000000003
 30
0.0
 70
    32
  0
VERTEX
  5
27D8
  8
241
 10
66.670900000000003
 20
-62.403799999999997
 30
0.0
 70
    32
  0
VERTEX
  5
27D9
  8
241
 10
66.876400000000004
 20
-62.435699999999997
 30
0.0
 70
    32
  0
VERTEX
  5
27DA
  8
241
 10
67.083399999999983
 20
-62.458599999999997
 30
0.0
 70
    32
  0
VERTEX
  5
27DB
  8
241
 10
67.291499999999999
 20
-62.472299999999997
 30
0.0
 70
    32
  0
VERTEX
  5
27DC
  8
241
 10
67.5
 20
-62.476900000000001
 30
0.0
 70
    32
  0
VERTEX
  5
27DD
  8
241
 10
67.708500000000001
 20
-62.472299999999997
 30
0.0
 70
    32
  0
VERTEX
  5
27DE
  8
241
 10
67.916600000000003
 20
-62.458599999999997
 30
0.0
 70
    32
  0
VERTEX
  5
27DF
  8
241
 10
68.123599999999996
 20
-62.435699999999997
 30
0.0
 70
    32
  0
VERTEX
  5
27E0
  8
241
 10
68.329099999999997
 20
-62.403799999999997
 30
0.0
 70
    32
  0
VERTEX
  5
27E1
  8
241
 10
68.532700000000006
 20
-62.362900000000003
 30
0.0
 70
    32
  0
VERTEX
  5
27E2
  8
241
 10
68.733699999999999
 20
-62.313200000000002
 30
0.0
 70
    32
  0
VERTEX
  5
27E3
  8
241
 10
68.931799999999996
 20
-62.254600000000003
 30
0.0
 70
    32
  0
VERTEX
  5
27E4
  8
241
 10
69.126400000000004
 20
-62.1875
 30
0.0
 70
    32
  0
VERTEX
  5
27E5
  8
241
 10
69.317099999999996
 20
-62.111899999999999
 30
0.0
 70
    32
  0
VERTEX
  5
27E6
  8
241
 10
69.503399999999999
 20
-62.027999999999992
 30
0.0
 70
    32
  0
VERTEX
  5
27E7
  8
241
 10
69.684899999999999
 20
-61.935999999999993
 30
0.0
 70
    32
  0
VERTEX
  5
27E8
  8
241
 10
69.861199999999997
 20
-61.836199999999998
 30
0.0
 70
    32
  0
VERTEX
  5
27E9
  8
241
 10
70.031700000000001
 20
-61.728700000000003
 30
0.0
 70
    32
  0
VERTEX
  5
27EA
  8
241
 10
70.196200000000005
 20
-61.613900000000001
 30
0.0
 70
    32
  0
VERTEX
  5
27EB
  8
241
 10
70.354100000000003
 20
-61.491999999999997
 30
0.0
 70
    32
  0
VERTEX
  5
27EC
  8
241
 10
70.505200000000002
 20
-61.363399999999999
 30
0.0
 70
    32
  0
VERTEX
  5
27ED
  8
241
 10
70.649000000000001
 20
-61.228200000000001
 30
0.0
 70
    32
  0
VERTEX
  5
27EE
  8
241
 10
70.785300000000021
 20
-61.0869
 30
0.0
 70
    32
  0
VERTEX
  5
27EF
  8
241
 10
70.913600000000002
 20
-60.939799999999998
 30
0.0
 70
    32
  0
VERTEX
  5
27F0
  8
241
 10
71.033699999999982
 20
-60.787300000000002
 30
0.0
 70
    32
  0
VERTEX
  5
27F1
  8
241
 10
71.14530000000002
 20
-60.629600000000003
 30
0.0
 70
    32
  0
VERTEX
  5
27F2
  8
241
 10
71.248199999999983
 20
-60.467300000000002
 30
0.0
 70
    32
  0
VERTEX
  5
27F3
  8
241
 10
71.341999999999985
 20
-60.300600000000003
 30
0.0
 70
    32
  0
VERTEX
  5
27F4
  8
241
 10
71.426500000000004
 20
-60.130000000000003
 30
0.0
 70
    32
  0
VERTEX
  5
27F5
  8
241
 10
71.501599999999982
 20
-59.955899999999993
 30
0.0
 70
    32
  0
VERTEX
  5
27F6
  8
241
 10
71.566999999999979
 20
-59.778700000000001
 30
0.0
 70
    32
  0
VERTEX
  5
27F7
  8
241
 10
71.62260000000002
 20
-59.5989
 30
0.0
 70
    32
  0
VERTEX
  5
27F8
  8
241
 10
71.668300000000002
 20
-59.416800000000002
 30
0.0
 70
    32
  0
VERTEX
  5
27F9
  8
241
 10
71.703999999999979
 20
-59.233000000000011
 30
0.0
 70
    32
  0
VERTEX
  5
27FA
  8
241
 10
71.729500000000002
 20
-59.047800000000002
 30
0.0
 70
    32
  0
VERTEX
  5
27FB
  8
241
 10
71.744900000000001
 20
-58.861699999999992
 30
0.0
 70
    32
  0
VERTEX
  5
27FC
  8
241
 10
71.75
 20
-58.675199999999982
 30
0.0
 70
    32
  0
VERTEX
  5
27FD
  8
241
 10
71.744900000000001
 20
-58.488599999999998
 30
0.0
 70
    32
  0
VERTEX
  5
27FE
  8
241
 10
71.729500000000002
 20
-58.302500000000002
 30
0.0
 70
    32
  0
VERTEX
  5
27FF
  8
241
 10
71.703999999999979
 20
-58.1173
 30
0.0
 70
    32
  0
VERTEX
  5
2800
  8
241
 10
71.668300000000002
 20
-57.933500000000002
 30
0.0
 70
    32
  0
VERTEX
  5
2801
  8
241
 10
71.62260000000002
 20
-57.751399999999997
 30
0.0
 70
    32
  0
VERTEX
  5
2802
  8
241
 10
71.566999999999979
 20
-57.571599999999982
 30
0.0
 70
    32
  0
VERTEX
  5
2803
  8
241
 10
71.501599999999982
 20
-57.394399999999997
 30
0.0
 70
    32
  0
VERTEX
  5
2804
  8
241
 10
71.426500000000004
 20
-57.220300000000002
 30
0.0
 70
    32
  0
VERTEX
  5
2805
  8
241
 10
71.341999999999985
 20
-57.049700000000001
 30
0.0
 70
    32
  0
VERTEX
  5
2806
  8
241
 10
71.248199999999983
 20
-56.883099999999999
 30
0.0
 70
    32
  0
VERTEX
  5
2807
  8
241
 10
71.14530000000002
 20
-56.720700000000001
 30
0.0
 70
    32
  0
VERTEX
  5
2808
  8
241
 10
71.033699999999982
 20
-56.563099999999999
 30
0.0
 70
    32
  0
VERTEX
  5
2809
  8
241
 10
70.913600000000002
 20
-56.410499999999992
 30
0.0
 70
    32
  0
VERTEX
  5
280A
  8
241
 10
70.785300000000021
 20
-56.26339999999999
 30
0.0
 70
    32
  0
VERTEX
  5
280B
  8
241
 10
70.649000000000001
 20
-56.12210000000001
 30
0.0
 70
    32
  0
VERTEX
  5
280C
  8
241
 10
70.505200000000002
 20
-55.987000000000002
 30
0.0
 70
    32
  0
VERTEX
  5
280D
  8
241
 10
70.354100000000003
 20
-55.8583
 30
0.0
 70
    32
  0
VERTEX
  5
280E
  8
241
 10
70.196200000000005
 20
-55.73640000000001
 30
0.0
 70
    32
  0
VERTEX
  5
280F
  8
241
 10
70.031700000000001
 20
-55.621600000000001
 30
0.0
 70
    32
  0
VERTEX
  5
2810
  8
241
 10
69.861199999999997
 20
-55.514200000000002
 30
0.0
 70
    32
  0
VERTEX
  5
2811
  8
241
 10
69.684899999999999
 20
-55.414400000000001
 30
0.0
 70
    32
  0
VERTEX
  5
2812
  8
241
 10
69.503399999999999
 20
-55.322400000000002
 30
0.0
 70
    32
  0
VERTEX
  5
2813
  8
241
 10
69.317099999999996
 20
-55.238500000000002
 30
0.0
 70
    32
  0
VERTEX
  5
2814
  8
241
 10
69.126400000000004
 20
-55.1629
 30
0.0
 70
    32
  0
VERTEX
  5
2815
  8
241
 10
68.931799999999996
 20
-55.095700000000001
 30
0.0
 70
    32
  0
VERTEX
  5
2816
  8
241
 10
68.733699999999999
 20
-55.037199999999999
 30
0.0
 70
    32
  0
VERTEX
  5
2817
  8
241
 10
68.532700000000006
 20
-54.987400000000001
 30
0.0
 70
    32
  0
VERTEX
  5
2818
  8
241
 10
68.329099999999997
 20
-54.9465
 30
0.0
 70
    32
  0
VERTEX
  5
2819
  8
241
 10
68.123599999999996
 20
-54.9146
 30
0.0
 70
    32
  0
VERTEX
  5
281A
  8
241
 10
67.916600000000003
 20
-54.891800000000011
 30
0.0
 70
    32
  0
VERTEX
  5
281B
  8
241
 10
67.708500000000001
 20
-54.878100000000003
 30
0.0
 70
    32
  0
VERTEX
  5
281C
  8
241
 10
67.5
 20
-54.8735
 30
0.0
 70
    32
  0
VERTEX
  5
281D
  8
241
 10
67.291499999999999
 20
-54.878100000000003
 30
0.0
 70
    32
  0
VERTEX
  5
281E
  8
241
 10
67.083399999999983
 20
-54.891800000000011
 30
0.0
 70
    32
  0
VERTEX
  5
281F
  8
241
 10
66.876400000000004
 20
-54.9146
 30
0.0
 70
    32
  0
VERTEX
  5
2820
  8
241
 10
66.670900000000003
 20
-54.9465
 30
0.0
 70
    32
  0
VERTEX
  5
2821
  8
241
 10
66.467299999999994
 20
-54.987400000000001
 30
0.0
 70
    32
  0
VERTEX
  5
2822
  8
241
 10
66.266300000000001
 20
-55.037199999999999
 30
0.0
 70
    32
  0
VERTEX
  5
2823
  8
241
 10
66.068200000000004
 20
-55.095700000000001
 30
0.0
 70
    32
  0
VERTEX
  5
2824
  8
241
 10
65.873599999999996
 20
-55.1629
 30
0.0
 70
    32
  0
VERTEX
  5
2825
  8
241
 10
65.682900000000004
 20
-55.238500000000002
 30
0.0
 70
    32
  0
VERTEX
  5
2826
  8
241
 10
65.496600000000001
 20
-55.322400000000002
 30
0.0
 70
    32
  0
VERTEX
  5
2827
  8
241
 10
65.315100000000001
 20
-55.414400000000001
 30
0.0
 70
    32
  0
VERTEX
  5
2828
  8
241
 10
65.138800000000003
 20
-55.514200000000002
 30
0.0
 70
    32
  0
VERTEX
  5
2829
  8
241
 10
64.968299999999999
 20
-55.621600000000001
 30
0.0
 70
    32
  0
VERTEX
  5
282A
  8
241
 10
64.803799999999995
 20
-55.73640000000001
 30
0.0
 70
    32
  0
VERTEX
  5
282B
  8
241
 10
64.645899999999997
 20
-55.8583
 30
0.0
 70
    32
  0
VERTEX
  5
282C
  8
241
 10
64.494799999999998
 20
-55.987000000000002
 30
0.0
 70
    32
  0
VERTEX
  5
282D
  8
241
 10
64.350999999999999
 20
-56.12210000000001
 30
0.0
 70
    32
  0
VERTEX
  5
282E
  8
241
 10
64.214699999999993
 20
-56.26339999999999
 30
0.0
 70
    32
  0
VERTEX
  5
282F
  8
241
 10
64.086399999999998
 20
-56.410499999999992
 30
0.0
 70
    32
  0
VERTEX
  5
2830
  8
241
 10
63.966299999999997
 20
-56.563099999999999
 30
0.0
 70
    32
  0
VERTEX
  5
2831
  8
241
 10
63.854700000000001
 20
-56.720700000000001
 30
0.0
 70
    32
  0
VERTEX
  5
2832
  8
241
 10
63.751800000000003
 20
-56.883099999999999
 30
0.0
 70
    32
  0
VERTEX
  5
2833
  8
241
 10
63.658000000000001
 20
-57.049700000000001
 30
0.0
 70
    32
  0
VERTEX
  5
2834
  8
241
 10
63.573500000000003
 20
-57.220300000000002
 30
0.0
 70
    32
  0
VERTEX
  5
2835
  8
241
 10
63.498399999999997
 20
-57.394399999999997
 30
0.0
 70
    32
  0
VERTEX
  5
2836
  8
241
 10
63.433
 20
-57.571599999999982
 30
0.0
 70
    32
  0
VERTEX
  5
2837
  8
241
 10
63.377400000000002
 20
-57.751399999999997
 30
0.0
 70
    32
  0
VERTEX
  5
2838
  8
241
 10
63.331699999999991
 20
-57.933500000000002
 30
0.0
 70
    32
  0
VERTEX
  5
2839
  8
241
 10
63.296000000000006
 20
-58.1173
 30
0.0
 70
    32
  0
VERTEX
  5
283A
  8
241
 10
63.270499999999991
 20
-58.302500000000002
 30
0.0
 70
    32
  0
VERTEX
  5
283B
  8
241
 10
63.255099999999999
 20
-58.488599999999998
 30
0.0
 70
    32
  0
VERTEX
  5
283C
  8
241
 10
63.25
 20
-58.675199999999982
 30
0.0
 70
    32
  0
SEQEND
  5
283D
  8
241
  0
POLYLINE
  5
283E
  8
241
 66
     1
 10
0.0
 20
0.0
 30
0.0
 70
     8
  0
VERTEX
  5
283F
  8
241
 10
84.749999999999986
 20
-58.675199999999982
 30
0.0
 70
    32
  0
VERTEX
  5
2840
  8
241
 10
84.755099999999985
 20
-58.861699999999992
 30
0.0
 70
    32
  0
VERTEX
  5
2841
  8
241
 10
84.770499999999998
 20
-59.047800000000002
 30
0.0
 70
    32
  0
VERTEX
  5
2842
  8
241
 10
84.796000000000035
 20
-59.233000000000011
 30
0.0
 70
    32
  0
VERTEX
  5
2843
  8
241
 10
84.831699999999984
 20
-59.416800000000002
 30
0.0
 70
    32
  0
VERTEX
  5
2844
  8
241
 10
84.87739999999998
 20
-59.5989
 30
0.0
 70
    32
  0
VERTEX
  5
2845
  8
241
 10
84.933000000000035
 20
-59.778700000000001
 30
0.0
 70
    32
  0
VERTEX
  5
2846
  8
241
 10
84.998400000000004
 20
-59.955899999999993
 30
0.0
 70
    32
  0
VERTEX
  5
2847
  8
241
 10
85.073499999999981
 20
-60.130000000000003
 30
0.0
 70
    32
  0
VERTEX
  5
2848
  8
241
 10
85.157999999999987
 20
-60.300600000000003
 30
0.0
 70
    32
  0
VERTEX
  5
2849
  8
241
 10
85.251800000000003
 20
-60.467300000000002
 30
0.0
 70
    32
  0
VERTEX
  5
284A
  8
241
 10
85.35469999999998
 20
-60.629600000000003
 30
0.0
 70
    32
  0
VERTEX
  5
284B
  8
241
 10
85.466300000000004
 20
-60.787300000000002
 30
0.0
 70
    32
  0
VERTEX
  5
284C
  8
241
 10
85.586399999999998
 20
-60.939799999999998
 30
0.0
 70
    32
  0
VERTEX
  5
284D
  8
241
 10
85.714699999999965
 20
-61.0869
 30
0.0
 70
    32
  0
VERTEX
  5
284E
  8
241
 10
85.850999999999999
 20
-61.228200000000001
 30
0.0
 70
    32
  0
VERTEX
  5
284F
  8
241
 10
85.994799999999984
 20
-61.363399999999999
 30
0.0
 70
    32
  0
VERTEX
  5
2850
  8
241
 10
86.145899999999955
 20
-61.491999999999997
 30
0.0
 70
    32
  0
VERTEX
  5
2851
  8
241
 10
86.303799999999981
 20
-61.613900000000001
 30
0.0
 70
    32
  0
VERTEX
  5
2852
  8
241
 10
86.468299999999985
 20
-61.728700000000003
 30
0.0
 70
    32
  0
VERTEX
  5
2853
  8
241
 10
86.638800000000003
 20
-61.836199999999998
 30
0.0
 70
    32
  0
VERTEX
  5
2854
  8
241
 10
86.815100000000015
 20
-61.935999999999993
 30
0.0
 70
    32
  0
VERTEX
  5
2855
  8
241
 10
86.996599999999987
 20
-62.027999999999992
 30
0.0
 70
    32
  0
VERTEX
  5
2856
  8
241
 10
87.182900000000004
 20
-62.111899999999999
 30
0.0
 70
    32
  0
VERTEX
  5
2857
  8
241
 10
87.373599999999982
 20
-62.1875
 30
0.0
 70
    32
  0
VERTEX
  5
2858
  8
241
 10
87.568200000000019
 20
-62.254600000000003
 30
0.0
 70
    32
  0
VERTEX
  5
2859
  8
241
 10
87.766300000000001
 20
-62.313200000000002
 30
0.0
 70
    32
  0
VERTEX
  5
285A
  8
241
 10
87.96729999999998
 20
-62.362900000000003
 30
0.0
 70
    32
  0
VERTEX
  5
285B
  8
241
 10
88.170900000000003
 20
-62.403799999999997
 30
0.0
 70
    32
  0
VERTEX
  5
285C
  8
241
 10
88.376400000000004
 20
-62.435699999999997
 30
0.0
 70
    32
  0
VERTEX
  5
285D
  8
241
 10
88.583399999999983
 20
-62.458599999999997
 30
0.0
 70
    32
  0
VERTEX
  5
285E
  8
241
 10
88.791499999999999
 20
-62.472299999999997
 30
0.0
 70
    32
  0
VERTEX
  5
285F
  8
241
 10
89.0
 20
-62.476900000000001
 30
0.0
 70
    32
  0
VERTEX
  5
2860
  8
241
 10
89.208499999999987
 20
-62.472299999999997
 30
0.0
 70
    32
  0
VERTEX
  5
2861
  8
241
 10
89.416600000000003
 20
-62.458599999999997
 30
0.0
 70
    32
  0
VERTEX
  5
2862
  8
241
 10
89.623599999999982
 20
-62.435699999999997
 30
0.0
 70
    32
  0
VERTEX
  5
2863
  8
241
 10
89.829099999999983
 20
-62.403799999999997
 30
0.0
 70
    32
  0
VERTEX
  5
2864
  8
241
 10
90.032700000000006
 20
-62.362900000000003
 30
0.0
 70
    32
  0
VERTEX
  5
2865
  8
241
 10
90.233699999999985
 20
-62.313200000000002
 30
0.0
 70
    32
  0
VERTEX
  5
2866
  8
241
 10
90.431799999999996
 20
-62.254600000000003
 30
0.0
 70
    32
  0
VERTEX
  5
2867
  8
241
 10
90.626400000000004
 20
-62.1875
 30
0.0
 70
    32
  0
VERTEX
  5
2868
  8
241
 10
90.817099999999996
 20
-62.111899999999999
 30
0.0
 70
    32
  0
VERTEX
  5
2869
  8
241
 10
91.003399999999999
 20
-62.027999999999992
 30
0.0
 70
    32
  0
VERTEX
  5
286A
  8
241
 10
91.184899999999985
 20
-61.935999999999993
 30
0.0
 70
    32
  0
VERTEX
  5
286B
  8
241
 10
91.361199999999997
 20
-61.836199999999998
 30
0.0
 70
    32
  0
VERTEX
  5
286C
  8
241
 10
91.531700000000015
 20
-61.728700000000003
 30
0.0
 70
    32
  0
VERTEX
  5
286D
  8
241
 10
91.696200000000005
 20
-61.613900000000001
 30
0.0
 70
    32
  0
VERTEX
  5
286E
  8
241
 10
91.854100000000003
 20
-61.491999999999997
 30
0.0
 70
    32
  0
VERTEX
  5
286F
  8
241
 10
92.005200000000002
 20
-61.363399999999999
 30
0.0
 70
    32
  0
VERTEX
  5
2870
  8
241
 10
92.149000000000001
 20
-61.228200000000001
 30
0.0
 70
    32
  0
VERTEX
  5
2871
  8
241
 10
92.285300000000007
 20
-61.0869
 30
0.0
 70
    32
  0
VERTEX
  5
2872
  8
241
 10
92.413600000000002
 20
-60.939799999999998
 30
0.0
 70
    32
  0
VERTEX
  5
2873
  8
241
 10
92.533699999999996
 20
-60.787300000000002
 30
0.0
 70
    32
  0
VERTEX
  5
2874
  8
241
 10
92.645300000000006
 20
-60.629600000000003
 30
0.0
 70
    32
  0
VERTEX
  5
2875
  8
241
 10
92.748199999999997
 20
-60.467300000000002
 30
0.0
 70
    32
  0
VERTEX
  5
2876
  8
241
 10
92.842000000000013
 20
-60.300600000000003
 30
0.0
 70
    32
  0
VERTEX
  5
2877
  8
241
 10
92.926500000000004
 20
-60.130000000000003
 30
0.0
 70
    32
  0
VERTEX
  5
2878
  8
241
 10
93.001599999999996
 20
-59.955899999999993
 30
0.0
 70
    32
  0
VERTEX
  5
2879
  8
241
 10
93.066999999999993
 20
-59.778700000000001
 30
0.0
 70
    32
  0
VERTEX
  5
287A
  8
241
 10
93.122600000000006
 20
-59.5989
 30
0.0
 70
    32
  0
VERTEX
  5
287B
  8
241
 10
93.168300000000016
 20
-59.416800000000002
 30
0.0
 70
    32
  0
VERTEX
  5
287C
  8
241
 10
93.203999999999994
 20
-59.233000000000011
 30
0.0
 70
    32
  0
VERTEX
  5
287D
  8
241
 10
93.229500000000002
 20
-59.047800000000002
 30
0.0
 70
    32
  0
VERTEX
  5
287E
  8
241
 10
93.244900000000001
 20
-58.861699999999992
 30
0.0
 70
    32
  0
VERTEX
  5
287F
  8
241
 10
93.250000000000014
 20
-58.675199999999982
 30
0.0
 70
    32
  0
VERTEX
  5
2880
  8
241
 10
93.244900000000001
 20
-58.488599999999998
 30
0.0
 70
    32
  0
VERTEX
  5
2881
  8
241
 10
93.229500000000002
 20
-58.302500000000002
 30
0.0
 70
    32
  0
VERTEX
  5
2882
  8
241
 10
93.203999999999994
 20
-58.1173
 30
0.0
 70
    32
  0
VERTEX
  5
2883
  8
241
 10
93.168300000000016
 20
-57.933500000000002
 30
0.0
 70
    32
  0
VERTEX
  5
2884
  8
241
 10
93.122600000000006
 20
-57.751399999999997
 30
0.0
 70
    32
  0
VERTEX
  5
2885
  8
241
 10
93.066999999999993
 20
-57.571599999999982
 30
0.0
 70
    32
  0
VERTEX
  5
2886
  8
241
 10
93.001599999999996
 20
-57.394399999999997
 30
0.0
 70
    32
  0
VERTEX
  5
2887
  8
241
 10
92.926500000000004
 20
-57.220300000000002
 30
0.0
 70
    32
  0
VERTEX
  5
2888
  8
241
 10
92.842000000000013
 20
-57.049700000000001
 30
0.0
 70
    32
  0
VERTEX
  5
2889
  8
241
 10
92.748199999999997
 20
-56.883099999999999
 30
0.0
 70
    32
  0
VERTEX
  5
288A
  8
241
 10
92.645300000000006
 20
-56.720700000000001
 30
0.0
 70
    32
  0
VERTEX
  5
288B
  8
241
 10
92.533699999999996
 20
-56.563099999999999
 30
0.0
 70
    32
  0
VERTEX
  5
288C
  8
241
 10
92.413600000000002
 20
-56.410499999999992
 30
0.0
 70
    32
  0
VERTEX
  5
288D
  8
241
 10
92.285300000000007
 20
-56.26339999999999
 30
0.0
 70
    32
  0
VERTEX
  5
288E
  8
241
 10
92.149000000000001
 20
-56.12210000000001
 30
0.0
 70
    32
  0
VERTEX
  5
288F
  8
241
 10
92.005200000000002
 20
-55.987000000000002
 30
0.0
 70
    32
  0
VERTEX
  5
2890
  8
241
 10
91.854100000000003
 20
-55.8583
 30
0.0
 70
    32
  0
VERTEX
  5
2891
  8
241
 10
91.696200000000005
 20
-55.73640000000001
 30
0.0
 70
    32
  0
VERTEX
  5
2892
  8
241
 10
91.531700000000015
 20
-55.621600000000001
 30
0.0
 70
    32
  0
VERTEX
  5
2893
  8
241
 10
91.361199999999997
 20
-55.514200000000002
 30
0.0
 70
    32
  0
VERTEX
  5
2894
  8
241
 10
91.184899999999985
 20
-55.414400000000001
 30
0.0
 70
    32
  0
VERTEX
  5
2895
  8
241
 10
91.003399999999999
 20
-55.322400000000002
 30
0.0
 70
    32
  0
VERTEX
  5
2896
  8
241
 10
90.817099999999996
 20
-55.238500000000002
 30
0.0
 70
    32
  0
VERTEX
  5
2897
  8
241
 10
90.626400000000004
 20
-55.1629
 30
0.0
 70
    32
  0
VERTEX
  5
2898
  8
241
 10
90.431799999999996
 20
-55.095700000000001
 30
0.0
 70
    32
  0
VERTEX
  5
2899
  8
241
 10
90.233699999999985
 20
-55.037199999999999
 30
0.0
 70
    32
  0
VERTEX
  5
289A
  8
241
 10
90.032700000000006
 20
-54.987400000000001
 30
0.0
 70
    32
  0
VERTEX
  5
289B
  8
241
 10
89.829099999999983
 20
-54.9465
 30
0.0
 70
    32
  0
VERTEX
  5
289C
  8
241
 10
89.623599999999982
 20
-54.9146
 30
0.0
 70
    32
  0
VERTEX
  5
289D
  8
241
 10
89.416600000000003
 20
-54.891800000000011
 30
0.0
 70
    32
  0
VERTEX
  5
289E
  8
241
 10
89.208499999999987
 20
-54.878100000000003
 30
0.0
 70
    32
  0
VERTEX
  5
289F
  8
241
 10
89.0
 20
-54.8735
 30
0.0
 70
    32
  0
VERTEX
  5
28A0
  8
241
 10
88.791499999999999
 20
-54.878100000000003
 30
0.0
 70
    32
  0
VERTEX
  5
28A1
  8
241
 10
88.583399999999983
 20
-54.891800000000011
 30
0.0
 70
    32
  0
VERTEX
  5
28A2
  8
241
 10
88.376400000000004
 20
-54.9146
 30
0.0
 70
    32
  0
VERTEX
  5
28A3
  8
241
 10
88.170900000000003
 20
-54.9465
 30
0.0
 70
    32
  0
VERTEX
  5
28A4
  8
241
 10
87.96729999999998
 20
-54.987400000000001
 30
0.0
 70
    32
  0
VERTEX
  5
28A5
  8
241
 10
87.766300000000001
 20
-55.037199999999999
 30
0.0
 70
    32
  0
VERTEX
  5
28A6
  8
241
 10
87.568200000000019
 20
-55.095700000000001
 30
0.0
 70
    32
  0
VERTEX
  5
28A7
  8
241
 10
87.373599999999982
 20
-55.1629
 30
0.0
 70
    32
  0
VERTEX
  5
28A8
  8
241
 10
87.182900000000004
 20
-55.238500000000002
 30
0.0
 70
    32
  0
VERTEX
  5
28A9
  8
241
 10
86.996599999999987
 20
-55.322400000000002
 30
0.0
 70
    32
  0
VERTEX
  5
28AA
  8
241
 10
86.815100000000015
 20
-55.414400000000001
 30
0.0
 70
    32
  0
VERTEX
  5
28AB
  8
241
 10
86.638800000000003
 20
-55.514200000000002
 30
0.0
 70
    32
  0
VERTEX
  5
28AC
  8
241
 10
86.468299999999985
 20
-55.621600000000001
 30
0.0
 70
    32
  0
VERTEX
  5
28AD
  8
241
 10
86.303799999999981
 20
-55.73640000000001
 30
0.0
 70
    32
  0
VERTEX
  5
28AE
  8
241
 10
86.145899999999955
 20
-55.8583
 30
0.0
 70
    32
  0
VERTEX
  5
28AF
  8
241
 10
85.994799999999984
 20
-55.987000000000002
 30
0.0
 70
    32
  0
VERTEX
  5
28B0
  8
241
 10
85.850999999999999
 20
-56.12210000000001
 30
0.0
 70
    32
  0
VERTEX
  5
28B1
  8
241
 10
85.714699999999965
 20
-56.26339999999999
 30
0.0
 70
    32
  0
VERTEX
  5
28B2
  8
241
 10
85.586399999999998
 20
-56.410499999999992
 30
0.0
 70
    32
  0
VERTEX
  5
28B3
  8
241
 10
85.466300000000004
 20
-56.563099999999999
 30
0.0
 70
    32
  0
VERTEX
  5
28B4
  8
241
 10
85.35469999999998
 20
-56.720700000000001
 30
0.0
 70
    32
  0
VERTEX
  5
28B5
  8
241
 10
85.251800000000003
 20
-56.883099999999999
 30
0.0
 70
    32
  0
VERTEX
  5
28B6
  8
241
 10
85.157999999999987
 20
-57.049700000000001
 30
0.0
 70
    32
  0
VERTEX
  5
28B7
  8
241
 10
85.073499999999981
 20
-57.220300000000002
 30
0.0
 70
    32
  0
VERTEX
  5
28B8
  8
241
 10
84.998400000000004
 20
-57.394399999999997
 30
0.0
 70
    32
  0
VERTEX
  5
28B9
  8
241
 10
84.933000000000035
 20
-57.571599999999982
 30
0.0
 70
    32
  0
VERTEX
  5
28BA
  8
241
 10
84.87739999999998
 20
-57.751399999999997
 30
0.0
 70
    32
  0
VERTEX
  5
28BB
  8
241
 10
84.831699999999984
 20
-57.933500000000002
 30
0.0
 70
    32
  0
VERTEX
  5
28BC
  8
241
 10
84.796000000000035
 20
-58.1173
 30
0.0
 70
    32
  0
VERTEX
  5
28BD
  8
241
 10
84.770499999999998
 20
-58.302500000000002
 30
0.0
 70
    32
  0
VERTEX
  5
28BE
  8
241
 10
84.755099999999985
 20
-58.488599999999998
 30
0.0
 70
    32
  0
VERTEX
  5
28BF
  8
241
 10
84.749999999999986
 20
-58.675199999999982
 30
0.0
 70
    32
  0
SEQEND
  5
28C0
  8
241
  0
LINE
  5
28C1
  8
241
 10
62.000000000003432
 20
-42.000000000000092
 30
0.0
 11
100.49999958183351
 21
-42.000000000000092
 31
0.0
  0
LINE
  5
28C2
  8
241
 10
61.000000000003418
 20
-43.000000000000092
 30
0.0
 11
62.000000000003432
 21
-42.000000000000092
 31
0.0
1001
GENIUS_GENFIL_13
1070
     0
1040
0.2123122257920613
1040
1.272969767762242
1040
0.2123122257920613
1040
45.0
1000
~T
  0
LINE
  5
28C3
  8
241
 10
100.49999958183351
 20
-42.000000000000092
 30
0.0
 11
101.49999958183351
 21
-43.000000000000092
 31
0.0
  0
LINE
  5
28C4
  8
240
 10
51.999999581833542
 20
-61.999999999999801
 30
0.0
 11
51.999999581833507
 21
-44.000000000000107
 31
0.0
1001
GRPNAME
1000
0000002V
  0
LINE
  5
28C5
  8
240
 10
57.999999581833507
 20
-62.000000000000092
 30
0.0
 11
57.999999581833507
 21
-57.500000000000099
 31
0.0
1001
GRPNAME
1000
0000002V
  0
LINE
  5
28C6
  8
241
 10
62.919820973837567
 20
-53.504998507832852
 30
0.0
 11
99.076810949391415
 21
-53.504998507832852
 31
0.0
  0
LINE
  5
28C7
  8
241
 10
62.704279947866901
 20
-63.944564166728867
 30
0.0
 11
98.861269923420764
 21
-63.944564166728867
 31
0.0
  0
LINE
  5
28C8
  8
241
 10
103.49999958183361
 20
-63.089820278875493
 30
0.0
 11
103.49999958183361
 21
-96.910179721124393
 31
0.0
  0
LINE
  5
28C9
  8
240
 10
61.000000000003418
 20
-63.999999999999879
 30
0.0
 11
61.000000000003418
 21
-49.827647460916921
 31
0.0
1001
GRPNAME
1000
0000006C
  0
LINE
  5
28CA
  8
241
 10
61.000000000003418
 20
-63.999999999999879
 30
0.0
 11
61.000000000003418
 21
-63.999999999999879
 31
0.0
  0
LINE
  5
28CB
  8
241
 10
48.000000000003233
 20
-93.577350510621869
 30
0.0
 11
48.000000000003197
 21
-66.249444408621457
 31
0.0
  0
LINE
  5
28CC
  8
241
 10
50.000000000000469
 20
-41.211268197640322
 30
0.0
 11
50.000000000000391
 21
48.499999999999893
 31
0.0
1001
GRPNAME
1000
0000001N
  0
LINE
  5
28CD
  8
241
 10
50.000000000000469
 20
-41.211268197640322
 30
0.0
 11
50.000000000000469
 21
-41.303265717640322
 31
0.0
  0
LINE
  5
28CE
  8
241
 10
50.000000000000469
 20
41.170702582359681
 30
0.0
 11
50.000000000000469
 21
41.26423106235967
 31
0.0
  0
LINE
  5
28CF
  8
241
 10
61.000000000003311
 20
-98.999999999999957
 30
0.0
 11
61.000000000003617
 21
-64.000000000000099
 31
0.0
1001
GRPNAME
1000
0000003G
  0
LINE
  5
28D0
  8
241
 10
61.000000000003311
 20
-98.999999999999957
 30
0.0
 11
61.000000000003311
 21
-98.999999999999957
 31
0.0
  0
LINE
  5
28D1
  8
241
 10
61.000000000003418
 20
-63.999999999999879
 30
0.0
 11
61.000000000003418
 21
-63.999999999999879
 31
0.0
  0
LINE
  5
28D2
  8
240
 10
57.999999581833528
 20
-62.000000000000057
 30
0.0
 11
59.000000000003652
 21
-62.000000000000099
 31
0.0
1001
GRPNAME
1000
0000003G
  0
LINE
  5
28D3
  8
241
 10
51.999999581833563
 20
-61.999999999999801
 30
0.0
 11
57.999999581833507
 21
-62.000000000000092
 31
0.0
  0
LINE
  5
28D4
  8
241
 10
61.000000000003418
 20
-49.827647460916921
 30
0.0
 11
61.000000000003418
 21
-43.000000000000092
 31
0.0
1001
GRPNAME
1000
0000006C
  0
LINE
  5
28D5
  8
240
 10
48.000000000003162
 20
-66.249444408621457
 30
0.0
 11
48.000000000003418
 21
-63.000000000000171
 31
0.0
1001
GRPNAME
1000
0000003G
  0
LINE
  5
28D6
  8
241
 10
48.000000000003162
 20
-66.249444408621457
 30
0.0
 11
48.000000000003162
 21
-66.249444408621457
 31
0.0
  0
LINE
  5
28D7
  8
240
 10
46.999999581830437
 20
-89.0
 30
0.0
 11
46.999999581830437
 21
-93.000000000000128
 31
0.0
1001
GRPNAME
1000
0000002V
  0
LINE
  5
28D8
  8
241
 10
48.000000000003197
 20
-93.75055559137877
 30
0.0
 11
48.000000000003197
 21
-93.75055559137877
 31
0.0
  0
LINE
  5
28D9
  8
241
 10
48.000000000003197
 20
-93.75055559137877
 30
0.0
 11
48.000000000003197
 21
-93.75055559137877
 31
0.0
  0
LINE
  5
28DA
  8
241
 10
101.49999958183351
 20
-49.681250038629692
 30
0.0
 11
101.49999958183351
 21
-43.000000000000092
 31
0.0
1001
GRPNAME
1000
0000006C
  0
LINE
  5
28DB
  8
243
 10
45.900000000000233
 20
-42.499999999999829
 30
0.0
 11
50.000000000000469
 21
-42.499999999999829
 31
0.0
  0
LINE
  5
28DC
  8
244
 10
50.499999581833507
 20
-43.500000000000107
 30
0.0
 11
46.499999581830437
 21
-43.500000000000107
 31
0.0
  0
LINE
  5
28DD
  8
244
 10
46.499999581833492
 20
-50.500000000000107
 30
0.0
 11
50.499999581833507
 21
-50.500000000000107
 31
0.0
  0
LINE
  5
28DE
  8
244
 10
45.999999581833492
 20
-65.335378568353008
 30
0.0
 11
45.999999581833492
 21
-44.000000000000107
 31
0.0
  0
LINE
  5
28DF
  8
244
 10
46.499999581833492
 20
-50.500000000000107
 30
0.0
 11
45.999999581833492
 21
-51.000000000000121
 31
0.0
  0
LINE
  5
28E0
  8
243
 10
48.200000000000372
 20
-48.999999999999879
 30
0.0
 11
48.200000000000337
 21
-42.499999999999829
 31
0.0
1001
GRPNAME
1000
000000BD
  0
LINE
  5
28E1
  8
243
 10
45.900000000000233
 20
-48.999999999999879
 30
0.0
 11
45.900000000000233
 21
-42.499999999999829
 31
0.0
1001
GRPNAME
1000
000000BD
  0
LINE
  5
28E2
  8
244
 10
46.499999581830437
 20
-43.500000000000107
 30
0.0
 11
45.999999581830423
 21
-44.000000000000107
 31
0.0
  0
LINE
  5
28E3
  8
244
 10
50.999999581833492
 20
-57.500000000000099
 30
0.0
 11
50.999999581833492
 21
-44.000000000000107
 31
0.0
  0
LINE
  5
28E4
  8
244
 10
50.999999581833492
 20
-57.500000000000099
 30
0.0
 11
51.999999581833507
 21
-57.500000000000099
 31
0.0
  0
LINE
  5
28E5
  8
244
 10
50.499999581833507
 20
-50.500000000000107
 30
0.0
 11
50.999999581833492
 21
-51.000000000000121
 31
0.0
  0
LINE
  5
28E6
  8
244
 10
50.499999581833507
 20
-43.500000000000107
 30
0.0
 11
50.999999581833492
 21
-44.000000000000107
 31
0.0
  0
LINE
  5
28E7
  8
245
 10
-112.0
 20
0.0
 30
0.0
 11
168.79301250851009
 21
0.0
 31
0.0
1001
GRPNAME
1000
0000006R
  0
LINE
  5
28E8
  8
240
 10
61.812222111623079
 20
50.0
 30
0.0
 11
100.7679487742614
 21
50.0
 31
0.0
  0
LINE
  5
28E9
  8
241
 10
60.277568135665263
 20
49.282512056113603
 30
0.0
 11
60.277568135665192
 21
-49.282512056113539
 31
0.0
  0
LINE
  5
28EA
  8
240
 10
58.39719767705656
 20
42.982361911422061
 30
0.0
 11
59.880370459044947
 21
48.517638090205061
 31
0.0
  0
LINE
  5
28EB
  8
241
 10
58.000000000436259
 20
42.217487945513369
 30
0.0
 11
58.000000000436259
 21
-42.21748794551339
 31
0.0
  0
LINE
  5
28EC
  8
240
 10
51.000000000000149
 20
41.500000001627079
 30
0.0
 11
56.465346024478471
 21
41.500000001627079
 31
0.0
1001
GRPNAME
1000
0000006R
  0
ARC
  5
28ED
  8
240
 10
51.000000000000149
 20
41.000000001627072
 30
0.0
 40
0.5
 50
89.999999894581066
 51
179.99999989716051
1001
GRPNAME
1000
0000006R
  0
ARC
  5
28EE
  8
240
 10
56.465346024478471
 20
43.500000001627079
 30
0.0
 40
2.0
 50
270.0
 51
344.99999999999892
  0
ARC
  5
28EF
  8
240
 10
61.812222111623079
 20
48.0
 30
0.0
 40
2.0
 50
90.0
 51
164.99999999999881
  0
LINE
  5
28F0
  8
240
 10
115.4855981414824
 20
-47.000000000000171
 30
0.0
 11
118.37234948743119
 21
-41.999999999999929
 31
0.0
  0
LINE
  5
28F1
  8
241
 10
114.9082478722928
 20
47.632993161855552
 30
0.0
 11
114.9082478722928
 21
-47.632993161855552
 31
0.0
  0
LINE
  5
28F2
  8
240
 10
102.9999995818291
 20
-48.000000000000057
 30
0.0
 11
113.7535473339136
 21
-48.000000000000057
 31
0.0
  0
LINE
  5
28F3
  8
240
 10
102.4999995818291
 20
-47.500000000000057
 30
0.0
 11
102.9999995818291
 21
-48.000000000000057
 31
0.0
1001
GENIUS_GENFIL_13
1070
     1
1040
0.4999999999999434
1040
0.500000000000057
1040
0.5
1040
45.0
1000
~T
1001
GENIUS_GENOREF_13
1005
295E
  0
ARC
  5
28F4
  8
240
 10
113.7535473339136
 20
-46.000000000000043
 30
0.0
 40
2.0
 50
270.0
 51
329.99999999999619
  0
LINE
  5
28F5
  8
240
 10
115.4855981414824
 20
47.000000000000171
 30
0.0
 11
118.37234948743119
 21
41.999999999999829
 31
0.0
  0
LINE
  5
28F6
  8
241
 10
102.4999995818291
 20
-47.500000000000057
 30
0.0
 11
102.4999995818291
 21
47.500000000000057
 31
0.0
  0
LINE
  5
28F7
  8
241
 10
101.34529904345101
 20
49.816496580927769
 30
0.0
 11
101.34529904345079
 21
-42.845299461617472
 31
0.0
  0
LINE
  5
28F8
  8
240
 10
154.7000038968994
 20
-6.0
 30
0.0
 11
164.50000389689939
 21
-6.0
 31
0.0
  0
LINE
  5
28F9
  8
240
 10
154.7000038968994
 20
6.0
 30
0.0
 11
164.50000389689939
 21
6.0
 31
0.0
  0
LINE
  5
28FA
  8
241
 10
138.00000373086311
 20
-26.5
 30
0.0
 11
138.00000373086311
 21
26.5
 31
0.0
  0
LINE
  5
28FB
  8
241
 10
130.49445023140001
 20
40.449489742783328
 30
0.0
 11
130.49445023140001
 21
-40.449489742783328
 31
0.0
  0
LINE
  5
28FC
  8
241
 10
118.9496997566208
 20
41.367006838144391
 30
0.0
 11
118.9496997566208
 21
-41.36700683814454
 31
0.0
  0
LINE
  5
28FD
  8
241
 10
144.5000037308601
 20
0.0
 30
0.0
 11
144.5000037308601
 21
9.3127016653793362
 31
0.0
1001
GRPNAME
1000
0000000U
  0
LINE
  5
28FE
  8
241
 10
144.0000037308601
 20
0.0
 30
0.0
 11
144.0000037308601
 21
9.7000000000000437
 31
0.0
1001
GRPNAME
1000
0000004Y
  0
LINE
  5
28FF
  8
240
 10
120.104400295
 20
-41.000000000000043
 30
0.0
 11
128.76239942383111
 21
-41.000000000000171
 31
0.0
  0
ARC
  5
2900
  8
240
 10
120.104400295
 20
-43.000000000000057
 30
0.0
 40
2.0
 50
89.99999999999838
 51
149.99999999999619
  0
LINE
  5
2901
  8
240
 10
137.86602913464969
 20
-28.2320508075689
 30
0.0
 11
131.36047563518451
 21
-39.500000000000171
 31
0.0
  0
ARC
  5
2902
  8
240
 10
128.7623994238312
 20
-38.000000000000171
 30
0.0
 40
3.0
 50
270.0
 51
329.99999999999989
  0
ARC
  5
2903
  8
240
 10
137.00000373086519
 20
-27.7320508075689
 30
0.0
 40
1.0
 50
329.99999999999989
 51
0.0
1001
GRPNAME
1000
0000000P
  0
LINE
  5
2904
  8
240
 10
138.00000373086311
 20
-27.7320508075689
 30
0.0
 11
138.00000373086311
 21
-26.5
 31
0.0
  0
LINE
  5
2905
  8
240
 10
144.40000373086011
 20
-9.2999999999999527
 30
0.0
 11
144.5000037308601
 21
-9.2999999999999527
 31
0.0
  0
LINE
  5
2906
  8
241
 10
144.0000037308601
 20
0.0
 30
0.0
 11
144.0000037308601
 21
-9.7000000000000437
 31
0.0
  0
ARC
  5
2907
  8
240
 10
144.40000373086011
 20
-9.7000000000000437
 30
0.0
 40
0.400000000000091
 50
90.000000005145836
 51
180.00000000514581
  0
LINE
  5
2908
  8
240
 10
150.00000373086311
 20
-5.2854248688936991
 30
0.0
 11
150.00000373086311
 21
-13.0
 31
0.0
  0
LINE
  5
2909
  8
240
 10
144.5000037308601
 20
-9.3127016653793362
 30
0.0
 11
144.5000037308601
 21
-13.20000000000004
 31
0.0
  0
LINE
  5
290A
  8
240
 10
144.80000373086011
 20
-13.5
 30
0.0
 11
149.5000037308632
 21
-13.5
 31
0.0
  0
LINE
  5
290B
  8
240
 10
144.80000373086011
 20
-13.5
 30
0.0
 11
144.5000037308601
 21
-13.20000000000004
 31
0.0
  0
LINE
  5
290C
  8
241
 10
144.80000373086011
 20
-11.83380238237487
 30
0.0
 11
144.80000373086011
 21
-13.5
 31
0.0
  0
LINE
  5
290D
  8
240
 10
149.5000037308632
 20
-13.5
 30
0.0
 11
150.00000373086311
 21
-13.0
 31
0.0
  0
LINE
  5
290E
  8
241
 10
149.5000037308632
 20
-11.83380238237487
 30
0.0
 11
149.5000037308632
 21
-13.5
 31
0.0
  0
LINE
  5
290F
  8
240
 10
151.8000038968994
 20
-6.099999999999965
 30
0.0
 11
153.50000389689939
 21
-6.099999999999965
 31
0.0
  0
LINE
  5
2910
  8
241
 10
144.5000037308601
 20
0.0
 30
0.0
 11
144.5000037308601
 21
-9.3127016653793362
 31
0.0
  0
LINE
  5
2911
  8
241
 10
151.0000037308632
 20
5.2499999999999432
 30
0.0
 11
151.00000373086311
 21
-5.2499999999999432
 31
0.0
  0
LINE
  5
2912
  8
241
 10
150.00000373086311
 20
5.2854248688937497
 30
0.0
 11
150.00000373086311
 21
-5.2854248688936991
 31
0.0
  0
LINE
  5
2913
  8
241
 10
151.50000389689939
 20
-5.250000000000056
 30
0.0
 11
151.50000389689939
 21
5.2499999999999432
 31
0.0
  0
LINE
  5
2914
  8
240
 10
151.50000389689939
 20
-5.8000000000000123
 30
0.0
 11
151.50000389689939
 21
-5.250000000000056
 31
0.0
  0
ARC
  5
2915
  8
240
 10
151.8000038968994
 20
-5.8000000000000123
 30
0.0
 40
0.3000000000000114
 50
180.0
 51
270.0
  0
LINE
  5
2916
  8
240
 10
150.9000037308632
 20
-5.1500000000000332
 30
0.0
 11
151.00000373086311
 21
-5.2499999999999432
 31
0.0
  0
LINE
  5
2917
  8
240
 10
151.50000389689939
 20
-5.2499999999999432
 30
0.0
 11
151.00000373086311
 21
-5.2499999999999432
 31
0.0
  0
ARC
  5
2918
  8
240
 10
150.30000373086321
 20
-5.5500000000000123
 30
0.0
 40
0.3999999999999772
 50
90.000000028269753
 51
138.59037789074861
  0
LINE
  5
2919
  8
240
 10
150.9000037308632
 20
-5.1500000000000332
 30
0.0
 11
150.30000373086321
 21
-5.1500000000000332
 31
0.0
  0
LINE
  5
291A
  8
241
 10
154.7000038968994
 20
6.000000000000056
 30
0.0
 11
154.7000038968994
 21
-6.0
 31
0.0
  0
LINE
  5
291B
  8
241
 10
153.50000389689939
 20
6.1000000000000014
 30
0.0
 11
153.50000389689939
 21
-6.099999999999965
 31
0.0
  0
LINE
  5
291C
  8
240
 10
154.02678658454209
 20
-5.9499999999999851
 30
0.0
 11
154.40381681605189
 21
-5.9499999999999851
 31
0.0
  0
ARC
  5
291D
  8
240
 10
154.02678658454209
 20
-6.9499999999999851
 30
0.0
 40
1.0
 50
90.0
 51
121.78833061705321
  0
ARC
  5
291E
  8
240
 10
154.38734135037399
 20
-6.94986427030409
 30
0.0
 40
1.0000000000000111
 50
71.780238611080165
 51
90.944017359639133
  0
LINE
  5
291F
  8
240
 10
120.104400295
 20
40.999999999999929
 30
0.0
 11
128.76239942383111
 21
41.000000000000171
 31
0.0
  0
ARC
  5
2920
  8
240
 10
120.104400295
 20
42.999999999999929
 30
0.0
 40
2.0
 50
210.00000000000361
 51
270.0
  0
LINE
  5
2921
  8
240
 10
144.40000373086011
 20
9.2999999999999527
 30
0.0
 11
144.5000037308601
 21
9.2999999999999527
 31
0.0
1001
GRPNAME
1000
0000004Y
  0
ARC
  5
2922
  8
240
 10
144.40000373086011
 20
9.7000000000000437
 30
0.0
 40
0.3999999999999772
 50
179.99999999485399
 51
269.99999999485408
1001
GRPNAME
1000
0000004Y
  0
LINE
  5
2923
  8
241
 10
149.5000037308632
 20
11.83380238237487
 30
0.0
 11
149.5000037308632
 21
13.5
 31
0.0
  0
LINE
  5
2924
  8
240
 10
144.5000037308601
 20
9.3127016653793362
 30
0.0
 11
144.5000037308601
 21
13.20000000000004
 31
0.0
1001
GRPNAME
1000
0000000U
  0
LINE
  5
2925
  8
241
 10
144.80000373086011
 20
11.83380238237487
 30
0.0
 11
144.80000373086011
 21
13.5
 31
0.0
  0
LINE
  5
2926
  8
240
 10
150.00000373086311
 20
5.2854248688936991
 30
0.0
 11
150.00000373086311
 21
13.0
 31
0.0
1001
GRPNAME
1000
0000000U
  0
LINE
  5
2927
  8
240
 10
151.8000038968994
 20
6.099999999999965
 30
0.0
 11
153.50000389689939
 21
6.099999999999965
 31
0.0
  0
LINE
  5
2928
  8
240
 10
151.50000389689939
 20
5.8000000000000123
 30
0.0
 11
151.50000389689939
 21
5.250000000000056
 31
0.0
1001
GRPNAME
1000
00000002
  0
LINE
  5
2929
  8
240
 10
150.9000037308632
 20
5.1500000000000332
 30
0.0
 11
151.00000373086311
 21
5.2499999999999432
 31
0.0
1001
GRPNAME
1000
0000000U
  0
LINE
  5
292A
  8
240
 10
151.50000389689939
 20
5.2499999999999432
 30
0.0
 11
151.00000373086311
 21
5.2499999999999432
 31
0.0
1001
GRPNAME
1000
0000000U
  0
ARC
  5
292B
  8
240
 10
150.30000373086321
 20
5.5500000000000123
 30
0.0
 40
0.3999999999999728
 50
221.40962210925139
 51
269.99999997173018
1001
GRPNAME
1000
0000000U
  0
LINE
  5
292C
  8
240
 10
150.9000037308632
 20
5.1500000000000332
 30
0.0
 11
150.30000373086321
 21
5.1500000000000332
 31
0.0
1001
GRPNAME
1000
0000000U
  0
ARC
  5
292D
  8
240
 10
151.8000038968994
 20
5.8000000000000123
 30
0.0
 40
0.3000000000000114
 50
90.0
 51
180.0
  0
LINE
  5
292E
  8
240
 10
154.02678658454209
 20
5.9499999999999851
 30
0.0
 11
154.40381681605189
 21
5.9499999999999851
 31
0.0
  0
ARC
  5
292F
  8
240
 10
154.02678658454209
 20
6.9499999999999851
 30
0.0
 40
1.0000000000000011
 50
238.21166938294681
 51
270.0
  0
ARC
  5
2930
  8
240
 10
154.38734135037399
 20
6.94986427030409
 30
0.0
 40
1.0
 50
269.05598264036092
 51
288.21976138891978
  0
LINE
  5
2931
  8
240
 10
144.80000373086011
 20
13.5
 30
0.0
 11
149.5000037308632
 21
13.5
 31
0.0
1001
GRPNAME
1000
0000000U
  0
LINE
  5
2932
  8
240
 10
144.80000373086011
 20
13.5
 30
0.0
 11
144.5000037308601
 21
13.20000000000004
 31
0.0
1001
GRPNAME
1000
0000000U
  0
LINE
  5
2933
  8
240
 10
149.5000037308632
 20
13.5
 30
0.0
 11
150.00000373086311
 21
13.0
 31
0.0
1001
GRPNAME
1000
0000000U
  0
LINE
  5
2934
  8
240
 10
137.86602913464969
 20
28.232050807568779
 30
0.0
 11
131.36047563518451
 21
39.500000000000171
 31
0.0
  0
ARC
  5
2935
  8
240
 10
137.00000373086519
 20
27.732050807568768
 30
0.0
 40
1.0
 50
0.0
 51
30.000000000000139
1001
GRPNAME
1000
0000000P
  0
LINE
  5
2936
  8
240
 10
138.00000373086311
 20
27.7320508075689
 30
0.0
 11
138.00000373086311
 21
26.5
 31
0.0
  0
ARC
  5
2937
  8
240
 10
128.7623994238312
 20
38.000000000000171
 30
0.0
 40
3.0
 50
30.000000000000139
 51
90.0
  0
LINE
  5
2938
  8
240
 10
166.00000389689939
 20
-4.4257359312879849
 30
0.0
 11
166.00000389689939
 21
4.4257359312879849
 31
0.0
  0
LINE
  5
2939
  8
241
 10
165.69076074309041
 20
-4.9000000000000332
 30
0.0
 11
165.69076074309029
 21
4.9486544087790874
 31
0.0
  0
ARC
  5
293A
  8
240
 10
164.50000389689939
 20
-4.8000000000000123
 30
0.0
 40
1.199999999999988
 50
270.0
 51
352.88399476228949
  0
LINE
  5
293B
  8
240
 10
165.91213593125531
 20
-4.6378679656439763
 30
0.0
 11
165.77631792028211
 21
-4.7736859766171706
 31
0.0
  0
ARC
  5
293C
  8
240
 10
165.9884499546381
 20
-4.9858180109732171
 30
0.0
 40
0.3000000000000345
 50
135.0
 51
172.88399476228619
  0
ARC
  5
293D
  8
240
 10
165.7000038968994
 20
-4.4257359312879849
 30
0.0
 40
0.2999999999999743
 50
314.9999999999954
 51
0.0
  0
ARC
  5
293E
  8
240
 10
164.50000389689939
 20
4.8000000000000123
 30
0.0
 40
1.200000000000004
 50
7.1160052377104721
 51
90.0
  0
LINE
  5
293F
  8
240
 10
165.91213593125531
 20
4.6378679656439763
 30
0.0
 11
165.77631792028211
 21
4.7736859766171706
 31
0.0
1001
GRPNAME
1000
00000002
  0
ARC
  5
2940
  8
240
 10
165.9884499546381
 20
4.9858180109732171
 30
0.0
 40
0.3000000000000322
 50
187.11600523771381
 51
225.0
1001
GRPNAME
1000
00000002
  0
ARC
  5
2941
  8
240
 10
165.7000038968994
 20
4.4257359312879849
 30
0.0
 40
0.3000000000000114
 50
0.0
 51
45.000000000004597
1001
GRPNAME
1000
00000002
  0
LINE
  5
2942
  8
240
 10
102.9999995818291
 20
48.000000000000057
 30
0.0
 11
113.7535473339136
 21
48.000000000000057
 31
0.0
  0
LINE
  5
2943
  8
240
 10
102.4999995818291
 20
47.500000000000057
 30
0.0
 11
102.9999995818291
 21
48.000000000000057
 31
0.0
1001
GENIUS_GENFIL_13
1070
     1
1040
0.4999999999999434
1040
0.500000000000057
1040
0.5
1040
45.0
1000
~T
1001
GENIUS_GENOREF_13
1005
295F
  0
ARC
  5
2944
  8
240
 10
101.4999995818302
 20
47.732050807568811
 30
0.0
 40
1.0
 50
0.0
 51
30.00000000000378
1001
GRPNAME
1000
0000006R
  0
ARC
  5
2945
  8
240
 10
100.7679487742614
 20
49.0
 30
0.0
 40
1.0
 50
30.000000000000139
 51
90.0
  0
LINE
  5
2946
  8
240
 10
102.3660249856148
 20
48.232050807568847
 30
0.0
 11
101.6339741780458
 21
49.5
 31
0.0
  0
ARC
  5
2947
  8
240
 10
113.7535473339136
 20
46.000000000000043
 30
0.0
 40
2.0
 50
30.00000000000378
 51
90.0
  0
ARC
  5
2948
  8
240
 10
56.465346024478471
 20
-43.500000001627079
 30
0.0
 40
2.0
 50
15.00000000000116
 51
90.0
  0
LINE
  5
2949
  8
240
 10
51.000000000000149
 20
-41.500000001627079
 30
0.0
 11
56.465346024478471
 21
-41.500000001627079
 31
0.0
1001
GRPNAME
1000
0000006R
  0
LINE
  5
294A
  8
240
 10
58.39719767705656
 20
-42.982361911422061
 30
0.0
 11
59.880370459044947
 21
-48.517638090205061
 31
0.0
  0
LINE
  5
294B
  8
241
 10
50.500000000000142
 20
-41.000000001627072
 30
0.0
 11
50.500000000000142
 21
41.000000001627072
 31
0.0
1001
GRPNAME
1000
0000006R
  0
ARC
  5
294C
  8
240
 10
51.000000000000149
 20
-41.000000001627072
 30
0.0
 40
0.5
 50
180.00000010283941
 51
270.00000010541902
1001
GRPNAME
1000
0000006R
  0
ARC
  5
294D
  8
240
 10
61.812222111623079
 20
-48.0
 30
0.0
 40
2.0
 50
195.00000000000111
 51
246.03922963010459
  0
LINE
  5
294E
  8
240
 10
102.3660249856148
 20
-48.232050807568847
 30
0.0
 11
101.6339741780458
 21
-49.5
 31
0.0
  0
ARC
  5
294F
  8
240
 10
100.7679487742614
 20
-49.0
 30
0.0
 40
1.0
 50
317.05859713539638
 51
329.99999999999989
  0
LINE
  5
2950
  8
240
 10
102.4999995818302
 20
47.732050807568811
 30
0.0
 11
102.4999995818302
 21
47.500000000001272
 31
0.0
  0
LINE
  5
2951
  8
240
 10
102.4999995818302
 20
-47.732050807568811
 30
0.0
 11
102.4999995818302
 21
-47.500000000001272
 31
0.0
  0
ARC
  5
2952
  8
240
 10
101.4999995818302
 20
-47.732050807568811
 30
0.0
 40
1.0
 50
329.99999999999619
 51
0.0
1001
GRPNAME
1000
0000006R
  0
LINE
  5
2953
  8
241
 10
139.4503758025327
 20
25.927878711143709
 30
0.0
 11
139.4503758025327
 21
-25.927878711143592
 31
0.0
  0
ARC
  5
2954
  8
240
 10
138.0499607261132
 20
-24.5
 30
0.0
 40
2.0
 50
270.0
 51
339.99999999999989
  0
LINE
  5
2955
  8
240
 10
138.00000373086311
 20
-26.5
 30
0.0
 11
138.0499607261132
 21
-26.5
 31
0.0
  0
LINE
  5
2956
  8
240
 10
143.93969635164601
 20
-14.16569316261717
 30
0.0
 11
139.92934596768501
 21
-25.184040286651339
 31
0.0
  0
ARC
  5
2957
  8
240
 10
143.0000037308601
 20
-13.823673019291499
 30
0.0
 40
1.0
 50
339.99999999999989
 51
0.0
1001
GRPNAME
1000
0000004X
  0
LINE
  5
2958
  8
240
 10
144.0000037308601
 20
-9.7000000000000437
 30
0.0
 11
144.0000037308601
 21
-13.823673019291499
 31
0.0
  0
LINE
  5
2959
  8
240
 10
143.93969635164601
 20
14.16569316261717
 30
0.0
 11
139.92934596768501
 21
25.184040286651399
 31
0.0
  0
LINE
  5
295A
  8
240
 10
144.0000037308601
 20
9.7000000000000437
 30
0.0
 11
144.0000037308601
 21
13.823673019291499
 31
0.0
1001
GRPNAME
1000
0000004Y
  0
ARC
  5
295B
  8
240
 10
143.0000037308601
 20
13.823673019291499
 30
0.0
 40
1.0
 50
0.0
 51
20.000000000000082
1001
GRPNAME
1000
0000004X
  0
LINE
  5
295C
  8
240
 10
138.00000373086311
 20
26.5
 30
0.0
 11
138.04996072611331
 21
26.50000000000006
 31
0.0
1001
GRPNAME
1000
0000004Y
  0
ARC
  5
295D
  8
240
 10
138.04996072611331
 20
24.50000000000006
 30
0.0
 40
2.0
 50
20.000000000000082
 51
90.0
  0
POINT
  5
295E
  8
0
 10
-91.314290267724346
 20
20.84260998260487
 30
0.0
1001
GENIUS_GENOLIS_13
1002
{
1000
ENT
1005
28F3
1002
}
1001
GENIUS_GENOENT_13
1002
{
1000
MYREF
1005
295E
1002
}
1002
{
1000
GRP
1005
0
1002
}
1001
GENIUS_GENOBJ-N-CHA_13
1002
{
1000
OWNER
1000
GEN
1002
}
1001
GENIUS_GENODEF_13
1002
{
1000
HIER
1070
     1
1002
}
1002
{
1000
MANEDIT
1070
     0
1002
}
1002
{
1000
NOSEL
1070
     0
1002
}
1002
{
1000
BEHIND
1070
     0
1002
}
1002
{
1000
OTHER
1070
     0
1002
}
1002
{
1000
REACTOR
1002
}
  0
POINT
  5
295F
  8
0
 10
-91.314290267724346
 20
856.0525262834758
 30
0.0
1001
GENIUS_GENOLIS_13
1002
{
1000
ENT
1005
2943
1002
}
1001
GENIUS_GENOENT_13
1002
{
1000
MYREF
1005
295F
1002
}
1002
{
1000
GRP
1005
0
1002
}
1001
GENIUS_GENOBJ-N-CHA_13
1002
{
1000
OWNER
1000
GEN
1002
}
1001
GENIUS_GENODEF_13
1002
{
1000
HIER
1070
     1
1002
}
1002
{
1000
MANEDIT
1070
     0
1002
}
1002
{
1000
NOSEL
1070
     0
1002
}
1002
{
1000
BEHIND
1070
     0
1002
}
1002
{
1000
OTHER
1070
     0
1002
}
1002
{
1000
REACTOR
1002
}
  0
LINE
  5
3636
  8
245
 10
285.5226683091384
 20
55.710678118654791
 30
0.0
 11
285.5226683091384
 21
-63.215685708849691
 31
0.0
  0
LINE
  5
3637
  8
245
 10
229.8119901904837
 20
0.0000000000000284
 30
0.0
 11
341.23334642779321
 21
0.0000000000000284
 31
0.0
  0
ARC
  5
3638
  8
241
 10
285.5226683091384
 20
0.0000000000004832
 30
0.0
 40
50.000000000000227
 50
237.14011914189331
 51
302.85988037888649
1001
GRPNAME
1000
00000034
  0
CIRCLE
  5
3639
  8
241
 10
285.5226683091384
 20
0.0000000000000284
 30
0.0
 40
26.5
  0
CIRCLE
  5
363A
  8
241
 10
285.5226683091384
 20
0.0000000000000284
 30
0.0
 40
38.999999999999908
  0
CIRCLE
  5
363B
  8
241
 10
285.5226683091384
 20
0.0000000000000284
 30
0.0
 40
34.999999999999893
  0
ARC
  5
363C
  8
240
 10
285.5226683091384
 20
0.0000000000000284
 30
0.0
 40
50.0
 50
302.85988037888649
 51
237.1401196211134
  0
CIRCLE
  5
363D
  8
241
 10
285.5226683091384
 20
0.0000000000000284
 30
0.0
 40
13.5
  0
LINE
  5
363E
  8
245
 10
285.5226683091384
 20
-34.431980515339397
 30
0.0
 11
285.5226683091384
 21
-28.068019484660539
 31
0.0
  0
CIRCLE
  5
363F
  8
241
 10
285.5226683091384
 20
0.0000000000000284
 30
0.0
 40
4.8510879858375491
  0
CIRCLE
  5
3640
  8
241
 10
285.5226683091384
 20
0.0000000000000284
 30
0.0
 40
6.0
  0
CIRCLE
  5
3641
  8
241
 10
285.5226683091384
 20
0.0000000000000284
 30
0.0
 40
2.0
  0
LINE
  5
3642
  8
245
 10
285.522668309138
 20
-103.0017719277247
 30
0.0
 11
285.522668309138
 21
-45.596890972562242
 31
0.0
1001
GRPNAME
1000
00000069
  0
ARC
  5
3643
  8
240
 10
259.02266830913828
 20
-52.047260534122948
 30
0.0
 40
3.0
 50
180.0
 51
238.14456917590999
1001
GRPNAME
1000
00000069
  0
ARC
  5
3644
  8
240
 10
312.02266830913828
 20
-52.047260534123183
 30
0.0
 40
2.9999999999999361
 50
301.85543082408338
 51
0.0
1001
GRPNAME
1000
00000069
  0
ARC
  5
3645
  8
240
 10
285.522668309138
 20
-80.000000000000185
 30
0.0
 40
20.999999999999758
 50
180.0
 51
0.0
1001
GRPNAME
1000
00000069
  0
LINE
  5
3646
  8
245
 10
262.79474624778038
 20
-80.000000000000142
 30
0.0
 11
308.25059037049613
 21
-80.000000000000469
 31
0.0
1001
GRPNAME
1000
00000069
  0
LINE
  5
3647
  8
240
 10
264.52266830912203
 20
-67.33614538553357
 30
0.0
 11
264.52266830912203
 21
-80.000000000000142
 31
0.0
1001
GRPNAME
1000
00000069
  0
ARC
  5
3648
  8
240
 10
249.522668309122
 20
-67.336145385533499
 30
0.0
 40
15.0
 50
0.0
 51
58.144569175915748
1001
GRPNAME
1000
00000069
  0
LINE
  5
3649
  8
245
 10
285.522668309138
 20
-53.539014328896002
 30
0.0
 11
285.522668309138
 21
-64.46098567110343
 31
0.0
1001
GRPNAME
1000
00000069
  0
LINE
  5
364A
  8
240
 10
306.5226683091542
 20
-67.336145385533669
 30
0.0
 11
306.5226683091542
 21
-80.000000000000256
 31
0.0
1001
GRPNAME
1000
00000069
  0
ARC
  5
364B
  8
240
 10
321.52266830915431
 20
-67.33614538553374
 30
0.0
 40
14.99999999999994
 50
121.85543082408419
 51
180.0
1001
GRPNAME
1000
00000069
  0
ARC
  5
364C
  8
241
 10
285.5226683091384
 20
0.0000000000004832
 30
0.0
 40
50.000000000000227
 50
270.0
 51
302.85988037888649
1001
GRPNAME
1000
00000069
  0
ARC
  5
364D
  8
241
 10
285.5226683091384
 20
0.0000000000004832
 30
0.0
 40
50.000000000000099
 50
237.1401196211134
 51
270.0
1001
GRPNAME
1000
00000069
  0
LINE
  5
364E
  8
240
 10
256.02266830913828
 20
-42.500000000000071
 30
0.0
 11
256.02266830913828
 21
-52.047260534122948
 31
0.0
1001
GRPNAME
1000
00000069
  0
LINE
  5
364F
  8
240
 10
256.02266830913828
 20
-42.500000000000071
 30
0.0
 11
256.52266830913828
 21
-42.000000000000092
 31
0.0
1001
GRPNAME
1000
00000069
  0
LINE
  5
3650
  8
240
 10
256.52266830913828
 20
-42.000000000000092
 30
0.0
 11
258.3933483766379
 21
-42.000000000000092
 31
0.0
1001
GRPNAME
1000
00000069
  0
LINE
  5
3651
  8
240
 10
315.02266830913828
 20
-42.500000000000313
 30
0.0
 11
315.02266830913828
 21
-52.047260534123183
 31
0.0
1001
GRPNAME
1000
00000069
  0
LINE
  5
3652
  8
240
 10
315.02266830913828
 20
-42.500000000000313
 30
0.0
 11
314.52266830913828
 21
-42.000000000000313
 31
0.0
1001
GRPNAME
1000
00000069
  0
LINE
  5
3653
  8
240
 10
314.52266830913828
 20
-42.000000000000313
 30
0.0
 11
312.65198824163878
 21
-42.000000000000313
 31
0.0
1001
GRPNAME
1000
00000069
  0
ARC
  5
3654
  8
241
 10
278.53266830913827
 20
-61.499999999999737
 30
0.0
 40
3.374999999014455
 50
322.45986651781811
 51
258.93705765320368
1001
GRPNAME
1000
0000003K
  0
ARC
  5
3655
  8
241
 10
278.53266830913827
 20
-61.499999999999737
 30
0.0
 40
3.8614999984302081
 50
330.6866148655759
 51
250.71030930544649
1001
GRPNAME
1000
0000000C
  0
LINE
  5
3656
  8
241
 10
277.03266830913827
 20
-60.633974596215317
 30
0.0
 11
278.53266830913827
 21
-59.767949192430848
 31
0.0
1001
GRPNAME
1000
0000000C
  0
LINE
  5
3657
  8
241
 10
277.03266830913827
 20
-62.366025403784171
 30
0.0
 11
277.03266830913827
 21
-60.633974596215317
 31
0.0
1001
GRPNAME
1000
0000000C
  0
LINE
  5
3658
  8
241
 10
278.53266830913827
 20
-63.23205080756864
 30
0.0
 11
277.03266830913827
 21
-62.366025403784171
 31
0.0
1001
GRPNAME
1000
0000000C
  0
LINE
  5
3659
  8
241
 10
280.03266830913827
 20
-62.366025403784221
 30
0.0
 11
278.53266830913827
 21
-63.23205080756864
 31
0.0
1001
GRPNAME
1000
0000000C
  0
LINE
  5
365A
  8
241
 10
280.03266830913827
 20
-60.633974596215317
 30
0.0
 11
280.03266830913827
 21
-62.366025403784221
 31
0.0
1001
GRPNAME
1000
0000000C
  0
LINE
  5
365B
  8
241
 10
278.53266830913827
 20
-59.767949192430848
 30
0.0
 11
280.03266830913827
 21
-60.633974596215317
 31
0.0
1001
GRPNAME
1000
0000000C
  0
CIRCLE
  5
365C
  8
241
 10
285.52266830913828
 20
-80.000000000000298
 30
0.0
 40
17.000000000000401
  0
CIRCLE
  5
365D
  8
241
 10
285.52266830913828
 20
-80.000000000000298
 30
0.0
 40
10.000000000000281
  0
ARC
  5
365E
  8
241
 10
292.51266830913841
 20
-61.499999999999737
 30
0.0
 40
3.374999999014455
 50
281.06294234679632
 51
217.540133482182
1001
GRPNAME
1000
0000003K
  0
ARC
  5
365F
  8
241
 10
292.51266830913841
 20
-61.499999999999737
 30
0.0
 40
3.8614999984302081
 50
289.28969069455343
 51
209.31338513442421
1001
GRPNAME
1000
0000000C
  0
LINE
  5
3660
  8
241
 10
292.51266830913841
 20
-59.767949192430848
 30
0.0
 11
291.01266830913852
 21
-60.633974596215317
 31
0.0
1001
GRPNAME
1000
0000000C
  0
LINE
  5
3661
  8
241
 10
291.01266830913852
 20
-60.633974596215317
 30
0.0
 11
291.01266830913852
 21
-62.366025403784221
 31
0.0
1001
GRPNAME
1000
0000000C
  0
LINE
  5
3662
  8
241
 10
294.01266830913852
 20
-62.366025403784171
 30
0.0
 11
294.01266830913852
 21
-60.633974596215317
 31
0.0
1001
GRPNAME
1000
0000000C
  0
LINE
  5
3663
  8
241
 10
294.01266830913852
 20
-60.633974596215317
 30
0.0
 11
292.51266830913841
 21
-59.767949192430848
 31
0.0
1001
GRPNAME
1000
0000000C
  0
LINE
  5
3664
  8
241
 10
292.51266830913841
 20
-63.23205080756864
 30
0.0
 11
294.01266830913852
 21
-62.366025403784171
 31
0.0
1001
GRPNAME
1000
0000000C
  0
LINE
  5
3665
  8
241
 10
291.01266830913852
 20
-62.366025403784221
 30
0.0
 11
292.51266830913841
 21
-63.23205080756864
 31
0.0
1001
GRPNAME
1000
0000000C
  0
LINE
  5
3666
  8
243
 10
272.49080967080778
 20
48.271841278643592
 30
0.0
 11
278.86024447518759
 21
37.239656581959991
 31
0.0
  0
LINE
  5
3667
  8
245
 10
312.20066174899023
 20
-46.20764008181299
 30
0.0
 11
258.56297432412521
 21
46.695559738551196
 31
0.0
  0
LINE
  5
3668
  8
243
 10
256.6033915979279
 20
24.389656581959851
 30
0.0
 11
250.23395679354789
 21
35.421841278643647
 31
0.0
  0
LINE
  5
3669
  8
243
 10
278.86024447518759
 20
37.239656581959991
 30
0.0
 11
256.6033915979279
 21
24.389656581959851
 31
0.0
  0
LINE
  5
366A
  8
243
 10
314.44194502034873
 20
-24.389656581960569
 30
0.0
 11
320.81137982472882
 21
-35.421841278644372
 31
0.0
  0
LINE
  5
366B
  8
243
 10
292.18509214308881
 20
-37.239656581960638
 30
0.0
 11
314.44194502034873
 21
-24.389656581960569
 31
0.0
  0
LINE
  5
366C
  8
243
 10
298.55452694746879
 20
-48.27184127864426
 30
0.0
 11
292.18509214308881
 21
-37.239656581960638
 31
0.0
  0
LINE
  5
366D
  8
243
 10
298.55452694746879
 20
48.271841278643592
 30
0.0
 11
292.18509214308921
 21
37.239656581959991
 31
0.0
  0
LINE
  5
366E
  8
245
 10
258.84467486928639
 20
-46.20764008181299
 30
0.0
 11
312.48236229415141
 21
46.695559738551196
 31
0.0
  0
LINE
  5
366F
  8
243
 10
292.18509214308921
 20
37.239656581959991
 30
0.0
 11
314.44194502034878
 21
24.389656581959851
 31
0.0
  0
LINE
  5
3670
  8
243
 10
314.44194502034878
 20
24.389656581959851
 30
0.0
 11
320.81137982472882
 21
35.421841278643647
 31
0.0
  0
LINE
  5
3671
  8
243
 10
278.8602444751877
 20
-37.239656581960638
 30
0.0
 11
256.60339159792801
 21
-24.389656581960569
 31
0.0
  0
LINE
  5
3672
  8
243
 10
256.60339159792801
 20
-24.389656581960569
 30
0.0
 11
250.23395679354789
 21
-35.421841278644372
 31
0.0
  0
LINE
  5
3673
  8
243
 10
272.49080967080778
 20
-48.27184127864426
 30
0.0
 11
278.8602444751877
 21
-37.239656581960638
 31
0.0
  0
VIEWPORT
  5
22
 67
     1
  8
0
 10
261.51769911504419
 20
148.5
 30
0.0
 40
523.0353982300885
 41
297.0
 68
     1
 69
     1
1001
ACAD
1000
MVIEW
1002
{
1070
    16
1010
0.0
1020
0.0
1030
0.0
1010
0.0
1020
0.0
1030
1.0
1040
0.0
1040
297.0
1040
261.51769911504419
1040
148.5
1040
50.0
1040
0.0
1040
0.0
1070
     0
1070
   100
1070
     1
1070
     1
1070
     0
1070
     0
1070
     0
1070
     0
1040
0.0
1040
0.0
1040
0.0
1040
1.0
1040
1.0
1040
10.0
1040
10.0
1070
     0
1002
{
1002
}
1002
}
1001
GENIUS_GENODEF_13
1002
{
1000
HIER
1070
     0
1002
}
1002
{
1000
MANEDIT
1070
     0
1002
}
1002
{
1000
NOSEL
1070
     0
1002
}
1002
{
1000
BEHIND
1070
     0
1002
}
1002
{
1000
OTHER
1070
     0
1002
}
1002
{
1000
REACTOR
1002
}
1001
GENIUS_GENOBJ-N-SDF_13
1002
{
1000
OWNER
1000
GEN
1002
}
1001
GENIUS_GENSCREG_15
1000
PF
1040
1.0
1000
DF
1040
1.0
1000
MIN
1011
0.0
1021
0.0
1031
0.0
1021
0.0
1031
0.0
1000
MAX
1011
523.0353982300885
1021
0.0
1031
0.0
1021
297.0
1031
0.0
1000
FLAGS
1070
     2
  0
ENDSEC
  0
EOF
