  0
SECTION
  2
HEADER
  9
$ACADVER
  1
AC1009
  9
$INSBASE
 10
0.0
 20
0.0
 30
0.0
  9
$EXTMIN
 10
-104.3360820532293
 20
-50.000000000000348
 30
0.0
  9
$EXTMAX
 10
144.63297244244001
 20
89.000000000000426
 30
0.0
  9
$LIMMIN
 10
0.0
 20
0.0
  9
$LIMMAX
 10
297.0
 20
210.0
  9
$ORTHOMODE
 70
     1
  9
$REGENMODE
 70
     1
  9
$FILLMODE
 70
     1
  9
$QTEXTMODE
 70
     0
  9
$MIRRTEXT
 70
     1
  9
$DRAGMODE
 70
     2
  9
$LTSCALE
 40
10.0
  9
$OSMODE
 70
    63
  9
$ATTMODE
 70
     1
  9
$TEXTSIZE
 40
3.0
  9
$TRACEWID
 40
1.0
  9
$TEXTSTYLE
  7
YOKO
  9
$CLAYER
  8
240
  9
$CELTYPE
  6
BYLAYER
  9
$CECOLOR
 62
   256
  9
$DIMSCALE
 40
1.0
  9
$DIMASZ
 40
2.2299999999999991
  9
$DIMEXO
 40
0.5
  9
$DIMDLI
 40
7.0
  9
$DIMRND
 40
0.0
  9
$DIMDLE
 40
0.0
  9
$DIMEXE
 40
1.0
  9
$DIMTP
 40
0.0
  9
$DIMTM
 40
0.01
  9
$DIMTXT
 40
2.7999999999999989
  9
$DIMCEN
 40
0.0
  9
$DIMTSZ
 40
0.0
  9
$DIMTOL
 70
     0
  9
$DIMLIM
 70
     0
  9
$DIMTIH
 70
     0
  9
$DIMTOH
 70
     0
  9
$DIMSE1
 70
     0
  9
$DIMSE2
 70
     0
  9
$DIMTAD
 70
     3
  9
$DIMZIN
 70
     9
  9
$DIMBLK
  1
OPEN
  9
$DIMASO
 70
     1
  9
$DIMSHO
 70
     1
  9
$DIMPOST
  1

  9
$DIMAPOST
  1

  9
$DIMALT
 70
     0
  9
$DIMALTD
 70
     2
  9
$DIMALTF
 40
25.399999999999999
  9
$DIMLFAC
 40
1.0
  9
$DIMTOFL
 70
     1
  9
$DIMTVP
 40
0.0
  9
$DIMTIX
 70
     1
  9
$DIMSOXD
 70
     0
  9
$DIMSAH
 70
     0
  9
$DIMBLK1
  1

  9
$DIMBLK2
  1

  9
$DIMSTYLE
  2
BIGT
  9
$DIMCLRD
 70
   256
  9
$DIMCLRE
 70
   256
  9
$DIMCLRT
 70
    40
  9
$DIMTFAC
 40
1.0
  9
$DIMGAP
 40
1.0
  9
$LUNITS
 70
     2
  9
$LUPREC
 70
     6
  9
$SKETCHINC
 40
1.0
  9
$FILLETRAD
 40
0.0
  9
$AUNITS
 70
     0
  9
$AUPREC
 70
     6
  9
$MENU
  1
.
  9
$ELEVATION
 40
0.0
  9
$PELEVATION
 40
0.0
  9
$THICKNESS
 40
0.0
  9
$LIMCHECK
 70
     0
  9
$BLIPMODE
 70
     0
  9
$CHAMFERA
 40
0.2
  9
$CHAMFERB
 40
0.2
  9
$SKPOLY
 70
     0
  9
$TDCREATE
 40
2457241.7206100109
  9
$TDUPDATE
 40
2457242.383739016
  9
$TDINDWG
 40
0.0229540972
  9
$TDUSRTIMER
 40
0.0229540625
  9
$USRTIMER
 70
     1
  9
$ANGBASE
 50
0.0
  9
$ANGDIR
 70
     0
  9
$PDMODE
 70
     1
  9
$PDSIZE
 40
0.0
  9
$PLINEWID
 40
0.0
  9
$COORDS
 70
     1
  9
$SPLFRAME
 70
     0
  9
$SPLINETYPE
 70
     6
  9
$SPLINESEGS
 70
     4
  9
$ATTDIA
 70
     1
  9
$ATTREQ
 70
     1
  9
$HANDLING
 70
     1
  9
$HANDSEED
  5
492A
  9
$SURFTAB1
 70
     6
  9
$SURFTAB2
 70
     6
  9
$SURFTYPE
 70
     6
  9
$SURFU
 70
     6
  9
$SURFV
 70
     6
  9
$UCSNAME
  2

  9
$UCSORG
 10
0.0
 20
0.0
 30
0.0
  9
$UCSXDIR
 10
1.0
 20
0.0
 30
0.0
  9
$UCSYDIR
 10
0.0
 20
1.0
 30
0.0
  9
$PUCSNAME
  2

  9
$PUCSORG
 10
0.0
 20
0.0
 30
0.0
  9
$PUCSXDIR
 10
1.0
 20
0.0
 30
0.0
  9
$PUCSYDIR
 10
0.0
 20
1.0
 30
0.0
  9
$USERI1
 70
     1
  9
$USERI2
 70
     0
  9
$USERI3
 70
     0
  9
$USERI4
 70
     0
  9
$USERI5
 70
     0
  9
$USERR1
 40
0.0
  9
$USERR2
 40
0.0
  9
$USERR3
 40
0.0
  9
$USERR4
 40
0.0
  9
$USERR5
 40
0.0
  9
$WORLDVIEW
 70
     1
  9
$SHADEDGE
 70
     3
  9
$SHADEDIF
 70
    70
  9
$TILEMODE
 70
     1
  9
$MAXACTVP
 70
    16
  9
$PLIMCHECK
 70
     0
  9
$PEXTMIN
 10
1.0000000000000000E+020
 20
1.0000000000000000E+020
 30
1.0000000000000000E+020
  9
$PEXTMAX
 10
-1.0000000000000000E+020
 20
-1.0000000000000000E+020
 30
-1.0000000000000000E+020
  9
$PLIMMIN
 10
0.0
 20
0.0
  9
$PLIMMAX
 10
420.0
 20
297.0
  9
$UNITMODE
 70
     0
  9
$VISRETAIN
 70
     1
  9
$PLINEGEN
 70
     0
  9
$PSLTSCALE
 70
     1
  0
ENDSEC
  0
SECTION
  2
TABLES
  0
TABLE
  2
VPORT
 70
     1
  0
VPORT
  2
*ACTIVE
 70
     0
 10
0.0
 20
0.0
 11
1.0
 21
1.0
 12
20.146385734954858
 22
32.676192196235547
 13
0.0
 23
0.0
 14
7.0
 24
7.0
 15
7.0
 25
7.0
 16
0.0
 26
0.0
 36
1.0
 17
0.0
 27
0.0
 37
0.0
 40
174.28339684334159
 41
1.4355016538037479
 42
50.0
 43
0.0
 44
0.0
 50
0.0
 51
0.0
 71
     0
 72
  2000
 73
     1
 74
     0
 75
     1
 76
     1
 77
     0
 78
     0
  0
ENDTAB
  0
TABLE
  2
LTYPE
 70
    13
  0
LTYPE
  2
CONTINUOUS
 70
     0
  3
Solid line
 72
    65
 73
     0
 40
0.0
  0
LTYPE
  2
CENTER2
 70
     0
  3
___ _ ___ _ ___ _ ___ _ ___ _ ___ _ ___ _ ___ _
 72
    65
 73
     4
 40
1.125
 49
0.75
 49
-0.125
 49
0.125
 49
-0.125
  0
LTYPE
  2
HIDDEN2
 70
     0
  3
_ _ _ _ _ _ _ _ _ _ _ _ _ _ _ _ _ _ _ _ _ _ _ _
 72
    65
 73
     2
 40
0.1875
 49
0.125
 49
-0.0625
  0
LTYPE
  2
PHANTOM2
 70
     0
  3
___ _ _ ___ _ _ ___ _ _ ___ _ _ ___ _ _ ___ _ _
 72
    65
 73
     6
 40
1.25
 49
0.625
 49
-0.125
 49
0.125
 49
-0.125
 49
0.125
 49
-0.125
  0
LTYPE
  2
AM_ISO02W050
 70
     0
  3
__ __ __ __ __ __ __ __ __ __ __ __ __ __ __
 72
    65
 73
     2
 40
7.5
 49
6.0
 49
-1.5
  0
LTYPE
  2
AMCONSTR
 70
     0
  3
_______________________
 72
    65
 73
     2
 40
9999.0
 49
9999.0
 49
0.0
  0
LTYPE
  2
ACISOWELD
 70
     0
  3
_ _ _ _ _
 72
    65
 73
     2
 40
2.0
 49
2.0
 49
-1.0
  0
LTYPE
  2
ACISOTGB
 70
     0
  3
__ . . __ . .
 72
    65
 73
     6
 40
9.0
 49
4.0
 49
-1.0
 49
1.0
 49
-1.0
 49
1.0
 49
-1.0
  0
LTYPE
  2
ACISOTGL
 70
     0
  3
_ _ _ _ _
 72
    65
 73
     2
 40
3.0
 49
2.0
 49
-1.0
  0
LTYPE
  2
ACJISTGB
 70
     0
  3
__ . . __ . .
 72
    65
 73
     6
 40
9.0
 49
4.0
 49
-1.0
 49
1.0
 49
-1.0
 49
1.0
 49
-1.0
  0
LTYPE
  2
ACJISTGL
 70
     0
  3
_ _ _ _ _
 72
    65
 73
     2
 40
3.0
 49
2.0
 49
-1.0
  0
ENDTAB
  0
TABLE
  2
LAYER
 70
    10
  0
LAYER
  2
0
 70
     0
 62
     7
  6
CONTINUOUS
  0
LAYER
  2
DEFPOINTS
 70
     0
 62
     7
  6
CONTINUOUS
  0
LAYER
  2
245
 70
     0
 62
     2
  6
CENTER2
  0
LAYER
  2
240
 70
     0
 62
     4
  6
CONTINUOUS
  0
LAYER
  2
241
 70
     0
 62
   211
  6
CONTINUOUS
  0
LAYER
  2
242
 70
     0
 62
     3
  6
CONTINUOUS
  0
LAYER
  2
243
 70
     0
 62
   211
  6
HIDDEN2
  0
LAYER
  2
244
 70
     0
 62
     3
  6
HIDDEN2
  0
LAYER
  2
246
 70
     0
 62
     3
  6
PHANTOM2
  0
LAYER
  2
250
 70
     0
 62
     3
  6
CONTINUOUS
  0
ENDTAB
  0
TABLE
  2
STYLE
 70
     6
  0
STYLE
  2
STANDARD
 70
     0
 40
0.0
 41
1.0
 50
0.0
 71
     0
 42
3.0
  3
romans.shx
  4
extfont.shx
  0
STYLE
  2
ACISOTS
 70
     0
 40
1.0
 41
1.0
 50
0.0
 71
     0
 42
3.0
  3
amgdt.shx
  4
extfont.shx
  0
STYLE
  2
ACISOGDT
 70
     0
 40
0.0
 41
1.0
 50
0.0
 71
     0
 42
3.0
  3
amgdt.shx
  4
extfont.shx
  0
STYLE
  2
ACJISTS
 70
     0
 40
1.0
 41
1.0
 50
0.0
 71
     0
 42
3.0
  3
amgdt.shx
  4
extfont.shx
  0
STYLE
  2
ACJISGDT
 70
     0
 40
0.0
 41
1.0
 50
0.0
 71
     0
 42
3.0
  3
amgdt.shx
  4
extfont.shx
  0
STYLE
  2
YOKO
 70
     0
 40
0.0
 41
1.0
 50
0.0
 71
     0
 42
3.0
  3
romans.shx
  4
extfont.shx
  0
ENDTAB
  0
TABLE
  2
VIEW
 70
     0
  0
ENDTAB
  0
TABLE
  2
UCS
 70
     0
  0
ENDTAB
  0
TABLE
  2
APPID
 70
    35
  0
APPID
  2
ACAD
 70
     0
  0
APPID
  2
GLOBAL
 70
     0
  0
APPID
  2
DETAIL
 70
     0
  0
APPID
  2
GRPNAME
 70
     0
  0
APPID
  2
GPARA
 70
     0
  0
APPID
  2
MCAD_NO_VIS
 70
     0
  0
APPID
  2
ACAD_TEMP_GRAPHIC
 70
     0
  0
APPID
  2
ACATTRIBSERVICES
 70
     0
  0
APPID
  2
GENIUS_GENSCREG_15
 70
     0
  0
APPID
  2
GENIUS_GENODEF_13
 70
     0
  0
APPID
  2
GENIUS_GENOBJ-N-SDF_13
 70
     0
  0
APPID
  2
GENIUS_GENREC_14
 70
     0
  0
APPID
  2
GENIUS_GENOBJ-N-REC_13
 70
     0
  0
APPID
  2
GENIUS_GENDIMSH_14
 70
     0
  0
APPID
  2
GENIUS_GENOBJ-N-DIM_13
 70
     0
  0
APPID
  2
GENIUS_GENDIM_13
 70
     0
  0
APPID
  2
GENIUS_GENDTOL_13
 70
     0
  0
APPID
  2
GENIUS_GENOLIS_13
 70
     0
  0
APPID
  2
GENIUS_GENOENT_13
 70
     0
  0
APPID
  2
GENIUS_GENOBJ-F-FEM_13
 70
     0
  0
APPID
  2
GENIUS_GENOREF_13
 70
     0
  0
APPID
  2
GENIUS_GEFFEM_13
 70
     0
  0
APPID
  2
GENIUS_GEFFEMP_13
 70
     0
  0
APPID
  2
AD_DRAW
 70
     0
  0
APPID
  2
DESIGNERASSEMBLIES
 70
     0
  0
APPID
  2
ACADM_DIM_EDIT
 70
     0
  0
APPID
  2
AMDT_DM_ADJ
 70
     0
  0
APPID
  2
ITEMNAME
 70
     0
  0
APPID
  2
GENIUS_GENOBJ-N-FIL_13
 70
     0
  0
APPID
  2
GENIUS_GENFIL_13
 70
     0
  0
APPID
  2
GENIUS_GENOBJ-N-CHA_13
 70
     0
  0
APPID
  2
ACAD_NAV_VCDISPLAY
 70
     0
  0
APPID
  2
ACAD_DSTYLE_DIMINSPECT
 70
     0
  0
APPID
  2
ACAD_EXEMPT_FROM_CAD_STANDARDS
 70
     0
  0
APPID
  2
ACAD_MLEADERVER
 70
     0
  0
ENDTAB
  0
TABLE
  2
DIMSTYLE
 70
    23
  0
DIMSTYLE
  2
BIGT
 70
     0
  3

  4

  5
OPEN
  6

  7

 40
1.0
 41
2.2299999999999991
 42
0.5
 43
7.0
 44
1.0
 45
0.0
 46
0.0
 47
0.0
 48
0.01
140
2.7999999999999989
141
0.0
142
0.0
143
25.399999999999999
144
1.0
145
0.0
146
1.0
147
1.0
 71
     0
 72
     0
 73
     0
 74
     0
 75
     0
 76
     0
 77
     3
 78
     9
170
     0
171
     2
172
     1
173
     0
174
     1
175
     0
176
   256
177
   256
178
    40
  0
DIMSTYLE
  2
AM_ISO
 70
     0
  3

  4
"
  5

  6

  7

 40
1.0
 41
2.5
 42
1.0
 43
10.0
 44
1.0
 45
0.0
 46
0.0
 47
0.1
 48
0.1
140
3.5
141
0.0
142
0.0
143
0.0393701
144
1.0
145
0.0
146
0.71
147
1.5
 71
     0
 72
     0
 73
     0
 74
     0
 75
     0
 76
     0
 77
     1
 78
     8
170
     0
171
     2
172
     1
173
     0
174
     0
175
     0
176
   256
177
   256
178
     2
  0
DIMSTYLE
  2
AM_ISO$3
 70
     0
  3

  4
"
  5

  6

  7

 40
1.0
 41
2.5
 42
1.0
 43
10.0
 44
1.0
 45
0.0
 46
0.0
 47
0.1
 48
0.1
140
3.5
141
0.0
142
0.0
143
0.0393701
144
1.0
145
0.0
146
0.71
147
1.5
 71
     0
 72
     0
 73
     0
 74
     1
 75
     0
 76
     0
 77
     1
 78
     8
170
     0
171
     2
172
     0
173
     0
174
     0
175
     0
176
   256
177
   256
178
     2
  0
DIMSTYLE
  2
AM_ISO$4
 70
     0
  3

  4
"
  5

  6

  7

 40
1.0
 41
2.5
 42
1.0
 43
10.0
 44
1.0
 45
0.0
 46
0.0
 47
0.1
 48
0.1
140
3.5
141
0.0
142
0.0
143
0.0393701
144
1.0
145
0.0
146
0.71
147
1.5
 71
     0
 72
     0
 73
     0
 74
     1
 75
     0
 76
     0
 77
     1
 78
     8
170
     0
171
     2
172
     0
173
     0
174
     0
175
     0
176
   256
177
   256
178
     2
  0
DIMSTYLE
  2
AM_ISO$6
 70
     0
  3

  4
"
  5

  6

  7

 40
1.0
 41
2.5
 42
1.0
 43
10.0
 44
1.0
 45
0.0
 46
0.0
 47
0.1
 48
0.1
140
3.5
141
0.0
142
0.0
143
0.0393701
144
1.0
145
0.0
146
0.71
147
1.5
 71
     0
 72
     0
 73
     0
 74
     0
 75
     0
 76
     0
 77
     0
 78
     8
170
     0
171
     2
172
     1
173
     0
174
     0
175
     0
176
   256
177
   256
178
     2
  0
DIMSTYLE
  2
AM_ISO$7
 70
     0
  3

  4
"
  5

  6

  7

 40
1.0
 41
2.5
 42
1.0
 43
10.0
 44
1.0
 45
0.0
 46
0.0
 47
0.1
 48
0.1
140
5.0
141
0.0
142
0.0
143
0.0393701
144
1.0
145
0.0
146
0.71
147
1.5
 71
     0
 72
     0
 73
     0
 74
     0
 75
     0
 76
     0
 77
     1
 78
     8
170
     0
171
     2
172
     1
173
     0
174
     0
175
     0
176
   256
177
   256
178
     2
  0
DIMSTYLE
  2
AM_ISO$SF
 70
     0
  3

  4
"
  5

  6

  7

 40
1.0
 41
2.5
 42
1.0
 43
10.0
 44
1.0
 45
0.0
 46
0.0
 47
0.1
 48
0.1
140
3.5
141
0.0
142
0.0
143
0.0393701
144
1.0
145
0.0
146
0.71
147
1.5
 71
     0
 72
     0
 73
     0
 74
     0
 75
     1
 76
     1
 77
     1
 78
     8
170
     0
171
     2
172
     1
173
     0
174
     0
175
     0
176
   256
177
   256
178
     2
  0
DIMSTYLE
  2
AM_ISO$SH
 70
     0
  3

  4
"
  5

  6
GENAXEH
  7

 40
1.0
 41
2.5
 42
1.0
 43
10.0
 44
1.0
 45
0.0
 46
0.0
 47
0.1
 48
0.1
140
3.5
141
0.0
142
0.0
143
0.0393701
144
2.0
145
0.0
146
0.71
147
1.5
 71
     0
 72
     0
 73
     0
 74
     0
 75
     1
 76
     1
 77
     1
 78
     8
170
     0
171
     2
172
     1
173
     1
174
     0
175
     0
176
   256
177
   256
178
     2
  0
DIMSTYLE
  2
BIGT$2
 70
     0
  3

  4

  5
OPEN
  6

  7

 40
1.0
 41
2.2299999999999991
 42
0.5
 43
7.0
 44
1.0
 45
0.0
 46
0.0
 47
0.0
 48
0.01
140
2.7999999999999989
141
0.0
142
0.0
143
25.399999999999999
144
1.0
145
0.0
146
1.0
147
1.0
 71
     0
 72
     0
 73
     0
 74
     0
 75
     0
 76
     0
 77
     3
 78
     9
170
     0
171
     2
172
     1
173
     0
174
     0
175
     0
176
   256
177
   256
178
    40
  0
DIMSTYLE
  2
BIGT$3
 70
     0
  3

  4

  5
OPEN
  6

  7

 40
1.0
 41
2.2299999999999991
 42
0.5
 43
2.5
 44
1.0
 45
0.0
 46
0.0
 47
0.0
 48
0.01
140
2.7999999999999989
141
0.0
142
0.0
143
25.399999999999999
144
1.0
145
0.0
146
1.0
147
1.0
 71
     0
 72
     0
 73
     0
 74
     0
 75
     0
 76
     0
 77
     3
 78
     9
170
     0
171
     2
172
     1
173
     0
174
     0
175
     0
176
   256
177
   256
178
    40
  0
DIMSTYLE
  2
BIGT$7
 70
     0
  3

  4

  5
OPEN
  6

  7

 40
0.0
 41
2.2299999999999991
 42
0.5
 43
7.0
 44
1.0
 45
0.0
 46
0.0
 47
0.0
 48
0.01
140
2.7999999999999989
141
0.0
142
0.0
143
25.399999999999999
144
1.0
145
0.0
146
1.0
147
1.0
 71
     0
 72
     0
 73
     0
 74
     0
 75
     0
 76
     0
 77
     3
 78
     9
170
     0
171
     2
172
     0
173
     0
174
     0
175
     0
176
   256
177
   256
178
    40
  0
DIMSTYLE
  2
BIGT$6
 70
     0
  3

  4

  5
OPEN
  6

  7

 40
1.0
 41
2.2299999999999991
 42
0.5
 43
2.5
 44
1.0
 45
0.0
 46
0.0
 47
0.0
 48
0.01
140
2.7999999999999989
141
0.0
142
0.0
143
25.399999999999999
144
1.0
145
0.0
146
1.0
147
1.0
 71
     0
 72
     0
 73
     0
 74
     0
 75
     0
 76
     0
 77
     3
 78
     9
170
     0
171
     2
172
     1
173
     0
174
     0
175
     0
176
   256
177
   256
178
    40
  0
DIMSTYLE
  2
BIGT$0
 70
     0
  3

  4

  5
OPEN
  6

  7

 40
1.0
 41
2.2299999999999991
 42
0.5
 43
7.0
 44
1.0
 45
0.0
 46
0.0
 47
0.0
 48
0.01
140
2.7999999999999989
141
0.0
142
0.0
143
25.399999999999999
144
1.0
145
0.0
146
1.0
147
1.0
 71
     0
 72
     0
 73
     0
 74
     0
 75
     0
 76
     0
 77
     3
 78
     9
170
     0
171
     2
172
     1
173
     0
174
     1
175
     0
176
   256
177
   256
178
    40
  0
DIMSTYLE
  2
BIGT$4
 70
     0
  3

  4

  5
OPEN
  6

  7

 40
1.0
 41
2.2299999999999991
 42
0.5
 43
2.5
 44
1.0
 45
0.0
 46
0.0
 47
0.0
 48
0.01
140
2.7999999999999989
141
0.0
142
0.0
143
25.399999999999999
144
1.0
145
0.0
146
1.0
147
1.0
 71
     0
 72
     0
 73
     0
 74
     0
 75
     0
 76
     0
 77
     3
 78
     9
170
     0
171
     2
172
     1
173
     0
174
     0
175
     0
176
   256
177
   256
178
    40
  0
DIMSTYLE
  2
BIGT$SH
 70
     0
  3

  4

  5
OPEN
  6

  7

 40
1.0
 41
2.2299999999999991
 42
0.5
 43
7.0
 44
1.0
 45
0.0
 46
0.0
 47
0.0
 48
0.0
140
2.7999999999999989
141
0.0
142
0.0
143
25.399999999999999
144
1.0
145
0.0
146
1.0
147
1.0
 71
     0
 72
     0
 73
     0
 74
     0
 75
     0
 76
     0
 77
     3
 78
     9
170
     0
171
     2
172
     1
173
     0
174
     0
175
     0
176
   256
177
   256
178
    40
  0
DIMSTYLE
  2
BIGT$SF
 70
     0
  3

  4

  5
OPEN
  6

  7

 40
1.0
 41
2.2299999999999991
 42
0.5
 43
7.0
 44
1.0
 45
0.0
 46
0.0
 47
0.0
 48
0.0
140
2.7999999999999989
141
0.0
142
0.0
143
25.399999999999999
144
1.0
145
0.0
146
1.0
147
1.0
 71
     0
 72
     0
 73
     0
 74
     0
 75
     0
 76
     0
 77
     3
 78
     9
170
     0
171
     2
172
     1
173
     0
174
     0
175
     0
176
   256
177
   256
178
    40
  0
DIMSTYLE
  2
TECHNICAL_OSAKA
 70
     0
  3

  4
"
  5
OPEN30
  6

  7

 40
1.0
 41
2.5
 42
1.0
 43
10.0
 44
1.0
 45
0.0
 46
0.0
 47
0.1
 48
0.1
140
2.7999999999999989
141
0.0
142
0.0
143
0.0393701
144
1.0
145
0.0
146
0.71
147
1.5
 71
     0
 72
     0
 73
     0
 74
     0
 75
     0
 76
     0
 77
     3
 78
     8
170
     0
171
     2
172
     1
173
     0
174
     0
175
     0
176
   256
177
   256
178
    40
  0
DIMSTYLE
  2
TECHNICAL_OSAKA$3
 70
     0
  3

  4
"
  5
OPEN30
  6

  7

 40
1.0
 41
2.5
 42
1.0
 43
10.0
 44
1.0
 45
0.0
 46
0.0
 47
0.1
 48
0.1
140
2.7999999999999989
141
0.0
142
0.0
143
0.0393701
144
1.0
145
0.0
146
0.71
147
1.5
 71
     0
 72
     0
 73
     0
 74
     1
 75
     0
 76
     0
 77
     3
 78
     8
170
     0
171
     2
172
     0
173
     0
174
     0
175
     0
176
   256
177
   256
178
    40
  0
DIMSTYLE
  2
TECHNICAL_OSAKA$4
 70
     0
  3

  4
"
  5
OPEN30
  6

  7

 40
1.0
 41
2.5
 42
1.0
 43
10.0
 44
1.0
 45
0.0
 46
0.0
 47
0.1
 48
0.1
140
2.7999999999999989
141
0.0
142
0.0
143
0.0393701
144
1.0
145
0.0
146
0.71
147
1.5
 71
     0
 72
     0
 73
     0
 74
     1
 75
     0
 76
     0
 77
     3
 78
     8
170
     0
171
     2
172
     0
173
     0
174
     0
175
     0
176
   256
177
   256
178
    40
  0
DIMSTYLE
  2
TECHNICAL_OSAKA$6
 70
     0
  3

  4
"
  5
OPEN30
  6

  7

 40
1.0
 41
2.5
 42
1.0
 43
10.0
 44
1.0
 45
0.0
 46
0.0
 47
0.1
 48
0.1
140
2.7999999999999989
141
0.0
142
0.0
143
0.0393701
144
1.0
145
0.0
146
0.71
147
1.5
 71
     0
 72
     0
 73
     0
 74
     0
 75
     0
 76
     0
 77
     0
 78
     8
170
     0
171
     2
172
     1
173
     0
174
     0
175
     0
176
   256
177
   256
178
    40
  0
DIMSTYLE
  2
TECHNICAL_OSAKA$7
 70
     0
  3

  4
"
  5
OPEN30
  6

  7

 40
1.0
 41
2.5
 42
1.0
 43
10.0
 44
1.0
 45
0.0
 46
0.0
 47
0.1
 48
0.1
140
2.7999999999999989
141
0.0
142
0.0
143
0.0393701
144
1.0
145
0.0
146
0.71
147
1.5
 71
     0
 72
     0
 73
     0
 74
     0
 75
     0
 76
     0
 77
     3
 78
     8
170
     0
171
     2
172
     1
173
     0
174
     0
175
     0
176
   256
177
   256
178
    40
  0
DIMSTYLE
  2
TECHNICAL_OSAKA$SF
 70
     0
  3

  4
"
  5
OPEN30
  6
OPEN30
  7
OPEN30
 40
1.0
 41
2.5
 42
1.0
 43
10.0
 44
1.0
 45
0.0
 46
0.0
 47
0.1
 48
0.1
140
3.5
141
0.0
142
0.0
143
0.0393701
144
1.0
145
0.0
146
0.71
147
1.5
 71
     0
 72
     0
 73
     0
 74
     0
 75
     1
 76
     1
 77
     3
 78
     8
170
     0
171
     2
172
     1
173
     0
174
     0
175
     0
176
   256
177
   256
178
    40
  0
DIMSTYLE
  2
TECHNICAL_OSAKA$SH
 70
     0
  3

  4
"
  5
OPEN30
  6
GENAXEH
  7
OPEN30
 40
1.0
 41
2.5
 42
1.0
 43
10.0
 44
1.0
 45
0.0
 46
0.0
 47
0.1
 48
0.1
140
3.5
141
0.0
142
0.0
143
0.0393701
144
2.0
145
0.0
146
0.71
147
1.5
 71
     0
 72
     0
 73
     0
 74
     0
 75
     1
 76
     1
 77
     3
 78
     8
170
     0
171
     2
172
     1
173
     1
174
     0
175
     0
176
   256
177
   256
178
    40
  0
ENDTAB
  0
ENDSEC
  0
SECTION
  2
BLOCKS
  0
BLOCK
  8
0
  2
$MODEL_SPACE
 70
     0
 10
0.0
 20
0.0
 30
0.0
  3
$MODEL_SPACE
  1

  0
ENDBLK
  5
1C
  8
0
  0
BLOCK
 67
     1
  8
0
  2
$PAPER_SPACE
 70
     0
 10
0.0
 20
0.0
 30
0.0
  3
$PAPER_SPACE
  1

  0
ENDBLK
  5
19
 67
     1
  8
0
  0
BLOCK
  8
0
  2
_OPEN
 70
     0
 10
0.0
 20
0.0
 30
0.0
  3
_OPEN
  1

  0
LINE
  5
4831
  8
0
  6
BYBLOCK
 62
     0
 10
-1.0
 20
0.1666666666666666
 30
0.0
 11
0.0
 21
0.0
 31
0.0
  0
LINE
  5
4832
  8
0
  6
BYBLOCK
 62
     0
 10
-1.0
 20
-0.1666666666666666
 30
0.0
 11
0.0
 21
0.0
 31
0.0
  0
LINE
  5
4833
  8
0
  6
BYBLOCK
 62
     0
 10
0.0
 20
0.0
 30
0.0
 11
-1.0
 21
0.0
 31
0.0
  0
ENDBLK
  5
4834
  8
0
  0
BLOCK
  8
0
  2
GENAXEH
 70
     0
 10
0.0
 20
0.0
 30
0.0
  3
GENAXEH
  1

  0
LINE
  5
486C
  8
0
 10
-1.0
 20
0.0
 30
0.0
 11
1.0
 21
0.0
 31
0.0
  0
ENDBLK
  5
486D
  8
0
  0
BLOCK
  8
0
  2
_OPEN30
 70
     0
 10
0.0
 20
0.0
 30
0.0
  3
_OPEN30
  1

  0
LINE
  5
48A8
  8
0
  6
BYBLOCK
 62
     0
 10
-1.0
 20
0.26794919
 30
0.0
 11
0.0
 21
0.0
 31
0.0
  0
LINE
  5
48A9
  8
0
  6
BYBLOCK
 62
     0
 10
0.0
 20
0.0
 30
0.0
 11
-1.0
 21
-0.26794919
 31
0.0
  0
LINE
  5
48AA
  8
0
  6
BYBLOCK
 62
     0
 10
0.0
 20
0.0
 30
0.0
 11
-1.0
 21
0.0
 31
0.0
  0
ENDBLK
  5
48AB
  8
0
  0
ENDSEC
  0
SECTION
  2
ENTITIES
  0
LINE
  5
435F
  8
240
 10
38.000000000000682
 20
34.99999999999924
 30
0.0
 11
38.500000000000682
 21
34.499999999999233
 31
0.0
1001
GENIUS_GENFIL_13
1070
     0
1040
0.5
1040
0.5
1040
0.2500000000000284
1040
45.00000000000162
1002
{
1002
}
1001
GENIUS_GENOBJ-N-CHA_13
1002
{
1000
OWNER
1000
GEN
1002
}
1001
GENIUS_GENODEF_13
1002
{
1000
HIER
1070
     0
1002
}
1002
{
1000
MANEDIT
1070
     0
1002
}
1002
{
1000
NOSEL
1070
     0
1002
}
1002
{
1000
BEHIND
1070
     0
1002
}
1002
{
1000
OTHER
1070
     0
1002
}
1002
{
1000
REACTOR
1002
}
  0
LINE
  5
4360
  8
240
 10
38.000000000000682
 20
-35.000000000000881
 30
0.0
 11
38.500000000000682
 21
-34.500000000000881
 31
0.0
1001
GENIUS_GENFIL_13
1070
     0
1040
0.5
1040
0.5
1040
0.2500000000000284
1040
45.00000000000162
1002
{
1002
}
1001
GENIUS_GENOBJ-N-CHA_13
1002
{
1000
OWNER
1000
GEN
1002
}
1001
GENIUS_GENODEF_13
1002
{
1000
HIER
1070
     0
1002
}
1002
{
1000
MANEDIT
1070
     0
1002
}
1002
{
1000
NOSEL
1070
     0
1002
}
1002
{
1000
BEHIND
1070
     0
1002
}
1002
{
1000
OTHER
1070
     0
1002
}
1002
{
1000
REACTOR
1002
}
  0
LINE
  5
4361
  8
241
 10
38.0
 20
-35.000000000001513
 30
0.0
 11
38.000000000001393
 21
34.999999999998529
 31
0.0
  0
LINE
  5
4365
  8
250
 10
-50.782972670372892
 20
-43.570345964537736
 30
0.0
 11
-69.782972670372885
 21
-43.570345964537736
 31
0.0
1001
ITEMNAME
1000
LNSP2
  0
LINE
  5
436B
  8
243
 10
34.0
 20
35.400000000000183
 30
0.0
 11
34.0
 21
50.000000000000028
 31
0.0
  0
LINE
  5
436C
  8
243
 10
34.0
 20
35.400000000000183
 30
0.0
 11
1.4999999999984079
 21
35.400000000000148
 31
0.0
  0
LINE
  5
436D
  8
243
 10
34.0
 20
-35.399999999999842
 30
0.0
 11
1.4999999999984079
 21
-35.399999999999821
 31
0.0
  0
LINE
  5
436E
  8
243
 10
34.0
 20
-35.399999999999842
 30
0.0
 11
33.999999999999773
 21
-50.0
 31
0.0
  0
LINE
  5
4382
  8
241
 10
0.0
 20
34.925000000000068
 30
0.0
 11
0.0
 21
-34.924999999999962
 31
0.0
  0
LINE
  5
4383
  8
241
 10
1.4999999999984079
 20
-34.924999999999962
 30
0.0
 11
1.4999999999992359
 21
34.925000000000068
 31
0.0
  0
ARC
  5
4384
  8
240
 10
36.700000000000621
 20
48.70000000000001
 30
0.0
 40
1.3000000000000109
 50
0.0
 51
90.0
  0
LINE
  5
4385
  8
240
 10
38.000000000000632
 20
48.70000000000001
 30
0.0
 11
38.000000000000632
 21
34.99999999999924
 31
0.0
  0
ARC
  5
4386
  8
240
 10
36.699999999999818
 20
-48.700000000000102
 30
0.0
 40
1.3000000000000109
 50
270.0
 51
0.0
  0
LINE
  5
4387
  8
240
 10
37.999999999999829
 20
-48.700000000000102
 30
0.0
 11
38.000000000000057
 21
-35.000000000001521
 31
0.0
  0
LINE
  5
4388
  8
240
 10
0.0
 20
-34.924999999999962
 30
0.0
 11
-99.917475164758002
 21
-20.35370153847273
 31
0.0
  0
LINE
  5
4389
  8
240
 10
0.0
 20
34.925000000000068
 30
0.0
 11
-99.917475164757775
 21
20.35370153847288
 31
0.0
  0
ARC
  5
438E
  8
240
 10
2.4999999999984079
 20
-49.00000000000005
 30
0.0
 40
1.0
 50
179.9999999999967
 51
270.0
  0
LINE
  5
438F
  8
240
 10
1.500000000000113
 20
40.000000000000107
 30
0.0
 11
1.500000000000113
 21
49.000000000000028
 31
0.0
  0
ARC
  5
4390
  8
240
 10
2.5000000000001128
 20
49.000000000000028
 30
0.0
 40
1.0
 50
90.0
 51
180.0
  0
LINE
  5
4392
  8
240
 10
1.4999999999992359
 20
34.925000000000068
 30
0.0
 11
1.5000000000009941
 21
39.999999999999233
 31
0.0
  0
LINE
  5
4393
  8
240
 10
1.4999999999984079
 20
-49.0
 30
0.0
 11
1.4999999999984079
 21
-34.924999999999962
 31
0.0
  0
LINE
  5
4396
  8
245
 10
130.74940502236319
 20
-0.0000000000013074
 30
0.0
 11
-104.3360820532293
 21
0.0000000000010648
 31
0.0
  0
LINE
  5
4399
  8
241
 10
15.66269223573061
 20
0.0000000000029274
 30
0.0
 11
15.662692235739961
 21
49.826794919247646
 31
0.0
  0
LINE
  5
439A
  8
241
 10
19.992819254652598
 20
0.0000000000021316
 30
0.0
 11
19.992819254660589
 21
42.555051025723493
 31
0.0
  0
LINE
  5
439B
  8
241
 10
26.407180745348398
 20
0.0000000000009379
 30
0.0
 11
26.407180745356388
 21
42.555051025721781
 31
0.0
  0
LINE
  5
439C
  8
241
 10
30.73730776427033
 20
0.0000000000000853
 30
0.0
 11
30.737307764279681
 21
49.826794919238722
 31
0.0
  0
LINE
  5
439D
  8
240
 10
30.587307764271539
 20
49.740192378865153
 30
0.0
 11
26.49378328572692
 21
42.649999999999316
 31
0.0
  0
LINE
  5
439E
  8
240
 10
31.037307764271532
 20
50.000000000000419
 30
0.0
 11
30.587307764271539
 21
49.740192378865153
 31
0.0
  0
LINE
  5
439F
  8
240
 10
26.233975664591579
 20
42.499999999999353
 30
0.0
 11
20.166024335409471
 21
42.499999999999453
 31
0.0
  0
ARC
  5
43A0
  8
240
 10
26.233975664591579
 20
42.799999999999358
 30
0.0
 40
0.3
 50
270.0
 51
329.99999999999812
  0
LINE
  5
43A1
  8
240
 10
36.700000000000621
 20
50.000000000000199
 30
0.0
 11
31.03730776427108
 21
50.000000000000142
 31
0.0
  0
LINE
  5
43A2
  8
240
 10
19.906216714274141
 20
42.64999999999943
 30
0.0
 11
15.81269223573093
 21
49.740192378863661
 31
0.0
  0
LINE
  5
43A3
  8
240
 10
15.36269223573095
 20
49.999999999999062
 30
0.0
 11
15.81269223573093
 21
49.740192378863661
 31
0.0
  0
ARC
  5
43A4
  8
240
 10
20.166024335409471
 20
42.799999999999457
 30
0.0
 40
0.3
 50
209.99999999999969
 51
270.0
  0
LINE
  5
43A5
  8
240
 10
2.5000000000001128
 20
50.000000000000199
 30
0.0
 11
15.3626922357289
 21
50.000000000000249
 31
0.0
  0
LINE
  5
43A6
  8
241
 10
30.73730776427033
 20
0.0000000000000284
 30
0.0
 11
30.73730776427033
 21
-49.826794919238587
 31
0.0
  0
LINE
  5
43A7
  8
241
 10
26.407180745348398
 20
0.0000000000000284
 30
0.0
 11
26.407180745348398
 21
-42.5550510257208
 31
0.0
  0
LINE
  5
43A8
  8
240
 10
26.23397566459187
 20
-42.499999999999282
 30
0.0
 11
20.166024335409759
 21
-42.499999999999439
 31
0.0
  0
LINE
  5
43A9
  8
240
 10
30.58730776427188
 20
-49.740192378865082
 30
0.0
 11
26.493783285727211
 21
-42.649999999999309
 31
0.0
  0
LINE
  5
43AA
  8
240
 10
31.037307764271869
 20
-50.000000000000348
 30
0.0
 11
30.58730776427188
 21
-49.740192378865082
 31
0.0
  0
ARC
  5
43AB
  8
240
 10
26.23397566459187
 20
-42.799999999999343
 30
0.0
 40
0.3
 50
30.00000000000195
 51
90.0
  0
LINE
  5
43AC
  8
240
 10
36.699999999999818
 20
-49.999999999999957
 30
0.0
 11
31.03730776427102
 21
-49.999999999999837
 31
0.0
  0
LINE
  5
43AD
  8
241
 10
19.992819254652598
 20
0.0000000000000284
 30
0.0
 11
19.992819254652598
 21
-42.555051025721312
 31
0.0
  0
LINE
  5
43AE
  8
240
 10
19.906216714274422
 20
-42.64999999999948
 30
0.0
 11
15.81269223573128
 21
-49.740192378863711
 31
0.0
  0
ARC
  5
43AF
  8
240
 10
20.166024335409759
 20
-42.799999999999457
 30
0.0
 40
0.3
 50
90.0
 51
149.99999999999801
  0
LINE
  5
43B0
  8
241
 10
15.66269223573061
 20
0.0000000000000284
 30
0.0
 11
15.66269223573061
 21
-49.826794919244684
 31
0.0
  0
LINE
  5
43B1
  8
240
 10
15.362692235731281
 20
-49.999999999999041
 30
0.0
 11
15.81269223573128
 21
-49.740192378863711
 31
0.0
  0
LINE
  5
43B2
  8
240
 10
2.4999999999984079
 20
-49.999999999999837
 30
0.0
 11
15.362692235729471
 21
-50.000000000000128
 31
0.0
  0
LINE
  5
43B3
  8
240
 10
-101.8
 20
18.176728980133898
 30
0.0
 11
-101.8
 21
-0.0000000000001421
 31
0.0
  0
LINE
  5
43B5
  8
240
 10
-101.8
 20
-0.0000000000001421
 30
0.0
 11
-101.8000000000001
 21
-18.176728980133131
 31
0.0
  0
ARC
  5
43B7
  8
240
 10
-99.600000000000151
 20
-18.176728980133159
 30
0.0
 40
2.2000000000000002
 50
180.0
 51
261.70285503016129
1001
GENIUS_GENODEF_13
1002
{
1000
HIER
1070
     0
1002
}
1002
{
1000
MANEDIT
1070
     0
1002
}
1002
{
1000
NOSEL
1070
     0
1002
}
1002
{
1000
BEHIND
1070
     0
1002
}
1002
{
1000
OTHER
1070
     0
1002
}
1002
{
1000
REACTOR
1002
}
1001
GENIUS_GENOBJ-N-FIL_13
1002
{
1000
OWNER
1000
GEN
1002
}
  0
ARC
  5
43B8
  8
240
 10
-99.600000000000023
 20
18.176728980133898
 30
0.0
 40
2.2000000000000002
 50
98.297144969835202
 51
180.0
1001
GENIUS_GENOBJ-N-FIL_13
1002
{
1000
OWNER
1000
GEN
1002
}
1001
GENIUS_GENODEF_13
1002
{
1000
HIER
1070
     0
1002
}
1002
{
1000
MANEDIT
1070
     0
1002
}
1002
{
1000
NOSEL
1070
     0
1002
}
1002
{
1000
BEHIND
1070
     0
1002
}
1002
{
1000
OTHER
1070
     0
1002
}
1002
{
1000
REACTOR
1002
}
  0
ARC
  5
43BE
  8
240
 10
100.5000000000008
 20
-19.000000000001162
 30
0.0
 40
1.0
 50
90.0
 51
180.0
  0
LINE
  5
43BF
  8
240
 10
100.5000000000008
 20
-18.000000000001162
 30
0.0
 11
104.0000000000008
 21
-18.000000000001162
 31
0.0
  0
ARC
  5
43C0
  8
240
 10
100.5000000000008
 20
18.999999999998831
 30
0.0
 40
1.0
 50
180.0
 51
270.0
  0
LINE
  5
43C1
  8
240
 10
100.5000000000008
 20
17.999999999998831
 30
0.0
 11
104.0000000000008
 21
17.999999999998831
 31
0.0
  0
LINE
  5
43C2
  8
240
 10
104.0000000000008
 20
19.499999999998831
 30
0.0
 11
104.5000000000008
 21
19.999999999998831
 31
0.0
  0
LINE
  5
43C3
  8
240
 10
104.0000000000008
 20
-19.500000000001162
 30
0.0
 11
104.5000000000008
 21
-20.000000000001169
 31
0.0
  0
LINE
  5
43C4
  8
240
 10
104.5000000000008
 20
-22.000000000001162
 30
0.0
 11
104.5000000000008
 21
-20.000000000001169
 31
0.0
  0
LINE
  5
43C5
  8
240
 10
104.5000000000008
 20
21.999999999998831
 30
0.0
 11
104.5000000000008
 21
19.999999999998831
 31
0.0
  0
ARC
  5
43C6
  8
240
 10
105.5000000000008
 20
21.999999999998831
 30
0.0
 40
1.0
 50
90.0
 51
180.0
  0
ARC
  5
43C7
  8
240
 10
105.5000000000008
 20
-22.000000000001162
 30
0.0
 40
1.0
 50
180.0
 51
270.0
  0
LINE
  5
43C8
  8
240
 10
105.5000000000008
 20
22.999999999998831
 30
0.0
 11
118.0857864376277
 21
22.999999999998831
 31
0.0
  0
ARC
  5
43C9
  8
240
 10
118.0857864376277
 20
21.999999999998831
 30
0.0
 40
1.000000000000028
 50
45.000000000001151
 51
90.0
  0
LINE
  5
43CA
  8
240
 10
105.5000000000008
 20
-23.000000000001169
 30
0.0
 11
118.0857864376277
 21
-23.000000000001169
 31
0.0
  0
ARC
  5
43CB
  8
240
 10
118.0857864376277
 20
-22.000000000001162
 30
0.0
 40
0.9999999999999857
 50
270.0
 51
314.99999999999881
  0
LINE
  5
43CC
  8
240
 10
119.7363961030687
 20
21.763603896930992
 30
0.0
 11
118.7928932188142
 21
22.707106781185409
 31
0.0
  0
LINE
  5
43CD
  8
240
 10
120.0000000000008
 20
-0.0000000000011653
 30
0.0
 11
120.0000000000008
 21
21.127207793863079
 31
0.0
  0
ARC
  5
43CE
  8
240
 10
119.1000000000008
 20
21.127207793863079
 30
0.0
 40
0.9000000000000056
 50
0.0
 51
45.000000000001151
  0
LINE
  5
43CF
  8
240
 10
120.0000000000008
 20
-0.0000000000011653
 30
0.0
 11
120.0000000000008
 21
-21.127207793865349
 31
0.0
  0
LINE
  5
43D0
  8
240
 10
118.7928932188142
 20
-22.707106781187719
 30
0.0
 11
119.7363961030687
 21
-21.763603896933262
 31
0.0
  0
ARC
  5
43D1
  8
240
 10
119.1000000000008
 20
-21.127207793865349
 30
0.0
 40
0.9000000000000031
 50
314.99999999999881
 51
0.0
  0
LINE
  5
43D2
  8
240
 10
104.0000000000008
 20
-18.000000000001162
 30
0.0
 11
104.0000000000008
 21
-19.500000000001162
 31
0.0
  0
LINE
  5
43D3
  8
240
 10
104.0000000000008
 20
19.499999999998831
 30
0.0
 11
104.0000000000008
 21
17.999999999998831
 31
0.0
  0
LINE
  5
43D4
  8
241
 10
101.5000000000007
 20
17.499999999998831
 30
0.0
 11
101.0000000000007
 21
17.999999999998831
 31
0.0
  0
LINE
  5
43D5
  8
241
 10
101.5000000000008
 20
17.499999999998831
 30
0.0
 11
101.5000000000008
 21
-0.0000000000011653
 31
0.0
  0
LINE
  5
43D6
  8
241
 10
101.5000000000008
 20
-17.500000000001162
 30
0.0
 11
101.5000000000008
 21
-0.0000000000011653
 31
0.0
  0
LINE
  5
43D7
  8
241
 10
101.5000000000007
 20
-17.500000000001162
 30
0.0
 11
101.0000000000007
 21
-18.000000000001162
 31
0.0
  0
LINE
  5
43D8
  8
241
 10
105.5000000000008
 20
-20.843134832985609
 30
0.0
 11
105.5000000000008
 21
-23.000000000001169
 31
0.0
  0
LINE
  5
43D9
  8
241
 10
105.5000000000008
 20
-18.843134832985641
 30
0.0
 11
105.5000000000008
 21
-2.0000000000011648
 31
0.0
  0
LINE
  5
43DA
  8
241
 10
105.5000000000008
 20
18.843134832983338
 30
0.0
 11
105.5000000000008
 21
1.999999999998834
 31
0.0
  0
LINE
  5
43DB
  8
241
 10
105.5000000000008
 20
20.84313483298331
 30
0.0
 11
105.5000000000008
 21
22.999999999998831
 31
0.0
  0
LINE
  5
43DC
  8
241
 10
104.5000000000008
 20
-0.0000000000011653
 30
0.0
 11
104.5000000000008
 21
-20.000000000001169
 31
0.0
  0
LINE
  5
43DD
  8
241
 10
104.5000000000008
 20
-0.0000000000011653
 30
0.0
 11
104.5000000000008
 21
19.999999999998831
 31
0.0
  0
LINE
  5
43DE
  8
241
 10
118.0857864376277
 20
22.213812677387669
 30
0.0
 11
118.0857864376277
 21
-22.34626300851582
 31
0.0
  0
LINE
  5
43DF
  8
241
 10
99.50000000000081
 20
18.999999999998831
 30
0.0
 11
99.50000000000081
 21
-0.0000000000011653
 31
0.0
  0
LINE
  5
43E0
  8
241
 10
99.50000000000081
 20
-19.000000000001162
 30
0.0
 11
99.50000000000081
 21
-0.0000000000011653
 31
0.0
  0
LINE
  5
43E1
  8
241
 10
104.0000000000008
 20
17.999999999998831
 30
0.0
 11
104.0000000000008
 21
-18.000000000001162
 31
0.0
  0
LINE
  5
43E2
  8
241
 10
113.5000000000008
 20
-2.0000000000011648
 30
0.0
 11
104.5000000000008
 21
-2.0000000000011648
 31
0.0
  0
LINE
  5
43E3
  8
241
 10
113.5000000000008
 20
1.999999999998834
 30
0.0
 11
104.5000000000008
 21
1.999999999998834
 31
0.0
  0
LINE
  5
43E4
  8
241
 10
113.5000000000008
 20
1.999999999998834
 30
0.0
 11
113.5000000000008
 21
-0.0000000000011653
 31
0.0
  0
LINE
  5
43E5
  8
241
 10
113.5000000000008
 20
-2.0000000000011648
 30
0.0
 11
113.5000000000008
 21
-0.0000000000011653
 31
0.0
  0
LINE
  5
43E6
  8
241
 10
113.5000000000008
 20
20.84313483298331
 30
0.0
 11
104.5000000000008
 21
20.84313483298331
 31
0.0
  0
LINE
  5
43E7
  8
241
 10
113.5000000000008
 20
18.843134832983338
 30
0.0
 11
104.5000000000008
 21
18.843134832983338
 31
0.0
  0
LINE
  5
43E8
  8
241
 10
113.5000000000008
 20
20.84313483298331
 30
0.0
 11
113.5000000000008
 21
18.843134832983338
 31
0.0
  0
LINE
  5
43E9
  8
241
 10
113.5000000000008
 20
-20.843134832985609
 30
0.0
 11
104.5000000000008
 21
-20.843134832985609
 31
0.0
  0
LINE
  5
43EA
  8
241
 10
113.5000000000008
 20
-18.843134832985641
 30
0.0
 11
104.5000000000008
 21
-18.843134832985641
 31
0.0
  0
LINE
  5
43EB
  8
241
 10
113.5000000000008
 20
-20.843134832985609
 30
0.0
 11
113.5000000000008
 21
-18.843134832985641
 31
0.0
  0
LINE
  5
43EC
  8
242
 10
104.0000000000008
 20
17.499999999998831
 30
0.0
 11
101.5000000000008
 21
17.499999999998831
 31
0.0
  0
LINE
  5
43ED
  8
242
 10
104.0000000000008
 20
-17.500000000001162
 30
0.0
 11
101.5000000000008
 21
-17.500000000001162
 31
0.0
  0
LINE
  5
43F0
  8
246
 10
62.000000000000803
 20
9.4999999999988916
 30
0.0
 11
54.809401076759229
 21
2.3094010767573532
 31
0.0
  0
LINE
  5
43F1
  8
246
 10
54.809401076759229
 20
1.1547005383780791
 30
0.0
 11
50.398717474236321
 21
1.1547005383780791
 31
0.0
  0
LINE
  5
43F2
  8
246
 10
54.809401076759229
 20
2.3094010767573252
 30
0.0
 11
50.398717474236321
 21
2.3094010767573532
 31
0.0
  0
LINE
  5
43F3
  8
246
 10
50.000000000000789
 20
2.9999999999988338
 30
0.0
 11
50.398717474236321
 21
2.3094010767573252
 31
0.0
  0
LINE
  5
43F4
  8
246
 10
50.000000000000789
 20
1.7123935666970449
 30
0.0
 11
50.000000000000789
 21
2.9999999999988338
 31
0.0
  0
ARC
  5
43F5
  8
246
 10
43.000000000000789
 20
8.7499999999988347
 30
0.0
 40
1.0
 50
90.0
 51
180.0
  0
LINE
  5
43F6
  8
246
 10
43.000000000000789
 20
9.7499999999988347
 30
0.0
 11
47.000000000000803
 21
9.7499999999988347
 31
0.0
  0
LINE
  5
43F9
  8
246
 10
62.000000000000803
 20
-9.5000000000011937
 30
0.0
 11
54.809401076759229
 21
-2.3094010767596549
 31
0.0
  0
LINE
  5
43FA
  8
246
 10
54.809401076759229
 20
-1.1547005383804101
 30
0.0
 11
50.398717474236321
 21
-1.1547005383804101
 31
0.0
  0
LINE
  5
43FB
  8
246
 10
54.809401076759229
 20
-2.3094010767596549
 30
0.0
 11
50.398717474236321
 21
-2.3094010767596549
 31
0.0
  0
LINE
  5
43FC
  8
243
 10
50.000000000000789
 20
-3.0000000000011648
 30
0.0
 11
50.398717474236321
 21
-2.3094010767596549
 31
0.0
  0
LINE
  5
43FD
  8
243
 10
50.000000000000789
 20
-1.712393566699375
 30
0.0
 11
50.000000000000789
 21
-3.0000000000011648
 31
0.0
  0
LINE
  5
43FE
  8
246
 10
43.000000000000789
 20
-9.7500000000011653
 30
0.0
 11
47.000000000000803
 21
-9.7500000000011653
 31
0.0
  0
LINE
  5
43FF
  8
246
 10
114.4000000000007
 20
-14.25000000000113
 30
0.0
 11
82.000000000000796
 21
-10.844622777393219
 31
0.0
  0
LINE
  5
4400
  8
246
 10
114.4000000000007
 20
-12.50000000000116
 30
0.0
 11
114.4000000000007
 21
-14.25000000000113
 31
0.0
  0
LINE
  5
4401
  8
246
 10
116.80000000000079
 20
-14.25000000000116
 30
0.0
 11
117.0000000000008
 21
-14.25000000000116
 31
0.0
  0
LINE
  5
4402
  8
246
 10
117.0000000000008
 20
-14.25000000000116
 30
0.0
 11
120.0000000000008
 21
-12.517949192432271
 31
0.0
  0
LINE
  5
4403
  8
246
 10
116.80000000000069
 20
-12.50000000000116
 30
0.0
 11
116.80000000000079
 21
-14.25000000000116
 31
0.0
  0
LINE
  5
4404
  8
246
 10
114.4000000000007
 20
-12.50000000000116
 30
0.0
 11
116.80000000000069
 21
-12.50000000000116
 31
0.0
  0
LINE
  5
4405
  8
246
 10
120.0000000000008
 20
-10.00000000000116
 30
0.0
 11
82.000000000000796
 21
-10.00000000000116
 31
0.0
  0
LINE
  5
4406
  8
246
 10
114.4000000000007
 20
14.249999999998829
 30
0.0
 11
82.000000000000796
 21
10.844622777390921
 31
0.0
  0
LINE
  5
4407
  8
246
 10
114.4000000000007
 20
12.499999999998829
 30
0.0
 11
114.4000000000007
 21
14.249999999998829
 31
0.0
  0
LINE
  5
4408
  8
246
 10
116.80000000000079
 20
14.249999999998829
 30
0.0
 11
117.0000000000008
 21
14.249999999998829
 31
0.0
  0
LINE
  5
4409
  8
246
 10
117.0000000000008
 20
14.249999999998829
 30
0.0
 11
120.0000000000008
 21
12.51794919242994
 31
0.0
  0
LINE
  5
440A
  8
246
 10
116.80000000000069
 20
12.499999999998829
 30
0.0
 11
116.80000000000079
 21
14.249999999998829
 31
0.0
  0
LINE
  5
440B
  8
246
 10
114.4000000000007
 20
12.499999999998829
 30
0.0
 11
116.80000000000069
 21
12.499999999998829
 31
0.0
  0
LINE
  5
440C
  8
246
 10
120.0000000000008
 20
9.9999999999988347
 30
0.0
 11
82.000000000000796
 21
9.9999999999988347
 31
0.0
  0
LINE
  5
440D
  8
243
 10
112.0000000000008
 20
17.499999999998831
 30
0.0
 11
111.5000000000008
 21
17.999999999998831
 31
0.0
  0
LINE
  5
440E
  8
243
 10
104.0000000000008
 20
17.999999999998831
 30
0.0
 11
111.5000000000008
 21
17.999999999998831
 31
0.0
  0
LINE
  5
440F
  8
243
 10
112.0000000000008
 20
-17.500000000001162
 30
0.0
 11
111.5000000000008
 21
-18.000000000001162
 31
0.0
  0
LINE
  5
4410
  8
243
 10
104.0000000000008
 20
-18.000000000001162
 30
0.0
 11
111.5000000000008
 21
-18.000000000001162
 31
0.0
  0
LINE
  5
4412
  8
246
 10
47.000000000000803
 20
9.7499999999988347
 30
0.0
 11
47.750000000000789
 21
10.499999999998829
 31
0.0
  0
LINE
  5
4413
  8
246
 10
47.000000000000803
 20
-9.7500000000011653
 30
0.0
 11
47.750000000000789
 21
-10.50000000000116
 31
0.0
  0
LINE
  5
4416
  8
246
 10
50.398717474236321
 20
-2.3094010767596549
 30
0.0
 11
50.398717474236321
 21
2.3094010767573532
 31
0.0
  0
LINE
  5
4417
  8
246
 10
54.809401076759229
 20
-2.3094010767596549
 30
0.0
 11
54.809401076759229
 21
2.3094010767573252
 31
0.0
  0
LINE
  5
4419
  8
246
 10
82.000000000000796
 20
-10.844622777393219
 30
0.0
 11
82.000000000000796
 21
10.844622777390921
 31
0.0
  0
LINE
  5
441C
  8
246
 10
61.3000000000008
 20
-10.50000000000116
 30
0.0
 11
62.000000000000803
 21
-9.8000000000011482
 31
0.0
  0
LINE
  5
441D
  8
246
 10
62.000000000000803
 20
-9.8000000000011482
 30
0.0
 11
62.000000000000803
 21
9.7999999999988461
 31
0.0
  0
LINE
  5
441E
  8
246
 10
62.000000000000803
 20
9.7999999999988461
 30
0.0
 11
61.3000000000008
 21
10.499999999998829
 31
0.0
  0
LINE
  5
441F
  8
246
 10
47.750000000000789
 20
10.499999999998829
 30
0.0
 11
61.3000000000008
 21
10.499999999998829
 31
0.0
  0
LINE
  5
4421
  8
246
 10
47.750000000000789
 20
-10.50000000000116
 30
0.0
 11
61.3000000000008
 21
-10.50000000000116
 31
0.0
  0
LINE
  5
4423
  8
246
 10
42.000000000000803
 20
8.7499999999988347
 30
0.0
 11
42.000000000000803
 21
-8.7500000000011653
 31
0.0
  0
ARC
  5
4424
  8
246
 10
43.000000000000789
 20
-8.7500000000011653
 30
0.0
 40
1.0
 50
180.0
 51
270.0
  0
LINE
  5
4425
  8
246
 10
50.000000000000789
 20
2.9999999999988338
 30
0.0
 11
42.000000000000803
 21
2.9999999999988338
 31
0.0
  0
LINE
  5
4426
  8
246
 10
50.000000000000789
 20
-3.0000000000011648
 30
0.0
 11
42.000000000000803
 21
-3.0000000000011648
 31
0.0
  0
LINE
  5
4427
  8
243
 10
112.0000000000008
 20
-17.500000000001162
 30
0.0
 11
112.0000000000008
 21
-13.997749835363519
 31
0.0
  0
LINE
  5
4428
  8
243
 10
112.0000000000008
 20
17.499999999998831
 30
0.0
 11
112.0000000000008
 21
13.997749835361221
 31
0.0
  0
LINE
  5
4429
  8
244
 10
104.0000000000008
 20
17.499999999998831
 30
0.0
 11
112.0000000000008
 21
17.499999999998831
 31
0.0
  0
LINE
  5
442A
  8
244
 10
104.0000000000008
 20
-17.500000000001162
 30
0.0
 11
112.0000000000008
 21
-17.500000000001162
 31
0.0
  0
LINE
  5
442F
  8
246
 10
47.400000000000773
 20
10.14999999999884
 30
0.0
 11
61.650000000000773
 21
10.14999999999884
 31
0.0
  0
LINE
  5
4431
  8
246
 10
47.400000000000773
 20
-10.150000000001141
 30
0.0
 11
61.650000000000773
 21
-10.150000000001141
 31
0.0
  0
ARC
  5
4433
  8
240
 10
98.500000000000796
 20
19.749999999998781
 30
0.0
 40
1.0
 50
0.0
 51
90.0
1001
GENIUS_GENOREF_13
1005
0
  0
LINE
  5
4434
  8
240
 10
99.50000000000081
 20
19.749999999998781
 30
0.0
 11
99.50000000000081
 21
18.999999999998831
 31
0.0
  0
ARC
  5
4435
  8
240
 10
98.500000000000796
 20
-19.750000000001108
 30
0.0
 40
1.0
 50
270.0
 51
0.0
  0
LINE
  5
4436
  8
240
 10
99.50000000000081
 20
-19.750000000001108
 30
0.0
 11
99.50000000000081
 21
-19.000000000001162
 31
0.0
  0
LINE
  5
4437
  8
241
 10
98.500000000000796
 20
20.749999999998781
 30
0.0
 11
98.500000000000739
 21
16.35775294514033
 31
0.0
  0
LINE
  5
4438
  8
241
 10
98.500000000000739
 20
-16.105948363996529
 30
0.0
 11
98.500000000000796
 21
-20.750000000001108
 31
0.0
  0
LINE
  5
443B
  8
241
 10
50.000000000000462
 20
0.0000000000001137
 30
0.0
 11
53.000000000000462
 21
0.0000000000001705
 31
0.0
  0
LINE
  5
443C
  8
241
 10
50.000000000000462
 20
-3.006873124793628
 30
0.0
 11
52.000000000000448
 21
-3.006873124793628
 31
0.0
  0
LINE
  5
443D
  8
241
 10
50.000000000000512
 20
-5.9908621295084572
 30
0.0
 11
53.000000000000512
 21
-5.9908621295084572
 31
0.0
  0
LINE
  5
443E
  8
241
 10
50.000000000000561
 20
-8.9292570560363629
 30
0.0
 11
52.000000000000568
 21
-8.9292570560363629
 31
0.0
  0
LINE
  5
443F
  8
241
 10
50.000000000000561
 20
-11.799694944734931
 30
0.0
 11
53.000000000000568
 21
-11.799694944734931
 31
0.0
  0
LINE
  5
4440
  8
241
 10
50.000000000000632
 20
-14.58033003005346
 30
0.0
 11
52.000000000000632
 21
-14.58033003005346
 31
0.0
  0
LINE
  5
4441
  8
241
 10
50.000000000000632
 20
-17.249999999999261
 30
0.0
 11
53.000000000000618
 21
-17.249999999999261
 31
0.0
  0
LINE
  5
4442
  8
241
 10
50.000000000000682
 20
-19.788387054110391
 30
0.0
 11
52.000000000000682
 21
-19.788387054110391
 31
0.0
  0
LINE
  5
4443
  8
241
 10
50.000000000000682
 20
-22.1761725341849
 30
0.0
 11
53.000000000000682
 21
-22.1761725341849
 31
0.0
  0
LINE
  5
4444
  8
241
 10
50.000000000000739
 20
-24.39518395093512
 30
0.0
 11
52.000000000000732
 21
-24.39518395093512
 31
0.0
  0
LINE
  5
4445
  8
241
 10
50.000000000000739
 20
-26.428533287603951
 30
0.0
 11
53.000000000000739
 21
-26.428533287603951
 31
0.0
  0
LINE
  5
4446
  8
241
 10
50.000000000000789
 20
-28.260745527969451
 30
0.0
 11
52.000000000000803
 21
-28.260745527969451
 31
0.0
  0
LINE
  5
4447
  8
241
 10
50.000000000000789
 20
-29.76418209036655
 30
0.0
 11
53.000000000000789
 21
-29.76418209036655
 31
0.0
  0
LINE
  5
4448
  8
241
 10
50.000000000000789
 20
-31.267618652763641
 30
0.0
 11
52.000000000000803
 21
-31.267618652763641
 31
0.0
  0
LINE
  5
4449
  8
241
 10
50.000000000000853
 20
-32.419395417113037
 30
0.0
 11
53.000000000000789
 21
-32.419395417113037
 31
0.0
  0
LINE
  5
444A
  8
241
 10
50.000000000000853
 20
-33.324441006972108
 30
0.0
 11
52.000000000000853
 21
-33.324441006972108
 31
0.0
  0
LINE
  5
444B
  8
241
 10
50.000000000000853
 20
-33.846579045568319
 30
0.0
 11
53.000000000000853
 21
-33.846579045568319
 31
0.0
  0
LINE
  5
444C
  8
240
 10
66.171572875255038
 20
34.499999999999893
 30
0.0
 11
49.750000000000909
 21
34.499999999999893
 31
0.0
  0
ARC
  5
444D
  8
240
 10
70.000000000001307
 20
28.67157287525368
 30
0.0
 40
2.0
 50
0.0
 51
45.0
1001
GENIUS_GENODEF_13
1002
{
1000
HIER
1070
     0
1002
}
1002
{
1000
MANEDIT
1070
     0
1002
}
1002
{
1000
NOSEL
1070
     0
1002
}
1002
{
1000
BEHIND
1070
     0
1002
}
1002
{
1000
OTHER
1070
     0
1002
}
1002
{
1000
REACTOR
1002
}
1001
GENIUS_GENOBJ-N-FIL_13
1002
{
1000
OWNER
1000
GEN
1002
}
  0
LINE
  5
444E
  8
240
 10
67.585786437628087
 20
33.914213562372993
 30
0.0
 11
71.414213562374357
 21
30.08578643762678
 31
0.0
1001
GENIUS_GENFIL_13
1070
     0
1040
5.0
1040
5.0
1040
0.2500000000000284
1040
45.00000000000162
1002
{
1002
}
1001
GENIUS_GENODEF_13
1002
{
1000
HIER
1070
     0
1002
}
1002
{
1000
MANEDIT
1070
     0
1002
}
1002
{
1000
NOSEL
1070
     0
1002
}
1002
{
1000
BEHIND
1070
     0
1002
}
1002
{
1000
OTHER
1070
     0
1002
}
1002
{
1000
REACTOR
1002
}
1001
GENIUS_GENOBJ-N-CHA_13
1002
{
1000
OWNER
1000
GEN
1002
}
  0
ARC
  5
444F
  8
240
 10
66.171572875255038
 20
32.499999999999893
 30
0.0
 40
2.0
 50
45.0
 51
90.0
1001
GENIUS_GENFIL_13
1070
     0
1040
5.0
1040
5.0
1040
0.2500000000000284
1040
45.00000000000162
1002
{
1002
}
1001
GENIUS_GENOBJ-N-CHA_13
1002
{
1000
OWNER
1000
GEN
1002
}
1001
GENIUS_GENODEF_13
1002
{
1000
HIER
1070
     0
1002
}
1002
{
1000
MANEDIT
1070
     0
1002
}
1002
{
1000
NOSEL
1070
     0
1002
}
1002
{
1000
BEHIND
1070
     0
1002
}
1002
{
1000
OTHER
1070
     0
1002
}
1002
{
1000
REACTOR
1002
}
1001
GENIUS_GENOBJ-N-FIL_13
1002
{
1000
OWNER
1000
GEN
1002
}
  0
LINE
  5
4450
  8
241
  6
CONTINUOUS
 10
49.500000000000853
 20
-34.249999999999631
 30
0.0
 11
49.500000000000057
 21
34.249999999999069
 31
0.0
  0
LINE
  5
4451
  8
240
 10
49.750000000000853
 20
-34.499999999999623
 30
0.0
 11
49.500000000000853
 21
-34.249999999999623
 31
0.0
1001
GENIUS_GENFIL_13
1070
     0
1040
0.25
1040
0.25
1040
0.2500000000000284
1040
45.00000000000162
1002
{
1002
}
1001
GENIUS_GENODEF_13
1002
{
1000
HIER
1070
     0
1002
}
1002
{
1000
MANEDIT
1070
     0
1002
}
1002
{
1000
NOSEL
1070
     0
1002
}
1002
{
1000
BEHIND
1070
     0
1002
}
1002
{
1000
OTHER
1070
     0
1002
}
1002
{
1000
REACTOR
1002
}
1001
GENIUS_GENOBJ-N-CHA_13
1002
{
1000
OWNER
1000
GEN
1002
}
  0
LINE
  5
4452
  8
240
 10
66.171572875254981
 20
-34.499999999999652
 30
0.0
 11
49.750000000000853
 21
-34.499999999999623
 31
0.0
  0
LINE
  5
4453
  8
240
 10
72.000000000001251
 20
-28.671572875253421
 30
0.0
 11
72.000000000001251
 21
-21.000000000000998
 31
0.0
  0
LINE
  5
4454
  8
241
 10
72.000000000001251
 20
-21.000000000000998
 30
0.0
 11
72.000000000001293
 21
21.000000000000199
 31
0.0
  0
LINE
  5
4455
  8
240
 10
72.000000000001293
 20
21.000000000000199
 30
0.0
 11
72.000000000001293
 21
28.67157287525368
 31
0.0
  0
ARC
  5
4456
  8
240
 10
70.000000000001251
 20
-28.671572875253421
 30
0.0
 40
2.0
 50
315.0
 51
0.0
1001
GENIUS_GENODEF_13
1002
{
1000
HIER
1070
     0
1002
}
1002
{
1000
MANEDIT
1070
     0
1002
}
1002
{
1000
NOSEL
1070
     0
1002
}
1002
{
1000
BEHIND
1070
     0
1002
}
1002
{
1000
OTHER
1070
     0
1002
}
1002
{
1000
REACTOR
1002
}
1001
GENIUS_GENOBJ-N-FIL_13
1002
{
1000
OWNER
1000
GEN
1002
}
  0
LINE
  5
4457
  8
240
 10
67.585786437628087
 20
-33.914213562372751
 30
0.0
 11
71.414213562374357
 21
-30.08578643762652
 31
0.0
1001
GENIUS_GENFIL_13
1070
     0
1040
5.0
1040
5.0
1040
0.2500000000000284
1040
45.00000000000162
1002
{
1002
}
1001
GENIUS_GENODEF_13
1002
{
1000
HIER
1070
     0
1002
}
1002
{
1000
MANEDIT
1070
     0
1002
}
1002
{
1000
NOSEL
1070
     0
1002
}
1002
{
1000
BEHIND
1070
     0
1002
}
1002
{
1000
OTHER
1070
     0
1002
}
1002
{
1000
REACTOR
1002
}
1001
GENIUS_GENOBJ-N-CHA_13
1002
{
1000
OWNER
1000
GEN
1002
}
  0
ARC
  5
4458
  8
240
 10
66.171572875254981
 20
-32.499999999999631
 30
0.0
 40
2.0
 50
270.0
 51
315.0
1001
GENIUS_GENFIL_13
1070
     0
1040
5.0
1040
5.0
1040
0.2500000000000284
1040
45.00000000000162
1002
{
1002
}
1001
GENIUS_GENOBJ-N-CHA_13
1002
{
1000
OWNER
1000
GEN
1002
}
1001
GENIUS_GENODEF_13
1002
{
1000
HIER
1070
     0
1002
}
1002
{
1000
MANEDIT
1070
     0
1002
}
1002
{
1000
NOSEL
1070
     0
1002
}
1002
{
1000
BEHIND
1070
     0
1002
}
1002
{
1000
OTHER
1070
     0
1002
}
1002
{
1000
REACTOR
1002
}
1001
GENIUS_GENOBJ-N-FIL_13
1002
{
1000
OWNER
1000
GEN
1002
}
  0
LINE
  5
4459
  8
240
 10
49.750000000000909
 20
34.499999999999893
 30
0.0
 11
49.500000000000909
 21
34.249999999999893
 31
0.0
  0
LINE
  5
445A
  8
241
 10
67.000000000001194
 20
-34.320359442248559
 30
0.0
 11
67.000000000001194
 21
34.320359442248822
 31
0.0
  0
LINE
  5
445B
  8
241
 10
49.500000000000803
 20
34.499999999999488
 30
0.0
 11
49.500000000000107
 21
-34.500000000000291
 31
0.0
  0
ARC
  5
445C
  8
240
 10
49.000000000000803
 20
34.499999999999488
 30
0.0
 40
0.5
 50
0.0
 51
90.0
1001
GENIUS_GENOBJ-N-FIL_13
1002
{
1000
OWNER
1000
GEN
1002
}
1001
GENIUS_GENODEF_13
1002
{
1000
HIER
1070
     0
1002
}
1002
{
1000
MANEDIT
1070
     0
1002
}
1002
{
1000
NOSEL
1070
     0
1002
}
1002
{
1000
BEHIND
1070
     0
1002
}
1002
{
1000
OTHER
1070
     0
1002
}
1002
{
1000
REACTOR
1002
}
  0
LINE
  5
445D
  8
240
 10
39.000000000000803
 20
34.999999999999488
 30
0.0
 11
49.000000000000803
 21
34.999999999999488
 31
0.0
  0
LINE
  5
445E
  8
240
 10
38.500000000000682
 20
34.499999999999382
 30
0.0
 11
39.000000000000803
 21
34.999999999999488
 31
0.0
1001
GENIUS_GENFIL_13
1070
     0
1040
0.5
1040
0.5
1040
0.2500000000000284
1040
45.00000000000162
1002
{
1002
}
1001
GENIUS_GENOBJ-N-CHA_13
1002
{
1000
OWNER
1000
GEN
1002
}
1001
GENIUS_GENODEF_13
1002
{
1000
HIER
1070
     0
1002
}
1002
{
1000
MANEDIT
1070
     0
1002
}
1002
{
1000
NOSEL
1070
     0
1002
}
1002
{
1000
BEHIND
1070
     0
1002
}
1002
{
1000
OTHER
1070
     0
1002
}
1002
{
1000
REACTOR
1002
}
  0
LINE
  5
445F
  8
241
 10
38.500000000000682
 20
34.499999999999382
 30
0.0
 11
38.500000000000682
 21
-34.500000000000171
 31
0.0
  0
ARC
  5
4460
  8
240
 10
49.000000000000803
 20
-34.500000000000291
 30
0.0
 40
0.5
 50
270.0
 51
0.0
1001
GENIUS_GENOBJ-N-FIL_13
1002
{
1000
OWNER
1000
GEN
1002
}
1001
GENIUS_GENODEF_13
1002
{
1000
HIER
1070
     0
1002
}
1002
{
1000
MANEDIT
1070
     0
1002
}
1002
{
1000
NOSEL
1070
     0
1002
}
1002
{
1000
BEHIND
1070
     0
1002
}
1002
{
1000
OTHER
1070
     0
1002
}
1002
{
1000
REACTOR
1002
}
  0
LINE
  5
4461
  8
240
 10
39.000000000000803
 20
-35.000000000000277
 30
0.0
 11
48.500000000000789
 21
-35.000000000000277
 31
0.0
  0
LINE
  5
4462
  8
240
 10
39.000000000000803
 20
-35.000000000000277
 30
0.0
 11
49.000000000000803
 21
-35.000000000000277
 31
0.0
  0
LINE
  5
4463
  8
240
 10
38.500000000000682
 20
-34.500000000000171
 30
0.0
 11
39.000000000000803
 21
-35.000000000000277
 31
0.0
1001
GENIUS_GENFIL_13
1070
     0
1040
0.5000000000000995
1040
0.5000000000001421
1040
0.5000000000000995
1040
45.00000000000162
1002
{
1002
}
1001
GENIUS_GENOREF_13
1005
0
  0
LINE
  5
4464
  8
241
 10
44.900000000000723
 20
28.133974596214841
 30
0.0
 11
44.900000000000773
 21
29.866025403783681
 31
0.0
  0
LINE
  5
4465
  8
241
 10
44.900000000000773
 20
29.866025403783681
 30
0.0
 11
43.400000000000709
 21
30.732050807568211
 31
0.0
  0
LINE
  5
4466
  8
241
 10
43.400000000000709
 20
30.732050807568211
 30
0.0
 11
41.900000000000773
 21
29.866025403783681
 31
0.0
  0
LINE
  5
4467
  8
241
 10
41.900000000000709
 20
29.866025403783681
 30
0.0
 11
41.900000000000659
 21
28.133974596214792
 31
0.0
  0
LINE
  5
4468
  8
241
 10
41.900000000000659
 20
28.133974596214792
 30
0.0
 11
43.400000000000709
 21
27.267949192430311
 31
0.0
  0
LINE
  5
4469
  8
241
 10
43.400000000000709
 20
27.267949192430311
 30
0.0
 11
44.900000000000652
 21
28.133974596214792
 31
0.0
  0
LINE
  5
446A
  8
241
 10
49.500000000000398
 20
-4.9079128927344291
 30
0.0
 11
38.500000000000682
 21
-4.9079128927344291
 31
0.0
  0
LINE
  5
446B
  8
241
 10
49.500000000000341
 20
-13.076714195020431
 30
0.0
 11
38.500000000000682
 21
-13.076714195020431
 31
0.0
  0
LINE
  5
446C
  8
241
 10
49.500000000000227
 20
-21.577468684357601
 30
0.0
 11
38.500000000000682
 21
-21.577468684357601
 31
0.0
  0
LINE
  5
446D
  8
241
 10
49.500000000000227
 20
-27.557446274565962
 30
0.0
 11
38.500000000000682
 21
-27.557446274565962
 31
0.0
  0
LINE
  5
446E
  8
241
 10
49.500000000000107
 20
-32.465359167299489
 30
0.0
 11
38.500000000000682
 21
-32.465359167299489
 31
0.0
  0
CIRCLE
  5
4470
  8
241
 10
43.400000000000709
 20
28.999999999999261
 30
0.0
 40
3.5
  0
ARC
  5
4471
  8
241
 10
43.400000000000773
 20
28.999999999999261
 30
0.0
 40
3.75
 50
180.0
 51
0.0
  0
LINE
  5
4472
  8
241
 10
39.65000000000078
 20
28.999999999999261
 30
0.0
 11
39.65000000000078
 21
32.749999999999261
 31
0.0
  0
LINE
  5
4473
  8
241
 10
47.150000000000773
 20
28.999999999999261
 30
0.0
 11
47.150000000000773
 21
32.749999999999261
 31
0.0
  0
LINE
  5
4474
  8
241
 10
47.150000000000773
 20
32.749999999999261
 30
0.0
 11
39.65000000000078
 21
32.749999999999261
 31
0.0
  0
LINE
  5
4475
  8
241
 10
49.500000000000398
 20
4.9079128927336617
 30
0.0
 11
38.500000000000682
 21
4.9079128927336617
 31
0.0
  0
LINE
  5
4476
  8
241
 10
50.000000000000462
 20
3.0068731247938549
 30
0.0
 11
52.000000000000448
 21
3.0068731247938549
 31
0.0
  0
LINE
  5
4477
  8
241
 10
50.000000000000512
 20
5.9908621295086837
 30
0.0
 11
53.000000000000512
 21
5.9908621295086837
 31
0.0
  0
LINE
  5
4478
  8
241
 10
50.000000000000561
 20
8.9292570560365903
 30
0.0
 11
52.000000000000568
 21
8.9292570560365903
 31
0.0
  0
LINE
  5
4479
  8
241
 10
50.000000000000561
 20
11.79969494473516
 30
0.0
 11
53.000000000000568
 21
11.79969494473516
 31
0.0
  0
LINE
  5
447A
  8
241
 10
50.000000000000632
 20
14.58033003005368
 30
0.0
 11
52.000000000000632
 21
14.58033003005368
 31
0.0
  0
LINE
  5
447B
  8
241
 10
50.000000000000632
 20
17.249999999999488
 30
0.0
 11
53.000000000000618
 21
17.249999999999488
 31
0.0
  0
LINE
  5
447C
  8
241
 10
50.000000000000682
 20
19.788387054110611
 30
0.0
 11
52.000000000000682
 21
19.788387054110611
 31
0.0
  0
LINE
  5
447D
  8
241
 10
50.000000000000682
 20
22.176172534185131
 30
0.0
 11
53.000000000000682
 21
22.176172534185131
 31
0.0
  0
LINE
  5
447E
  8
241
 10
50.000000000000739
 20
24.395183950935351
 30
0.0
 11
52.000000000000732
 21
24.395183950935351
 31
0.0
  0
LINE
  5
447F
  8
241
 10
50.000000000000739
 20
26.428533287604189
 30
0.0
 11
53.000000000000739
 21
26.428533287604189
 31
0.0
  0
LINE
  5
4480
  8
241
 10
50.000000000000789
 20
28.260745527969672
 30
0.0
 11
52.000000000000803
 21
28.260745527969672
 31
0.0
  0
LINE
  5
4481
  8
241
 10
50.000000000000789
 20
29.764182090366781
 30
0.0
 11
53.000000000000789
 21
29.764182090366781
 31
0.0
  0
LINE
  5
4482
  8
241
 10
50.000000000000789
 20
31.267618652763868
 30
0.0
 11
52.000000000000803
 21
31.267618652763868
 31
0.0
  0
LINE
  5
4483
  8
241
 10
50.000000000000853
 20
32.419395417113272
 30
0.0
 11
53.000000000000789
 21
32.419395417113272
 31
0.0
  0
LINE
  5
4484
  8
241
 10
50.000000000000853
 20
33.324441006972343
 30
0.0
 11
52.000000000000853
 21
33.324441006972343
 31
0.0
  0
LINE
  5
4485
  8
241
 10
50.000000000000853
 20
33.846579045568546
 30
0.0
 11
53.000000000000853
 21
33.846579045568546
 31
0.0
  0
LINE
  5
4486
  8
240
 10
72.499999999999318
 20
20.749999999999542
 30
0.0
 11
98.500000000000796
 21
20.749999999999542
 31
0.0
  0
LINE
  5
4487
  8
240
 10
72.499999999999091
 20
-20.750000000000309
 30
0.0
 11
98.500000000000796
 21
-20.750000000000309
 31
0.0
  0
LINE
  5
4488
  8
240
  6
CONTINUOUS
 10
72.000000000001251
 20
-21.000000000000998
 30
0.0
 11
72.249999999998579
 21
-21.000000000000998
 31
0.0
  0
LINE
  5
4489
  8
240
 10
72.499999999999034
 20
-20.75000000000054
 30
0.0
 11
72.24999999999892
 21
-21.0000000000006
 31
0.0
  0
LINE
  5
448A
  8
240
  6
CONTINUOUS
 10
72.000000000001251
 20
21.000000000000199
 30
0.0
 11
72.249999999998579
 21
21.000000000000231
 31
0.0
  0
LINE
  5
448B
  8
240
 10
72.499999999999034
 20
20.749999999999769
 30
0.0
 11
72.24999999999892
 21
20.999999999999829
 31
0.0
  0
LINE
  5
448C
  8
241
 10
72.499999999999318
 20
20.749999999999542
 30
0.0
 11
72.499999999999261
 21
-20.750000000000341
 31
0.0
  0
LINE
  5
45B8
  8
250
 10
-0.0000000000012639
 20
35.424999999999287
 30
0.0
 11
-0.0000000000012621
 21
63.999999999999133
 31
0.0
  0
LINE
  5
45B9
  8
250
 10
72.000000000000909
 20
29.171572875253741
 30
0.0
 11
72.000000000000909
 21
63.999999999999119
 31
0.0
  0
LINE
  5
45BA
  8
250
 10
2.229999999998737
 20
62.999999999999119
 30
0.0
 11
69.770000000000906
 21
62.999999999999119
 31
0.0
  0
LINE
  5
45BF
  8
250
 10
72.000000000000909
 20
29.171572875253741
 30
0.0
 11
72.000000000000909
 21
64.000000000000568
 31
0.0
  0
LINE
  5
45C0
  8
250
 10
120.0000000000005
 20
21.62720779386623
 30
0.0
 11
120.0000000000005
 21
64.000000000000568
 31
0.0
  0
LINE
  5
45C1
  8
250
 10
74.230000000000913
 20
63.000000000000568
 30
0.0
 11
117.77000000000049
 21
63.000000000000568
 31
0.0
  0
LINE
  5
45C5
  8
250
 10
-0.0000000000012639
 20
35.424999999999287
 30
0.0
 11
-0.0000000000012617
 21
71.0
 31
0.0
  0
LINE
  5
45C6
  8
250
 10
120.0000000000005
 20
21.62720779386623
 30
0.0
 11
120.0000000000005
 21
71.0
 31
0.0
  0
LINE
  5
45C7
  8
250
 10
2.2299999999987379
 20
70.0
 30
0.0
 11
117.77000000000049
 21
70.0
 31
0.0
  0
LINE
  5
45CB
  8
250
 10
120.5000000000008
 20
-10.00000000000116
 30
0.0
 11
137.63297244244001
 21
-10.000000000001171
 31
0.0
  0
LINE
  5
45CC
  8
250
 10
120.5000000000008
 20
9.9999999999988347
 30
0.0
 11
137.63297244244001
 21
9.9999999999988294
 31
0.0
  0
LINE
  5
45CD
  8
250
 10
136.63297244244001
 20
-7.7700000000011702
 30
0.0
 11
136.63297244244001
 21
7.7699999999988281
 31
0.0
  0
LINE
  5
45D1
  8
250
 10
118.5857864376277
 20
-23.000000000001169
 30
0.0
 11
144.63297244244001
 21
-23.000000000001169
 31
0.0
  0
LINE
  5
45D2
  8
250
 10
118.5857864376277
 20
22.999999999998831
 30
0.0
 11
144.63297244244001
 21
22.999999999998831
 31
0.0
  0
LINE
  5
45D3
  8
250
 10
143.63297244244001
 20
-20.770000000001168
 30
0.0
 11
143.63297244244001
 21
20.769999999998831
 31
0.0
  0
LINE
  5
45D7
  8
250
 10
62.000000000000909
 20
-10.299999999998651
 30
0.0
 11
62.000000000000909
 21
-49.99999999999914
 31
0.0
  0
LINE
  5
45D8
  8
250
 10
120.00000000000099
 20
-21.627207793862201
 30
0.0
 11
120.00000000000099
 21
-49.99999999999914
 31
0.0
  0
LINE
  5
45D9
  8
250
 10
64.230000000000913
 20
-48.999999999999147
 30
0.0
 11
117.770000000001
 21
-48.999999999999147
 31
0.0
  0
TEXT
  5
45DF
  8
250
 10
-67.354401241801455
 20
-42.570345964537751
 30
0.0
 40
3.0
  1
BBT50
  7
YOKO
1001
ITEMNAME
1000
LNSP3
  0
LINE
  5
45E0
  8
250
 10
-43.350482547834119
 20
-30.696895445546769
 30
0.0
 11
-50.782972670372892
 21
-43.570345964537736
 31
0.0
1001
ACAD
1000
DSTYLE
1002
{
1070
    78
1070
     8
1070
   140
1040
3.0
1002
}
  0
LINE
  5
45E1
  8
250
 10
-43.672355322907343
 20
-30.51106211221343
 30
0.0
 11
-42.235482547834117
 21
-28.76565879510747
 31
0.0
  0
LINE
  5
45E2
  8
250
 10
-43.028609772760909
 20
-30.8827287788801
 30
0.0
 11
-42.235482547834117
 21
-28.76565879510747
 31
0.0
  0
LINE
  5
45E3
  8
250
 10
-42.235482547834117
 20
-28.76565879510747
 30
0.0
 11
-43.350482547834119
 21
-30.696895445546769
 31
0.0
  0
TEXT
  5
45E4
  8
250
 10
83.485714285715261
 20
-47.99999999999914
 30
0.0
 40
3.0
  1
48ü`65
  0
LINE
  5
45E5
  8
250
 10
117.770000000001
 20
-48.628333333332478
 30
0.0
 11
120.00000000000099
 21
-48.999999999999147
 31
0.0
  0
LINE
  5
45E6
  8
250
 10
117.770000000001
 20
-49.37166666666581
 30
0.0
 11
120.00000000000099
 21
-48.999999999999147
 31
0.0
  0
LINE
  5
45E7
  8
250
 10
120.00000000000099
 20
-48.999999999999147
 30
0.0
 11
117.770000000001
 21
-48.999999999999147
 31
0.0
  0
LINE
  5
45E8
  8
250
 10
64.230000000000913
 20
-49.37166666666581
 30
0.0
 11
62.000000000000909
 21
-48.999999999999147
 31
0.0
  0
LINE
  5
45E9
  8
250
 10
64.230000000000913
 20
-48.628333333332478
 30
0.0
 11
62.000000000000909
 21
-48.999999999999147
 31
0.0
  0
LINE
  5
45EA
  8
250
 10
62.000000000000909
 20
-48.999999999999147
 30
0.0
 11
64.230000000000913
 21
-48.999999999999147
 31
0.0
  0
TEXT
  5
45EB
  8
250
 10
135.63297244244001
 20
-9.4285714285725604
 30
0.0
 40
3.0
  1
MAX.\U+220520
 50
90.0
  0
LINE
  5
45EC
  8
250
 10
136.26130577577339
 20
7.7699999999988281
 30
0.0
 11
136.63297244244001
 21
9.9999999999988294
 31
0.0
  0
LINE
  5
45ED
  8
250
 10
137.00463910910671
 20
7.7699999999988281
 30
0.0
 11
136.63297244244001
 21
9.9999999999988294
 31
0.0
  0
LINE
  5
45EE
  8
250
 10
136.63297244244001
 20
9.9999999999988294
 30
0.0
 11
136.63297244244001
 21
7.7699999999988281
 31
0.0
  0
LINE
  5
45EF
  8
250
 10
137.00463910910671
 20
-7.7700000000011702
 30
0.0
 11
136.63297244244001
 21
-10.000000000001171
 31
0.0
  0
LINE
  5
45F0
  8
250
 10
136.26130577577339
 20
-7.7700000000011702
 30
0.0
 11
136.63297244244001
 21
-10.000000000001171
 31
0.0
  0
LINE
  5
45F1
  8
250
 10
136.63297244244001
 20
-10.000000000001171
 30
0.0
 11
136.63297244244001
 21
-7.7700000000011702
 31
0.0
  0
TEXT
  5
45F2
  8
250
 10
142.63297244244001
 20
-4.2142857142868619
 30
0.0
 40
3.0
  1
\U+220546
 50
90.0
  0
LINE
  5
45F3
  8
250
 10
143.26130577577339
 20
20.769999999998831
 30
0.0
 11
143.63297244244001
 21
22.999999999998831
 31
0.0
  0
LINE
  5
45F4
  8
250
 10
144.00463910910671
 20
20.769999999998831
 30
0.0
 11
143.63297244244001
 21
22.999999999998831
 31
0.0
  0
LINE
  5
45F5
  8
250
 10
143.63297244244001
 20
22.999999999998831
 30
0.0
 11
143.63297244244001
 21
20.769999999998831
 31
0.0
  0
LINE
  5
45F6
  8
250
 10
144.00463910910671
 20
-20.770000000001168
 30
0.0
 11
143.63297244244001
 21
-23.000000000001169
 31
0.0
  0
LINE
  5
45F7
  8
250
 10
143.26130577577339
 20
-20.770000000001168
 30
0.0
 11
143.63297244244001
 21
-23.000000000001169
 31
0.0
  0
LINE
  5
45F8
  8
250
 10
143.63297244244001
 20
-23.000000000001169
 30
0.0
 11
143.63297244244001
 21
-20.770000000001168
 31
0.0
  0
TEXT
  5
45F9
  8
250
 10
33.333333333333158
 20
63.999999999999133
 30
0.0
 40
2.7999999999999989
  1
72
  0
LINE
  5
45FA
  8
250
 10
69.770000000000906
 20
63.371666666665789
 30
0.0
 11
72.000000000000909
 21
62.999999999999119
 31
0.0
  0
LINE
  5
45FB
  8
250
 10
69.770000000000906
 20
62.628333333332449
 30
0.0
 11
72.000000000000909
 21
62.999999999999119
 31
0.0
  0
LINE
  5
45FC
  8
250
 10
72.000000000000909
 20
62.999999999999119
 30
0.0
 11
69.770000000000906
 21
62.999999999999119
 31
0.0
  0
LINE
  5
45FD
  8
250
 10
2.229999999998737
 20
62.628333333332449
 30
0.0
 11
-0.0000000000012622
 21
62.999999999999119
 31
0.0
  0
LINE
  5
45FE
  8
250
 10
2.229999999998737
 20
63.371666666665789
 30
0.0
 11
-0.0000000000012622
 21
62.999999999999119
 31
0.0
  0
LINE
  5
45FF
  8
250
 10
-0.0000000000012622
 20
62.999999999999119
 30
0.0
 11
2.229999999998737
 21
62.999999999999119
 31
0.0
  0
TEXT
  5
4600
  8
250
 10
93.333333333334039
 20
64.000000000000583
 30
0.0
 40
2.7999999999999989
  1
48
  0
LINE
  5
4601
  8
250
 10
117.77000000000049
 20
63.371666666667238
 30
0.0
 11
120.0000000000005
 21
63.000000000000568
 31
0.0
  0
LINE
  5
4602
  8
250
 10
117.77000000000049
 20
62.628333333333892
 30
0.0
 11
120.0000000000005
 21
63.000000000000568
 31
0.0
  0
LINE
  5
4603
  8
250
 10
120.0000000000005
 20
63.000000000000568
 30
0.0
 11
117.77000000000049
 21
63.000000000000568
 31
0.0
  0
LINE
  5
4604
  8
250
 10
74.230000000000913
 20
62.628333333333892
 30
0.0
 11
72.000000000000909
 21
63.000000000000568
 31
0.0
  0
LINE
  5
4605
  8
250
 10
74.230000000000913
 20
63.371666666667238
 30
0.0
 11
72.000000000000909
 21
63.000000000000568
 31
0.0
  0
LINE
  5
4606
  8
250
 10
72.000000000000909
 20
63.000000000000568
 30
0.0
 11
74.230000000000913
 21
63.000000000000568
 31
0.0
  0
TEXT
  5
4607
  8
250
 10
55.799999999999642
 20
71.000000000000014
 30
0.0
 40
2.7999999999999989
  1
120
  0
LINE
  5
4608
  8
250
 10
117.77000000000049
 20
70.37166666666667
 30
0.0
 11
120.0000000000005
 21
70.0
 31
0.0
  0
LINE
  5
4609
  8
250
 10
117.77000000000049
 20
69.62833333333333
 30
0.0
 11
120.0000000000005
 21
70.0
 31
0.0
  0
LINE
  5
460A
  8
250
 10
120.0000000000005
 20
70.0
 30
0.0
 11
117.77000000000049
 21
70.0
 31
0.0
  0
LINE
  5
460B
  8
250
 10
2.2299999999987379
 20
69.62833333333333
 30
0.0
 11
-0.0000000000012618
 21
70.0
 31
0.0
  0
LINE
  5
460C
  8
250
 10
2.2299999999987379
 20
70.37166666666667
 30
0.0
 11
-0.0000000000012618
 21
70.0
 31
0.0
  0
LINE
  5
460D
  8
250
 10
-0.0000000000012618
 20
70.0
 30
0.0
 11
2.2299999999987379
 21
70.0
 31
0.0
  0
LINE
  5
460E
  8
240
 10
0.0
 20
34.925000000000068
 30
0.0
 11
1.4999999999992359
 21
34.925000000000068
 31
0.0
  0
LINE
  5
460F
  8
240
 10
0.0
 20
-34.924999999999962
 30
0.0
 11
1.4999999999984079
 21
-34.924999999999962
 31
0.0
  0
TEXT
  5
4624
  8
241
 10
-77.0
 20
84.000000000000426
 30
0.0
 40
5.0
  1
BBT50-NBS20-120NRA
  7
YOKO
 11
-77.0
 21
84.000000000000426
 31
0.0
 73
     1
  0
VIEWPORT
  5
22
 67
     1
  8
0
 10
261.51769911504419
 20
148.5
 30
0.0
 40
523.0353982300885
 41
297.0
 68
     1
 69
     1
1001
ACAD
1000
MVIEW
1002
{
1070
    16
1010
0.0
1020
0.0
1030
0.0
1010
0.0
1020
0.0
1030
1.0
1040
0.0
1040
297.0
1040
261.51769911504419
1040
148.5
1040
50.0
1040
0.0
1040
0.0
1070
     0
1070
   100
1070
     1
1070
     1
1070
     0
1070
     0
1070
     0
1070
     0
1040
0.0
1040
0.0
1040
0.0
1040
1.0
1040
1.0
1040
10.0
1040
10.0
1070
     0
1002
{
1002
}
1002
}
1001
GENIUS_GENODEF_13
1002
{
1000
HIER
1070
     0
1002
}
1002
{
1000
MANEDIT
1070
     0
1002
}
1002
{
1000
NOSEL
1070
     0
1002
}
1002
{
1000
BEHIND
1070
     0
1002
}
1002
{
1000
OTHER
1070
     0
1002
}
1002
{
1000
REACTOR
1002
}
1001
GENIUS_GENOBJ-N-SDF_13
1002
{
1000
OWNER
1000
GEN
1002
}
1001
GENIUS_GENSCREG_15
1000
PF
1040
1.0
1000
DF
1040
1.0
1000
MIN
1011
0.0
1021
0.0
1031
0.0
1021
0.0
1031
0.0
1000
MAX
1011
523.0353982300885
1021
0.0
1031
0.0
1021
297.0
1031
0.0
1000
FLAGS
1070
     4
  0
ENDSEC
  0
EOF
