  0
SECTION
  2
HEADER
  9
$ACADVER
  1
AC1009
  9
$INSBASE
 10
0.0
 20
0.0
 30
0.0
  9
$EXTMIN
 10
-106.6875966489781
 20
-50.000000000000227
 30
0.0
  9
$EXTMAX
 10
187.00000000000071
 20
89.000000000000412
 30
0.0
  9
$LIMMIN
 10
0.0
 20
0.0
  9
$LIMMAX
 10
297.0
 20
210.0
  9
$ORTHOMODE
 70
     0
  9
$REGENMODE
 70
     1
  9
$FILLMODE
 70
     1
  9
$QTEXTMODE
 70
     0
  9
$MIRRTEXT
 70
     1
  9
$DRAGMODE
 70
     2
  9
$LTSCALE
 40
10.0
  9
$OSMODE
 70
    63
  9
$ATTMODE
 70
     1
  9
$TEXTSIZE
 40
3.0
  9
$TRACEWID
 40
1.0
  9
$TEXTSTYLE
  7
YOKO
  9
$CLAYER
  8
240
  9
$CELTYPE
  6
BYLAYER
  9
$CECOLOR
 62
   256
  9
$DIMSCALE
 40
1.0
  9
$DIMASZ
 40
2.2299999999999991
  9
$DIMEXO
 40
0.5
  9
$DIMDLI
 40
7.0
  9
$DIMRND
 40
0.0
  9
$DIMDLE
 40
0.0
  9
$DIMEXE
 40
1.0
  9
$DIMTP
 40
0.0
  9
$DIMTM
 40
0.01
  9
$DIMTXT
 40
2.7999999999999989
  9
$DIMCEN
 40
0.0
  9
$DIMTSZ
 40
0.0
  9
$DIMTOL
 70
     0
  9
$DIMLIM
 70
     0
  9
$DIMTIH
 70
     0
  9
$DIMTOH
 70
     0
  9
$DIMSE1
 70
     0
  9
$DIMSE2
 70
     0
  9
$DIMTAD
 70
     3
  9
$DIMZIN
 70
     9
  9
$DIMBLK
  1
OPEN
  9
$DIMASO
 70
     1
  9
$DIMSHO
 70
     1
  9
$DIMPOST
  1

  9
$DIMAPOST
  1

  9
$DIMALT
 70
     0
  9
$DIMALTD
 70
     2
  9
$DIMALTF
 40
25.399999999999999
  9
$DIMLFAC
 40
1.0
  9
$DIMTOFL
 70
     1
  9
$DIMTVP
 40
0.0
  9
$DIMTIX
 70
     1
  9
$DIMSOXD
 70
     0
  9
$DIMSAH
 70
     0
  9
$DIMBLK1
  1

  9
$DIMBLK2
  1

  9
$DIMSTYLE
  2
BIGT
  9
$DIMCLRD
 70
   256
  9
$DIMCLRE
 70
   256
  9
$DIMCLRT
 70
    40
  9
$DIMTFAC
 40
1.0
  9
$DIMGAP
 40
1.0
  9
$LUNITS
 70
     2
  9
$LUPREC
 70
     6
  9
$SKETCHINC
 40
1.0
  9
$FILLETRAD
 40
0.0
  9
$AUNITS
 70
     0
  9
$AUPREC
 70
     6
  9
$MENU
  1
.
  9
$ELEVATION
 40
0.0
  9
$PELEVATION
 40
0.0
  9
$THICKNESS
 40
0.0
  9
$LIMCHECK
 70
     0
  9
$BLIPMODE
 70
     0
  9
$CHAMFERA
 40
0.2
  9
$CHAMFERB
 40
0.2
  9
$SKPOLY
 70
     0
  9
$TDCREATE
 40
2457241.7210493642
  9
$TDUPDATE
 40
2457242.3839713079
  9
$TDINDWG
 40
0.0160489699
  9
$TDUSRTIMER
 40
0.0160489352
  9
$USRTIMER
 70
     1
  9
$ANGBASE
 50
0.0
  9
$ANGDIR
 70
     0
  9
$PDMODE
 70
     1
  9
$PDSIZE
 40
0.0
  9
$PLINEWID
 40
0.0
  9
$COORDS
 70
     1
  9
$SPLFRAME
 70
     0
  9
$SPLINETYPE
 70
     6
  9
$SPLINESEGS
 70
     4
  9
$ATTDIA
 70
     1
  9
$ATTREQ
 70
     1
  9
$HANDLING
 70
     1
  9
$HANDSEED
  5
48DA
  9
$SURFTAB1
 70
     6
  9
$SURFTAB2
 70
     6
  9
$SURFTYPE
 70
     6
  9
$SURFU
 70
     6
  9
$SURFV
 70
     6
  9
$UCSNAME
  2

  9
$UCSORG
 10
0.0
 20
0.0
 30
0.0
  9
$UCSXDIR
 10
1.0
 20
0.0
 30
0.0
  9
$UCSYDIR
 10
0.0
 20
1.0
 30
0.0
  9
$PUCSNAME
  2

  9
$PUCSORG
 10
0.0
 20
0.0
 30
0.0
  9
$PUCSXDIR
 10
1.0
 20
0.0
 30
0.0
  9
$PUCSYDIR
 10
0.0
 20
1.0
 30
0.0
  9
$USERI1
 70
     1
  9
$USERI2
 70
     0
  9
$USERI3
 70
     0
  9
$USERI4
 70
     0
  9
$USERI5
 70
     0
  9
$USERR1
 40
0.0
  9
$USERR2
 40
0.0
  9
$USERR3
 40
0.0
  9
$USERR4
 40
0.0
  9
$USERR5
 40
0.0
  9
$WORLDVIEW
 70
     1
  9
$SHADEDGE
 70
     3
  9
$SHADEDIF
 70
    70
  9
$TILEMODE
 70
     1
  9
$MAXACTVP
 70
    16
  9
$PLIMCHECK
 70
     0
  9
$PEXTMIN
 10
1.0000000000000000E+020
 20
1.0000000000000000E+020
 30
1.0000000000000000E+020
  9
$PEXTMAX
 10
-1.0000000000000000E+020
 20
-1.0000000000000000E+020
 30
-1.0000000000000000E+020
  9
$PLIMMIN
 10
0.0
 20
0.0
  9
$PLIMMAX
 10
420.0
 20
297.0
  9
$UNITMODE
 70
     0
  9
$VISRETAIN
 70
     1
  9
$PLINEGEN
 70
     0
  9
$PSLTSCALE
 70
     1
  0
ENDSEC
  0
SECTION
  2
TABLES
  0
TABLE
  2
VPORT
 70
     1
  0
VPORT
  2
*ACTIVE
 70
     0
 10
0.0
 20
0.0
 11
1.0
 21
1.0
 12
40.165878861287858
 22
41.611023014831417
 13
0.0
 23
0.0
 14
7.0
 24
7.0
 15
7.0
 25
7.0
 16
0.0
 26
0.0
 36
1.0
 17
0.0
 27
0.0
 37
0.0
 40
205.48457247156961
 41
1.4355016538037479
 42
50.0
 43
0.0
 44
0.0
 50
0.0
 51
0.0
 71
     0
 72
  2000
 73
     1
 74
     0
 75
     0
 76
     1
 77
     0
 78
     0
  0
ENDTAB
  0
TABLE
  2
LTYPE
 70
    13
  0
LTYPE
  2
CONTINUOUS
 70
     0
  3
Solid line
 72
    65
 73
     0
 40
0.0
  0
LTYPE
  2
CENTER2
 70
     0
  3
___ _ ___ _ ___ _ ___ _ ___ _ ___ _ ___ _ ___ _
 72
    65
 73
     4
 40
1.125
 49
0.75
 49
-0.125
 49
0.125
 49
-0.125
  0
LTYPE
  2
HIDDEN2
 70
     0
  3
_ _ _ _ _ _ _ _ _ _ _ _ _ _ _ _ _ _ _ _ _ _ _ _
 72
    65
 73
     2
 40
0.1875
 49
0.125
 49
-0.0625
  0
LTYPE
  2
PHANTOM2
 70
     0
  3
___ _ _ ___ _ _ ___ _ _ ___ _ _ ___ _ _ ___ _ _
 72
    65
 73
     6
 40
1.25
 49
0.625
 49
-0.125
 49
0.125
 49
-0.125
 49
0.125
 49
-0.125
  0
LTYPE
  2
AM_ISO02W050
 70
     0
  3
__ __ __ __ __ __ __ __ __ __ __ __ __ __ __
 72
    65
 73
     2
 40
7.5
 49
6.0
 49
-1.5
  0
LTYPE
  2
AMCONSTR
 70
     0
  3
_______________________
 72
    65
 73
     2
 40
9999.0
 49
9999.0
 49
0.0
  0
LTYPE
  2
ACISOWELD
 70
     0
  3
_ _ _ _ _
 72
    65
 73
     2
 40
2.0
 49
2.0
 49
-1.0
  0
LTYPE
  2
ACISOTGB
 70
     0
  3
__ . . __ . .
 72
    65
 73
     6
 40
9.0
 49
4.0
 49
-1.0
 49
1.0
 49
-1.0
 49
1.0
 49
-1.0
  0
LTYPE
  2
ACISOTGL
 70
     0
  3
_ _ _ _ _
 72
    65
 73
     2
 40
3.0
 49
2.0
 49
-1.0
  0
LTYPE
  2
ACJISTGB
 70
     0
  3
__ . . __ . .
 72
    65
 73
     6
 40
9.0
 49
4.0
 49
-1.0
 49
1.0
 49
-1.0
 49
1.0
 49
-1.0
  0
LTYPE
  2
ACJISTGL
 70
     0
  3
_ _ _ _ _
 72
    65
 73
     2
 40
3.0
 49
2.0
 49
-1.0
  0
ENDTAB
  0
TABLE
  2
LAYER
 70
    10
  0
LAYER
  2
0
 70
     0
 62
     7
  6
CONTINUOUS
  0
LAYER
  2
DEFPOINTS
 70
     0
 62
     7
  6
CONTINUOUS
  0
LAYER
  2
245
 70
     0
 62
     2
  6
CENTER2
  0
LAYER
  2
240
 70
     0
 62
     4
  6
CONTINUOUS
  0
LAYER
  2
241
 70
     0
 62
   211
  6
CONTINUOUS
  0
LAYER
  2
242
 70
     0
 62
     3
  6
CONTINUOUS
  0
LAYER
  2
243
 70
     0
 62
   211
  6
HIDDEN2
  0
LAYER
  2
244
 70
     0
 62
     3
  6
HIDDEN2
  0
LAYER
  2
246
 70
     0
 62
     3
  6
PHANTOM2
  0
LAYER
  2
250
 70
     0
 62
     3
  6
CONTINUOUS
  0
ENDTAB
  0
TABLE
  2
STYLE
 70
     6
  0
STYLE
  2
STANDARD
 70
     0
 40
0.0
 41
1.0
 50
0.0
 71
     0
 42
3.0
  3
romans.shx
  4
extfont.shx
  0
STYLE
  2
ACISOTS
 70
     0
 40
1.0
 41
1.0
 50
0.0
 71
     0
 42
3.0
  3
amgdt.shx
  4
extfont.shx
  0
STYLE
  2
ACISOGDT
 70
     0
 40
0.0
 41
1.0
 50
0.0
 71
     0
 42
3.0
  3
amgdt.shx
  4
extfont.shx
  0
STYLE
  2
ACJISTS
 70
     0
 40
1.0
 41
1.0
 50
0.0
 71
     0
 42
3.0
  3
amgdt.shx
  4
extfont.shx
  0
STYLE
  2
ACJISGDT
 70
     0
 40
0.0
 41
1.0
 50
0.0
 71
     0
 42
3.0
  3
amgdt.shx
  4
extfont.shx
  0
STYLE
  2
YOKO
 70
     0
 40
0.0
 41
1.0
 50
0.0
 71
     0
 42
3.0
  3
romans.shx
  4
extfont.shx
  0
ENDTAB
  0
TABLE
  2
VIEW
 70
     0
  0
ENDTAB
  0
TABLE
  2
UCS
 70
     0
  0
ENDTAB
  0
TABLE
  2
APPID
 70
    35
  0
APPID
  2
ACAD
 70
     0
  0
APPID
  2
GLOBAL
 70
     0
  0
APPID
  2
DETAIL
 70
     0
  0
APPID
  2
GRPNAME
 70
     0
  0
APPID
  2
GPARA
 70
     0
  0
APPID
  2
MCAD_NO_VIS
 70
     0
  0
APPID
  2
ACAD_TEMP_GRAPHIC
 70
     0
  0
APPID
  2
ACATTRIBSERVICES
 70
     0
  0
APPID
  2
GENIUS_GENSCREG_15
 70
     0
  0
APPID
  2
GENIUS_GENODEF_13
 70
     0
  0
APPID
  2
GENIUS_GENOBJ-N-SDF_13
 70
     0
  0
APPID
  2
GENIUS_GENREC_14
 70
     0
  0
APPID
  2
GENIUS_GENOBJ-N-REC_13
 70
     0
  0
APPID
  2
GENIUS_GENDIMSH_14
 70
     0
  0
APPID
  2
GENIUS_GENOBJ-N-DIM_13
 70
     0
  0
APPID
  2
GENIUS_GENDIM_13
 70
     0
  0
APPID
  2
GENIUS_GENDTOL_13
 70
     0
  0
APPID
  2
GENIUS_GENOLIS_13
 70
     0
  0
APPID
  2
GENIUS_GENOENT_13
 70
     0
  0
APPID
  2
GENIUS_GENOBJ-F-FEM_13
 70
     0
  0
APPID
  2
GENIUS_GENOREF_13
 70
     0
  0
APPID
  2
GENIUS_GEFFEM_13
 70
     0
  0
APPID
  2
GENIUS_GEFFEMP_13
 70
     0
  0
APPID
  2
AD_DRAW
 70
     0
  0
APPID
  2
DESIGNERASSEMBLIES
 70
     0
  0
APPID
  2
ACADM_DIM_EDIT
 70
     0
  0
APPID
  2
AMDT_DM_ADJ
 70
     0
  0
APPID
  2
ITEMNAME
 70
     0
  0
APPID
  2
GENIUS_GENOBJ-N-FIL_13
 70
     0
  0
APPID
  2
GENIUS_GENFIL_13
 70
     0
  0
APPID
  2
GENIUS_GENOBJ-N-CHA_13
 70
     0
  0
APPID
  2
ACAD_NAV_VCDISPLAY
 70
     0
  0
APPID
  2
ACAD_EXEMPT_FROM_CAD_STANDARDS
 70
     0
  0
APPID
  2
ACAD_DSTYLE_DIMINSPECT
 70
     0
  0
APPID
  2
ACAD_MLEADERVER
 70
     0
  0
ENDTAB
  0
TABLE
  2
DIMSTYLE
 70
    23
  0
DIMSTYLE
  2
BIGT
 70
     0
  3

  4

  5
OPEN
  6

  7

 40
1.0
 41
2.2299999999999991
 42
0.5
 43
7.0
 44
1.0
 45
0.0
 46
0.0
 47
0.0
 48
0.01
140
2.7999999999999989
141
0.0
142
0.0
143
25.399999999999999
144
1.0
145
0.0
146
1.0
147
1.0
 71
     0
 72
     0
 73
     0
 74
     0
 75
     0
 76
     0
 77
     3
 78
     9
170
     0
171
     2
172
     1
173
     0
174
     1
175
     0
176
   256
177
   256
178
    40
  0
DIMSTYLE
  2
AM_ISO
 70
     0
  3

  4
"
  5

  6

  7

 40
1.0
 41
2.5
 42
1.0
 43
10.0
 44
1.0
 45
0.0
 46
0.0
 47
0.1
 48
0.1
140
3.5
141
0.0
142
0.0
143
0.0393701
144
1.0
145
0.0
146
0.71
147
1.5
 71
     0
 72
     0
 73
     0
 74
     0
 75
     0
 76
     0
 77
     1
 78
     8
170
     0
171
     2
172
     1
173
     0
174
     0
175
     0
176
   256
177
   256
178
     2
  0
DIMSTYLE
  2
AM_ISO$3
 70
     0
  3

  4
"
  5

  6

  7

 40
1.0
 41
2.5
 42
1.0
 43
10.0
 44
1.0
 45
0.0
 46
0.0
 47
0.1
 48
0.1
140
3.5
141
0.0
142
0.0
143
0.0393701
144
1.0
145
0.0
146
0.71
147
1.5
 71
     0
 72
     0
 73
     0
 74
     1
 75
     0
 76
     0
 77
     1
 78
     8
170
     0
171
     2
172
     0
173
     0
174
     0
175
     0
176
   256
177
   256
178
     2
  0
DIMSTYLE
  2
AM_ISO$4
 70
     0
  3

  4
"
  5

  6

  7

 40
1.0
 41
2.5
 42
1.0
 43
10.0
 44
1.0
 45
0.0
 46
0.0
 47
0.1
 48
0.1
140
3.5
141
0.0
142
0.0
143
0.0393701
144
1.0
145
0.0
146
0.71
147
1.5
 71
     0
 72
     0
 73
     0
 74
     1
 75
     0
 76
     0
 77
     1
 78
     8
170
     0
171
     2
172
     0
173
     0
174
     0
175
     0
176
   256
177
   256
178
     2
  0
DIMSTYLE
  2
AM_ISO$6
 70
     0
  3

  4
"
  5

  6

  7

 40
1.0
 41
2.5
 42
1.0
 43
10.0
 44
1.0
 45
0.0
 46
0.0
 47
0.1
 48
0.1
140
3.5
141
0.0
142
0.0
143
0.0393701
144
1.0
145
0.0
146
0.71
147
1.5
 71
     0
 72
     0
 73
     0
 74
     0
 75
     0
 76
     0
 77
     0
 78
     8
170
     0
171
     2
172
     1
173
     0
174
     0
175
     0
176
   256
177
   256
178
     2
  0
DIMSTYLE
  2
AM_ISO$7
 70
     0
  3

  4
"
  5

  6

  7

 40
1.0
 41
2.5
 42
1.0
 43
10.0
 44
1.0
 45
0.0
 46
0.0
 47
0.1
 48
0.1
140
5.0
141
0.0
142
0.0
143
0.0393701
144
1.0
145
0.0
146
0.71
147
1.5
 71
     0
 72
     0
 73
     0
 74
     0
 75
     0
 76
     0
 77
     1
 78
     8
170
     0
171
     2
172
     1
173
     0
174
     0
175
     0
176
   256
177
   256
178
     2
  0
DIMSTYLE
  2
AM_ISO$SF
 70
     0
  3

  4
"
  5

  6

  7

 40
1.0
 41
2.5
 42
1.0
 43
10.0
 44
1.0
 45
0.0
 46
0.0
 47
0.1
 48
0.1
140
3.5
141
0.0
142
0.0
143
0.0393701
144
1.0
145
0.0
146
0.71
147
1.5
 71
     0
 72
     0
 73
     0
 74
     0
 75
     1
 76
     1
 77
     1
 78
     8
170
     0
171
     2
172
     1
173
     0
174
     0
175
     0
176
   256
177
   256
178
     2
  0
DIMSTYLE
  2
AM_ISO$SH
 70
     0
  3

  4
"
  5

  6
GENAXEH
  7

 40
1.0
 41
2.5
 42
1.0
 43
10.0
 44
1.0
 45
0.0
 46
0.0
 47
0.1
 48
0.1
140
3.5
141
0.0
142
0.0
143
0.0393701
144
2.0
145
0.0
146
0.71
147
1.5
 71
     0
 72
     0
 73
     0
 74
     0
 75
     1
 76
     1
 77
     1
 78
     8
170
     0
171
     2
172
     1
173
     1
174
     0
175
     0
176
   256
177
   256
178
     2
  0
DIMSTYLE
  2
BIGT$2
 70
     0
  3

  4

  5
OPEN
  6

  7

 40
1.0
 41
2.2299999999999991
 42
0.5
 43
7.0
 44
1.0
 45
0.0
 46
0.0
 47
0.0
 48
0.01
140
2.7999999999999989
141
0.0
142
0.0
143
25.399999999999999
144
1.0
145
0.0
146
1.0
147
1.0
 71
     0
 72
     0
 73
     0
 74
     0
 75
     0
 76
     0
 77
     3
 78
     9
170
     0
171
     2
172
     1
173
     0
174
     0
175
     0
176
   256
177
   256
178
    40
  0
DIMSTYLE
  2
BIGT$3
 70
     0
  3

  4

  5
OPEN
  6

  7

 40
1.0
 41
2.2299999999999991
 42
0.5
 43
2.5
 44
1.0
 45
0.0
 46
0.0
 47
0.0
 48
0.01
140
2.7999999999999989
141
0.0
142
0.0
143
25.399999999999999
144
1.0
145
0.0
146
1.0
147
1.0
 71
     0
 72
     0
 73
     0
 74
     0
 75
     0
 76
     0
 77
     3
 78
     9
170
     0
171
     2
172
     1
173
     0
174
     0
175
     0
176
   256
177
   256
178
    40
  0
DIMSTYLE
  2
BIGT$7
 70
     0
  3

  4

  5
OPEN
  6

  7

 40
0.0
 41
2.2299999999999991
 42
0.5
 43
7.0
 44
1.0
 45
0.0
 46
0.0
 47
0.0
 48
0.01
140
2.7999999999999989
141
0.0
142
0.0
143
25.399999999999999
144
1.0
145
0.0
146
1.0
147
1.0
 71
     0
 72
     0
 73
     0
 74
     0
 75
     0
 76
     0
 77
     3
 78
     9
170
     0
171
     2
172
     0
173
     0
174
     0
175
     0
176
   256
177
   256
178
    40
  0
DIMSTYLE
  2
BIGT$6
 70
     0
  3

  4

  5
OPEN
  6

  7

 40
1.0
 41
2.2299999999999991
 42
0.5
 43
2.5
 44
1.0
 45
0.0
 46
0.0
 47
0.0
 48
0.01
140
2.7999999999999989
141
0.0
142
0.0
143
25.399999999999999
144
1.0
145
0.0
146
1.0
147
1.0
 71
     0
 72
     0
 73
     0
 74
     0
 75
     0
 76
     0
 77
     3
 78
     9
170
     0
171
     2
172
     1
173
     0
174
     0
175
     0
176
   256
177
   256
178
    40
  0
DIMSTYLE
  2
BIGT$0
 70
     0
  3

  4

  5
OPEN
  6

  7

 40
1.0
 41
2.2299999999999991
 42
0.5
 43
7.0
 44
1.0
 45
0.0
 46
0.0
 47
0.0
 48
0.01
140
2.7999999999999989
141
0.0
142
0.0
143
25.399999999999999
144
1.0
145
0.0
146
1.0
147
1.0
 71
     0
 72
     0
 73
     0
 74
     0
 75
     0
 76
     0
 77
     3
 78
     9
170
     0
171
     2
172
     1
173
     0
174
     1
175
     0
176
   256
177
   256
178
    40
  0
DIMSTYLE
  2
BIGT$4
 70
     0
  3

  4

  5
OPEN
  6

  7

 40
1.0
 41
2.2299999999999991
 42
0.5
 43
2.5
 44
1.0
 45
0.0
 46
0.0
 47
0.0
 48
0.01
140
2.7999999999999989
141
0.0
142
0.0
143
25.399999999999999
144
1.0
145
0.0
146
1.0
147
1.0
 71
     0
 72
     0
 73
     0
 74
     0
 75
     0
 76
     0
 77
     3
 78
     9
170
     0
171
     2
172
     1
173
     0
174
     0
175
     0
176
   256
177
   256
178
    40
  0
DIMSTYLE
  2
BIGT$SH
 70
     0
  3

  4

  5
OPEN
  6

  7

 40
1.0
 41
2.2299999999999991
 42
0.5
 43
7.0
 44
1.0
 45
0.0
 46
0.0
 47
0.0
 48
0.0
140
2.7999999999999989
141
0.0
142
0.0
143
25.399999999999999
144
1.0
145
0.0
146
1.0
147
1.0
 71
     0
 72
     0
 73
     0
 74
     0
 75
     0
 76
     0
 77
     3
 78
     9
170
     0
171
     2
172
     1
173
     0
174
     0
175
     0
176
   256
177
   256
178
    40
  0
DIMSTYLE
  2
BIGT$SF
 70
     0
  3

  4

  5
OPEN
  6

  7

 40
1.0
 41
2.2299999999999991
 42
0.5
 43
7.0
 44
1.0
 45
0.0
 46
0.0
 47
0.0
 48
0.0
140
2.7999999999999989
141
0.0
142
0.0
143
25.399999999999999
144
1.0
145
0.0
146
1.0
147
1.0
 71
     0
 72
     0
 73
     0
 74
     0
 75
     0
 76
     0
 77
     3
 78
     9
170
     0
171
     2
172
     1
173
     0
174
     0
175
     0
176
   256
177
   256
178
    40
  0
DIMSTYLE
  2
TECHNICAL_OSAKA
 70
     0
  3

  4
"
  5
OPEN30
  6

  7

 40
1.0
 41
2.5
 42
1.0
 43
10.0
 44
1.0
 45
0.0
 46
0.0
 47
0.1
 48
0.1
140
2.7999999999999989
141
0.0
142
0.0
143
0.0393701
144
1.0
145
0.0
146
0.71
147
1.5
 71
     0
 72
     0
 73
     0
 74
     0
 75
     0
 76
     0
 77
     3
 78
     8
170
     0
171
     2
172
     1
173
     0
174
     0
175
     0
176
   256
177
   256
178
    40
  0
DIMSTYLE
  2
TECHNICAL_OSAKA$3
 70
     0
  3

  4
"
  5
OPEN30
  6

  7

 40
1.0
 41
2.5
 42
1.0
 43
10.0
 44
1.0
 45
0.0
 46
0.0
 47
0.1
 48
0.1
140
2.7999999999999989
141
0.0
142
0.0
143
0.0393701
144
1.0
145
0.0
146
0.71
147
1.5
 71
     0
 72
     0
 73
     0
 74
     1
 75
     0
 76
     0
 77
     3
 78
     8
170
     0
171
     2
172
     0
173
     0
174
     0
175
     0
176
   256
177
   256
178
    40
  0
DIMSTYLE
  2
TECHNICAL_OSAKA$4
 70
     0
  3

  4
"
  5
OPEN30
  6

  7

 40
1.0
 41
2.5
 42
1.0
 43
10.0
 44
1.0
 45
0.0
 46
0.0
 47
0.1
 48
0.1
140
2.7999999999999989
141
0.0
142
0.0
143
0.0393701
144
1.0
145
0.0
146
0.71
147
1.5
 71
     0
 72
     0
 73
     0
 74
     1
 75
     0
 76
     0
 77
     3
 78
     8
170
     0
171
     2
172
     0
173
     0
174
     0
175
     0
176
   256
177
   256
178
    40
  0
DIMSTYLE
  2
TECHNICAL_OSAKA$6
 70
     0
  3

  4
"
  5
OPEN30
  6

  7

 40
1.0
 41
2.5
 42
1.0
 43
10.0
 44
1.0
 45
0.0
 46
0.0
 47
0.1
 48
0.1
140
2.7999999999999989
141
0.0
142
0.0
143
0.0393701
144
1.0
145
0.0
146
0.71
147
1.5
 71
     0
 72
     0
 73
     0
 74
     0
 75
     0
 76
     0
 77
     0
 78
     8
170
     0
171
     2
172
     1
173
     0
174
     0
175
     0
176
   256
177
   256
178
    40
  0
DIMSTYLE
  2
TECHNICAL_OSAKA$7
 70
     0
  3

  4
"
  5
OPEN30
  6

  7

 40
1.0
 41
2.5
 42
1.0
 43
10.0
 44
1.0
 45
0.0
 46
0.0
 47
0.1
 48
0.1
140
2.7999999999999989
141
0.0
142
0.0
143
0.0393701
144
1.0
145
0.0
146
0.71
147
1.5
 71
     0
 72
     0
 73
     0
 74
     0
 75
     0
 76
     0
 77
     3
 78
     8
170
     0
171
     2
172
     1
173
     0
174
     0
175
     0
176
   256
177
   256
178
    40
  0
DIMSTYLE
  2
TECHNICAL_OSAKA$SF
 70
     0
  3

  4
"
  5
OPEN30
  6
OPEN30
  7
OPEN30
 40
1.0
 41
2.5
 42
1.0
 43
10.0
 44
1.0
 45
0.0
 46
0.0
 47
0.1
 48
0.1
140
3.5
141
0.0
142
0.0
143
0.0393701
144
1.0
145
0.0
146
0.71
147
1.5
 71
     0
 72
     0
 73
     0
 74
     0
 75
     1
 76
     1
 77
     3
 78
     8
170
     0
171
     2
172
     1
173
     0
174
     0
175
     0
176
   256
177
   256
178
    40
  0
DIMSTYLE
  2
TECHNICAL_OSAKA$SH
 70
     0
  3

  4
"
  5
OPEN30
  6
GENAXEH
  7
OPEN30
 40
1.0
 41
2.5
 42
1.0
 43
10.0
 44
1.0
 45
0.0
 46
0.0
 47
0.1
 48
0.1
140
3.5
141
0.0
142
0.0
143
0.0393701
144
2.0
145
0.0
146
0.71
147
1.5
 71
     0
 72
     0
 73
     0
 74
     0
 75
     1
 76
     1
 77
     3
 78
     8
170
     0
171
     2
172
     1
173
     1
174
     0
175
     0
176
   256
177
   256
178
    40
  0
ENDTAB
  0
ENDSEC
  0
SECTION
  2
BLOCKS
  0
BLOCK
  8
0
  2
$MODEL_SPACE
 70
     0
 10
0.0
 20
0.0
 30
0.0
  3
$MODEL_SPACE
  1

  0
ENDBLK
  5
1C
  8
0
  0
BLOCK
 67
     1
  8
0
  2
$PAPER_SPACE
 70
     0
 10
0.0
 20
0.0
 30
0.0
  3
$PAPER_SPACE
  1

  0
ENDBLK
  5
19
 67
     1
  8
0
  0
BLOCK
  8
0
  2
_OPEN
 70
     0
 10
0.0
 20
0.0
 30
0.0
  3
_OPEN
  1

  0
LINE
  5
47DE
  8
0
  6
BYBLOCK
 62
     0
 10
-1.0
 20
0.1666666666666666
 30
0.0
 11
0.0
 21
0.0
 31
0.0
  0
LINE
  5
47DF
  8
0
  6
BYBLOCK
 62
     0
 10
-1.0
 20
-0.1666666666666666
 30
0.0
 11
0.0
 21
0.0
 31
0.0
  0
LINE
  5
47E0
  8
0
  6
BYBLOCK
 62
     0
 10
0.0
 20
0.0
 30
0.0
 11
-1.0
 21
0.0
 31
0.0
  0
ENDBLK
  5
47E1
  8
0
  0
BLOCK
  8
0
  2
GENAXEH
 70
     0
 10
0.0
 20
0.0
 30
0.0
  3
GENAXEH
  1

  0
LINE
  5
4819
  8
0
 10
-1.0
 20
0.0
 30
0.0
 11
1.0
 21
0.0
 31
0.0
  0
ENDBLK
  5
481A
  8
0
  0
BLOCK
  8
0
  2
_OPEN30
 70
     0
 10
0.0
 20
0.0
 30
0.0
  3
_OPEN30
  1

  0
LINE
  5
4855
  8
0
  6
BYBLOCK
 62
     0
 10
-1.0
 20
0.26794919
 30
0.0
 11
0.0
 21
0.0
 31
0.0
  0
LINE
  5
4856
  8
0
  6
BYBLOCK
 62
     0
 10
0.0
 20
0.0
 30
0.0
 11
-1.0
 21
-0.26794919
 31
0.0
  0
LINE
  5
4857
  8
0
  6
BYBLOCK
 62
     0
 10
0.0
 20
0.0
 30
0.0
 11
-1.0
 21
0.0
 31
0.0
  0
ENDBLK
  5
4858
  8
0
  0
ENDSEC
  0
SECTION
  2
ENTITIES
  0
LINE
  5
4330
  8
240
 10
143.50000000000071
 20
15.24999999999846
 30
0.0
 11
66.999999999998721
 21
15.24999999999846
 31
0.0
  0
LINE
  5
4331
  8
241
 10
38.500000000000711
 20
28.499999999998408
 30
0.0
 11
38.500000000000711
 21
20.499999999998629
 31
0.0
  0
LINE
  5
4332
  8
240
 10
143.50000000000071
 20
-15.250000000001499
 30
0.0
 11
66.999999999998778
 21
-15.250000000001499
 31
0.0
  0
LINE
  5
4333
  8
240
 10
38.000000000000632
 20
28.999999999998519
 30
0.0
 11
38.500000000000711
 21
28.499999999998408
 31
0.0
1001
GENIUS_GENFIL_13
1070
     0
1040
0.5
1040
0.5
1040
0.2499999999981526
1040
45.0
1002
{
1002
}
1001
GENIUS_GENOBJ-N-CHA_13
1002
{
1000
OWNER
1000
GEN
1002
}
1001
GENIUS_GENODEF_13
1002
{
1000
HIER
1070
     0
1002
}
1002
{
1000
MANEDIT
1070
     0
1002
}
1002
{
1000
NOSEL
1070
     0
1002
}
1002
{
1000
BEHIND
1070
     0
1002
}
1002
{
1000
OTHER
1070
     0
1002
}
1002
{
1000
REACTOR
1002
}
  0
LINE
  5
4334
  8
245
 10
-106.6875966489781
 20
0.0
 30
0.0
 11
48.508881476163559
 21
0.0
 31
0.0
  0
LINE
  5
4335
  8
245
 10
54.405892140588008
 20
0.0
 30
0.0
 11
71.768156042318324
 21
0.0
 31
0.0
  0
LINE
  5
4336
  8
245
 10
77.591244172841385
 20
0.0
 30
0.0
 11
173.46139395034501
 21
0.0
 31
0.0
  0
LINE
  5
4337
  8
240
 10
38.000000000000171
 20
-29.000000000002021
 30
0.0
 11
38.500000000000711
 21
-28.500000000001481
 31
0.0
1001
GENIUS_GENFIL_13
1070
     0
1040
0.5
1040
0.5
1040
0.2499999999981526
1040
45.0
1002
{
1002
}
1001
GENIUS_GENOBJ-N-CHA_13
1002
{
1000
OWNER
1000
GEN
1002
}
1001
GENIUS_GENODEF_13
1002
{
1000
HIER
1070
     0
1002
}
1002
{
1000
MANEDIT
1070
     0
1002
}
1002
{
1000
NOSEL
1070
     0
1002
}
1002
{
1000
BEHIND
1070
     0
1002
}
1002
{
1000
OTHER
1070
     0
1002
}
1002
{
1000
REACTOR
1002
}
  0
LINE
  5
4338
  8
241
 10
38.000000000000142
 20
-29.000000000002021
 30
0.0
 11
38.000000000000142
 21
-0.0000000000015632
 31
0.0
  0
LINE
  5
433A
  8
250
 10
-50.782972670372892
 20
-43.570345964537808
 30
0.0
 11
-69.782972670372885
 21
-43.570345964537808
 31
0.0
1001
ITEMNAME
1000
LNSP2
  0
LINE
  5
433E
  8
243
 10
34.0
 20
35.400000000000119
 30
0.0
 11
34.0
 21
50.0
 31
0.0
  0
LINE
  5
433F
  8
243
 10
34.0
 20
35.400000000000119
 30
0.0
 11
1.4999999999984079
 21
35.400000000000091
 31
0.0
  0
LINE
  5
4340
  8
243
 10
34.0
 20
-35.399999999999892
 30
0.0
 11
1.4999999999984079
 21
-35.399999999999871
 31
0.0
  0
LINE
  5
4357
  8
241
 10
0.0
 20
34.925000000000011
 30
0.0
 11
0.0
 21
-34.925000000000011
 31
0.0
  0
LINE
  5
4358
  8
241
 10
1.499999999999146
 20
-34.925000000000011
 30
0.0
 11
1.4999999999992359
 21
34.925000000000011
 31
0.0
  0
ARC
  5
4359
  8
240
 10
36.700000000000621
 20
48.699999999999989
 30
0.0
 40
1.3000000000000109
 50
0.0
 51
90.0
  0
LINE
  5
435A
  8
240
 10
38.000000000000632
 20
48.699999999999989
 30
0.0
 11
38.000000000000632
 21
28.999999999998519
 31
0.0
  0
LINE
  5
435B
  8
240
 10
37.999999999999829
 20
-48.700000000000159
 30
0.0
 11
38.000000000000171
 21
-29.000000000002021
 31
0.0
  0
LINE
  5
435C
  8
240
 10
0.0
 20
-34.925000000000011
 30
0.0
 11
-99.917475164758002
 21
-20.353701538472791
 31
0.0
  0
LINE
  5
435D
  8
240
 10
0.0
 20
34.925000000000011
 30
0.0
 11
-99.917475164757803
 21
20.353701538472819
 31
0.0
  0
LINE
  5
4362
  8
240
 10
1.4999999999992359
 20
34.925000000000011
 30
0.0
 11
1.500000000000113
 21
49.0
 31
0.0
  0
ARC
  5
4363
  8
240
 10
2.5000000000001128
 20
49.0
 30
0.0
 40
1.0
 50
90.0
 51
180.0
  0
LINE
  5
4367
  8
245
 10
-104.3360820532293
 20
0.0000000000011369
 30
0.0
 11
-33.376862424462281
 21
0.0000000000002842
 31
0.0
  0
LINE
  5
4368
  8
241
 10
15.66269223573061
 20
0.000000000002899
 30
0.0
 11
15.662692235739961
 21
49.826794919247618
 31
0.0
  0
LINE
  5
4369
  8
241
 10
19.992819254652598
 20
0.0000000000021032
 30
0.0
 11
19.992819254660589
 21
42.555051025723451
 31
0.0
  0
LINE
  5
436A
  8
241
 10
26.407180745348398
 20
0.0000000000009095
 30
0.0
 11
26.407180745356388
 21
42.555051025721752
 31
0.0
  0
LINE
  5
436B
  8
241
 10
30.73730776427033
 20
0.0000000000000568
 30
0.0
 11
30.737307764279681
 21
49.826794919238687
 31
0.0
  0
LINE
  5
436C
  8
240
 10
30.587307764271539
 20
49.740192378865117
 30
0.0
 11
26.49378328572692
 21
42.649999999999288
 31
0.0
  0
LINE
  5
436D
  8
240
 10
31.037307764271532
 20
50.000000000000391
 30
0.0
 11
30.587307764271539
 21
49.740192378865117
 31
0.0
  0
LINE
  5
436E
  8
240
 10
26.233975664591579
 20
42.499999999999311
 30
0.0
 11
20.166024335409471
 21
42.499999999999432
 31
0.0
  0
ARC
  5
436F
  8
240
 10
26.233975664591579
 20
42.799999999999322
 30
0.0
 40
0.3
 50
270.0
 51
329.99999999999812
  0
LINE
  5
4370
  8
240
 10
36.700000000000621
 20
50.000000000000171
 30
0.0
 11
31.03730776427108
 21
50.000000000000107
 31
0.0
  0
LINE
  5
4371
  8
240
 10
19.906216714274141
 20
42.649999999999409
 30
0.0
 11
15.81269223573093
 21
49.74019237886364
 31
0.0
  0
LINE
  5
4372
  8
240
 10
15.36269223573095
 20
49.999999999999041
 30
0.0
 11
15.81269223573093
 21
49.74019237886364
 31
0.0
  0
ARC
  5
4373
  8
240
 10
20.166024335409471
 20
42.799999999999443
 30
0.0
 40
0.3
 50
209.99999999999969
 51
270.0
  0
LINE
  5
4374
  8
240
 10
2.5000000000001128
 20
50.000000000000171
 30
0.0
 11
15.3626922357289
 21
50.000000000000227
 31
0.0
  0
LINE
  5
4375
  8
241
 10
26.407180745348398
 20
0.0
 30
0.0
 11
26.407180745348398
 21
-42.555051025720857
 31
0.0
  0
LINE
  5
4376
  8
240
 10
26.23397566459187
 20
-42.499999999999332
 30
0.0
 11
20.166024335409759
 21
-42.499999999999503
 31
0.0
  0
ARC
  5
4377
  8
240
 10
26.23397566459187
 20
-42.799999999999393
 30
0.0
 40
0.3
 50
30.00000000000195
 51
90.0
  0
LINE
  5
4378
  8
241
 10
19.992819254652598
 20
0.0
 30
0.0
 11
19.992819254652598
 21
-42.555051025721362
 31
0.0
  0
ARC
  5
4379
  8
240
 10
20.166024335409759
 20
-42.799999999999507
 30
0.0
 40
0.3
 50
90.0
 51
149.99999999999801
  0
LINE
  5
437A
  8
240
 10
-101.8
 20
18.17672898013387
 30
0.0
 11
-101.8
 21
-0.0000000000001705
 31
0.0
  0
LINE
  5
437C
  8
240
 10
-101.8
 20
-0.0000000000001705
 30
0.0
 11
-101.8000000000001
 21
-18.176728980133191
 31
0.0
  0
ARC
  5
437E
  8
240
 10
-99.600000000000151
 20
-18.176728980133191
 30
0.0
 40
2.2000000000000002
 50
180.0
 51
261.70285503016129
1001
GENIUS_GENODEF_13
1002
{
1000
HIER
1070
     0
1002
}
1002
{
1000
MANEDIT
1070
     0
1002
}
1002
{
1000
NOSEL
1070
     0
1002
}
1002
{
1000
BEHIND
1070
     0
1002
}
1002
{
1000
OTHER
1070
     0
1002
}
1002
{
1000
REACTOR
1002
}
1001
GENIUS_GENOBJ-N-FIL_13
1002
{
1000
OWNER
1000
GEN
1002
}
  0
ARC
  5
437F
  8
240
 10
-99.600000000000023
 20
18.17672898013387
 30
0.0
 40
2.2000000000000002
 50
98.297144969835202
 51
180.0
1001
GENIUS_GENOBJ-N-FIL_13
1002
{
1000
OWNER
1000
GEN
1002
}
1001
GENIUS_GENODEF_13
1002
{
1000
HIER
1070
     0
1002
}
1002
{
1000
MANEDIT
1070
     0
1002
}
1002
{
1000
NOSEL
1070
     0
1002
}
1002
{
1000
BEHIND
1070
     0
1002
}
1002
{
1000
OTHER
1070
     0
1002
}
1002
{
1000
REACTOR
1002
}
  0
LINE
  5
4386
  8
240
 10
149.00000000000071
 20
-14.49999999999997
 30
0.0
 11
149.50000000000071
 21
-14.99999999999997
 31
0.0
  0
LINE
  5
4387
  8
240
 10
149.00000000000071
 20
14.5
 30
0.0
 11
149.50000000000071
 21
15.0
 31
0.0
  0
ARC
  5
4388
  8
240
 10
145.50000000000071
 20
-14.0
 30
0.0
 40
1.0
 50
90.0
 51
180.0
  0
LINE
  5
4389
  8
240
 10
145.50000000000071
 20
-13.0
 30
0.0
 11
149.00000000000071
 21
-13.0
 31
0.0
  0
ARC
  5
438A
  8
240
 10
145.50000000000071
 20
14.00000000000003
 30
0.0
 40
1.0
 50
180.0
 51
270.0
  0
LINE
  5
438B
  8
240
 10
145.50000000000071
 20
13.00000000000003
 30
0.0
 11
149.00000000000071
 21
13.00000000000003
 31
0.0
  0
LINE
  5
438C
  8
240
 10
149.5000000000006
 20
16.70000000000001
 30
0.0
 11
149.5000000000006
 21
14.99999999999997
 31
0.0
  0
ARC
  5
438D
  8
240
 10
150.30000000000069
 20
16.70000000000001
 30
0.0
 40
0.799999999999983
 50
90.0
 51
180.0
  0
LINE
  5
438E
  8
240
 10
149.5000000000006
 20
-16.69999999999996
 30
0.0
 11
149.5000000000006
 21
-14.99999999999994
 31
0.0
  0
ARC
  5
438F
  8
240
 10
150.30000000000069
 20
-16.69999999999996
 30
0.0
 40
0.8000000000000113
 50
180.0
 51
270.0
  0
LINE
  5
4390
  8
240
 10
150.30000000000069
 20
17.5
 30
0.0
 11
163.41862915010211
 21
17.5
 31
0.0
  0
ARC
  5
4391
  8
240
 10
163.41862915010211
 20
16.70000000000001
 30
0.0
 40
0.7999999999999984
 50
45.0
 51
90.0
  0
LINE
  5
4392
  8
240
 10
150.30000000000069
 20
-17.499999999999972
 30
0.0
 11
163.41862915010211
 21
-17.500000000000028
 31
0.0
  0
ARC
  5
4393
  8
240
 10
163.41862915010211
 20
-16.70000000000001
 30
0.0
 40
0.7999999999999972
 50
270.0
 51
314.99999999999881
  0
LINE
  5
4394
  8
240
 10
164.79497474683129
 20
16.455025253169421
 30
0.0
 11
163.9843145750514
 21
17.26568542494925
 31
0.0
  0
ARC
  5
4395
  8
240
 10
164.30000000000061
 20
15.960050506338829
 30
0.0
 40
0.7000000000000171
 50
0.0
 51
45.000000000001151
  0
LINE
  5
4396
  8
240
 10
165.00000000000071
 20
15.960050506338829
 30
0.0
 11
165.00000000000071
 21
-15.960050506338829
 31
0.0
  0
LINE
  5
4397
  8
240
 10
163.9843145750514
 20
-17.26568542494925
 30
0.0
 11
164.79497474683129
 21
-16.455025253169421
 31
0.0
  0
ARC
  5
4398
  8
240
 10
164.30000000000061
 20
-15.960050506338829
 30
0.0
 40
0.7000000000000137
 50
315.0
 51
0.0
  0
LINE
  5
4399
  8
240
 10
149.00000000000071
 20
-14.49999999999997
 30
0.0
 11
149.00000000000071
 21
-13.0
 31
0.0
  0
LINE
  5
439A
  8
240
 10
149.00000000000071
 20
14.5
 30
0.0
 11
149.00000000000071
 21
13.00000000000003
 31
0.0
  0
LINE
  5
439B
  8
241
 10
149.5000000000006
 20
14.99999999999997
 30
0.0
 11
149.50000000000071
 21
0.0
 31
0.0
  0
LINE
  5
439C
  8
241
 10
149.5000000000006
 20
-14.99999999999994
 30
0.0
 11
149.50000000000071
 21
0.0000000000000284
 31
0.0
  0
LINE
  5
439D
  8
241
 10
146.50000000000071
 20
12.50000000000003
 30
0.0
 11
146.50000000000071
 21
0.0000000000000284
 31
0.0
  0
LINE
  5
439E
  8
241
 10
146.50000000000071
 20
-12.5
 30
0.0
 11
146.50000000000071
 21
0.0
 31
0.0
  0
LINE
  5
439F
  8
241
 10
150.30000000000069
 20
17.5
 30
0.0
 11
150.30000000000069
 21
16.056144924913578
 31
0.0
  0
LINE
  5
43A0
  8
241
 10
150.30000000000069
 20
14.05614492491361
 30
0.0
 11
150.30000000000069
 21
2.0
 31
0.0
  0
LINE
  5
43A1
  8
241
 10
150.30000000000069
 20
-1.9999999999999709
 30
0.0
 11
150.30000000000069
 21
-14.05614492491355
 31
0.0
  0
LINE
  5
43A2
  8
241
 10
150.30000000000069
 20
-16.05614492491355
 30
0.0
 11
150.30000000000069
 21
-17.499999999999972
 31
0.0
  0
LINE
  5
43A3
  8
241
 10
163.41862915010211
 20
17.000946073793749
 30
0.0
 11
163.41862915010211
 21
-17.152317880794701
 31
0.0
  0
LINE
  5
43A4
  8
241
 10
144.50000000000071
 20
14.00000000000003
 30
0.0
 11
144.50000000000071
 21
0.0000000000000284
 31
0.0
  0
LINE
  5
43A5
  8
241
 10
144.50000000000071
 20
-14.0
 30
0.0
 11
144.50000000000071
 21
0.0
 31
0.0
  0
LINE
  5
43A6
  8
241
 10
149.00000000000071
 20
-13.0
 30
0.0
 11
149.00000000000071
 21
0.0000000000000284
 31
0.0
  0
LINE
  5
43A7
  8
241
 10
149.00000000000071
 20
13.00000000000003
 30
0.0
 11
149.00000000000071
 21
0.0
 31
0.0
  0
LINE
  5
43A8
  8
241
 10
158.50000000000071
 20
2.0
 30
0.0
 11
149.5000000000006
 21
2.0
 31
0.0
  0
LINE
  5
43A9
  8
241
 10
158.50000000000071
 20
-1.9999999999999709
 30
0.0
 11
149.5000000000006
 21
-1.9999999999999709
 31
0.0
  0
LINE
  5
43AA
  8
241
 10
158.50000000000071
 20
2.0
 30
0.0
 11
158.50000000000071
 21
0.0
 31
0.0
  0
LINE
  5
43AB
  8
241
 10
158.50000000000071
 20
-1.9999999999999709
 30
0.0
 11
158.50000000000071
 21
0.0000000000000284
 31
0.0
  0
LINE
  5
43AC
  8
241
 10
158.50000000000071
 20
-14.05614492491355
 30
0.0
 11
149.5000000000006
 21
-14.05614492491355
 31
0.0
  0
LINE
  5
43AD
  8
241
 10
158.50000000000071
 20
-16.05614492491355
 30
0.0
 11
149.5000000000006
 21
-16.05614492491355
 31
0.0
  0
LINE
  5
43AE
  8
241
 10
158.50000000000071
 20
-16.05614492491355
 30
0.0
 11
158.50000000000071
 21
-14.05614492491355
 31
0.0
  0
LINE
  5
43AF
  8
241
 10
158.50000000000071
 20
16.056144924913578
 30
0.0
 11
149.5000000000006
 21
16.056144924913578
 31
0.0
  0
LINE
  5
43B0
  8
241
 10
158.50000000000071
 20
14.05614492491361
 30
0.0
 11
149.5000000000006
 21
14.05614492491361
 31
0.0
  0
LINE
  5
43B1
  8
241
 10
158.50000000000071
 20
16.056144924913578
 30
0.0
 11
158.50000000000071
 21
14.05614492491361
 31
0.0
  0
LINE
  5
43B2
  8
242
 10
146.50000000000071
 20
12.50000000000003
 30
0.0
 11
146.00000000000071
 21
13.00000000000003
 31
0.0
  0
LINE
  5
43B3
  8
242
 10
146.50000000000071
 20
-12.5
 30
0.0
 11
146.00000000000071
 21
-13.0
 31
0.0
  0
LINE
  5
43B4
  8
242
 10
149.00000000000071
 20
12.50000000000003
 30
0.0
 11
146.50000000000071
 21
12.50000000000003
 31
0.0
  0
LINE
  5
43B5
  8
242
 10
149.00000000000071
 20
-12.49999999999997
 30
0.0
 11
146.50000000000071
 21
-12.49999999999997
 31
0.0
  0
LINE
  5
43B6
  8
246
 10
161.80000000000061
 20
10.25000000000003
 30
0.0
 11
162.00000000000071
 21
10.25000000000003
 31
0.0
  0
LINE
  5
43B7
  8
246
 10
162.00000000000071
 20
10.25000000000003
 30
0.0
 11
165.00000000000071
 21
8.5179491924311606
 31
0.0
  0
LINE
  5
43B8
  8
246
 10
159.40000000000069
 20
8.7500000000000284
 30
0.0
 11
161.80000000000061
 21
8.7500000000000284
 31
0.0
  0
LINE
  5
43B9
  8
246
 10
161.80000000000061
 20
8.7500000000000284
 30
0.0
 11
161.80000000000061
 21
10.25000000000003
 31
0.0
  0
LINE
  5
43BA
  8
246
 10
159.40000000000069
 20
10.25000000000003
 30
0.0
 11
159.40000000000069
 21
8.7500000000000284
 31
0.0
  0
LINE
  5
43BB
  8
246
 10
159.40000000000069
 20
10.25000000000003
 30
0.0
 11
134.0000000000006
 21
7.5803524242518563
 31
0.0
  0
LINE
  5
43BC
  8
246
 10
134.0000000000006
 20
6.5000000000000284
 30
0.0
 11
165.00000000000071
 21
6.5000000000000284
 31
0.0
  0
LINE
  5
43BD
  8
246
 10
161.80000000000061
 20
-10.25
 30
0.0
 11
162.00000000000071
 21
-10.25
 31
0.0
  0
LINE
  5
43BE
  8
246
 10
159.40000000000069
 20
-10.25
 30
0.0
 11
134.0000000000006
 21
-7.5803524242517986
 31
0.0
  0
LINE
  5
43BF
  8
246
 10
159.40000000000069
 20
-10.25
 30
0.0
 11
159.40000000000069
 21
-8.75
 31
0.0
  0
LINE
  5
43C0
  8
246
 10
159.40000000000069
 20
-8.75
 30
0.0
 11
161.80000000000061
 21
-8.75
 31
0.0
  0
LINE
  5
43C1
  8
246
 10
161.80000000000061
 20
-8.75
 30
0.0
 11
161.80000000000061
 21
-10.25
 31
0.0
  0
LINE
  5
43C2
  8
246
 10
162.00000000000071
 20
-10.25
 30
0.0
 11
165.00000000000071
 21
-8.5179491924311037
 31
0.0
  0
LINE
  5
43C3
  8
246
 10
134.0000000000006
 20
-6.5
 30
0.0
 11
165.00000000000071
 21
-6.5
 31
0.0
  0
LINE
  5
43C4
  8
243
 10
149.00000000000071
 20
-13.0
 30
0.0
 11
156.50000000000071
 21
-12.99999999999997
 31
0.0
  0
LINE
  5
43C5
  8
243
 10
157.00000000000071
 20
-12.49999999999997
 30
0.0
 11
156.50000000000071
 21
-12.99999999999997
 31
0.0
  0
LINE
  5
43C6
  8
243
 10
149.00000000000071
 20
13.00000000000003
 30
0.0
 11
156.50000000000071
 21
13.00000000000003
 31
0.0
  0
LINE
  5
43C7
  8
243
 10
157.00000000000071
 20
12.50000000000003
 30
0.0
 11
156.50000000000071
 21
13.00000000000003
 31
0.0
  0
LINE
  5
43CC
  8
246
 10
115.0000000000007
 20
6.0000000000000284
 30
0.0
 11
111.3094010767592
 21
2.3094010767585469
 31
0.0
  0
LINE
  5
43CD
  8
246
 10
115.0000000000007
 20
-6.0
 30
0.0
 11
111.3094010767592
 21
-2.309401076758518
 31
0.0
  0
LINE
  5
43CE
  8
246
 10
107.39871747423609
 20
-2.309401076758518
 30
0.0
 11
111.3094010767592
 21
-2.309401076758518
 31
0.0
  0
LINE
  5
43CF
  8
246
 10
107.39871747423609
 20
-1.154700538379273
 30
0.0
 11
111.3094010767592
 21
-1.154700538379273
 31
0.0
  0
LINE
  5
43D0
  8
246
 10
107.39871747423609
 20
1.1547005383793021
 30
0.0
 11
111.3094010767592
 21
1.1547005383793021
 31
0.0
  0
LINE
  5
43D1
  8
246
 10
107.0000000000007
 20
3.000000000000028
 30
0.0
 11
107.0000000000007
 21
1.772515030365923
 31
0.0
  0
LINE
  5
43D2
  8
246
 10
107.39871747423609
 20
2.3094010767585469
 30
0.0
 11
107.0000000000006
 21
3.000000000000028
 31
0.0
  0
LINE
  5
43D3
  8
246
 10
107.39871747423609
 20
-2.309401076758518
 30
0.0
 11
107.0000000000006
 21
-3.0
 31
0.0
  0
LINE
  5
43D4
  8
246
 10
107.0000000000007
 20
-3.0
 30
0.0
 11
107.0000000000007
 21
-1.7725150303658941
 31
0.0
  0
LINE
  5
43D5
  8
246
 10
96.000000000000725
 20
-6.25
 30
0.0
 11
100.0000000000007
 21
-6.25
 31
0.0
  0
LINE
  5
43D6
  8
246
 10
100.0000000000007
 20
-6.25
 30
0.0
 11
100.7500000000007
 21
-7.0
 31
0.0
  0
ARC
  5
43D7
  8
246
 10
96.000000000000725
 20
5.2500000000000284
 30
0.0
 40
1.0
 50
90.0
 51
180.0
  0
LINE
  5
43D8
  8
246
 10
96.000000000000725
 20
6.2500000000000284
 30
0.0
 11
100.0000000000007
 21
6.2500000000000284
 31
0.0
  0
LINE
  5
43D9
  8
246
 10
100.0000000000007
 20
6.2500000000000284
 30
0.0
 11
100.7500000000007
 21
7.0000000000000284
 31
0.0
  0
LINE
  5
43DD
  8
246
 10
107.39871747423609
 20
-2.309401076758518
 30
0.0
 11
107.39871747423609
 21
2.3094010767585469
 31
0.0
  0
LINE
  5
43DE
  8
246
 10
107.39871747423609
 20
2.3094010767585469
 30
0.0
 11
111.3094010767592
 21
2.3094010767585469
 31
0.0
  0
LINE
  5
43DF
  8
246
 10
111.3094010767592
 20
-2.309401076758518
 30
0.0
 11
111.3094010767592
 21
2.3094010767585469
 31
0.0
  0
LINE
  5
43E1
  8
246
 10
134.0000000000006
 20
7.5764740519616112
 30
0.0
 11
134.0000000000006
 21
-7.5803524242517986
 31
0.0
  0
LINE
  5
43E4
  8
246
 10
114.30000000000059
 20
-7.0
 30
0.0
 11
115.0000000000006
 21
-6.2999999999999821
 31
0.0
  0
LINE
  5
43E5
  8
246
 10
115.0000000000006
 20
6.3000000000000389
 30
0.0
 11
115.0000000000006
 21
-6.2999999999999821
 31
0.0
  0
LINE
  5
43E6
  8
246
 10
115.0000000000006
 20
6.3000000000000389
 30
0.0
 11
114.30000000000059
 21
7.0000000000000284
 31
0.0
  0
LINE
  5
43E7
  8
246
 10
95.000000000000711
 20
-5.25
 30
0.0
 11
95.000000000000711
 21
5.2500000000000284
 31
0.0
  0
ARC
  5
43E8
  8
246
 10
96.000000000000725
 20
-5.25
 30
0.0
 40
1.0
 50
180.0
 51
270.0
  0
LINE
  5
43E9
  8
246
 10
107.0000000000007
 20
3.000000000000028
 30
0.0
 11
95.000000000000711
 21
3.000000000000028
 31
0.0
  0
LINE
  5
43EA
  8
246
 10
107.0000000000007
 20
-3.0
 30
0.0
 11
95.000000000000711
 21
-3.0
 31
0.0
  0
LINE
  5
43EB
  8
246
 10
100.7500000000007
 20
7.0000000000000284
 30
0.0
 11
114.30000000000059
 21
7.0000000000000284
 31
0.0
  0
LINE
  5
43ED
  8
246
 10
100.7500000000007
 20
-7.0
 30
0.0
 11
114.30000000000059
 21
-7.0
 31
0.0
  0
LINE
  5
43EF
  8
243
 10
157.00000000000071
 20
-12.49999999999997
 30
0.0
 11
157.00000000000071
 21
-9.9977498353623844
 31
0.0
  0
LINE
  5
43F0
  8
243
 10
157.00000000000071
 20
12.50000000000003
 30
0.0
 11
157.00000000000071
 21
9.9977498353624128
 31
0.0
  0
LINE
  5
43F1
  8
244
 10
149.00000000000071
 20
12.50000000000003
 30
0.0
 11
157.00000000000071
 21
12.50000000000003
 31
0.0
  0
LINE
  5
43F2
  8
244
 10
149.00000000000071
 20
-12.49999999999997
 30
0.0
 11
157.00000000000071
 21
-12.49999999999997
 31
0.0
  0
LINE
  5
43F7
  8
246
 10
100.4000000000007
 20
6.6500000000000341
 30
0.0
 11
114.6500000000007
 21
6.6500000000000341
 31
0.0
  0
LINE
  5
43F9
  8
246
 10
100.4000000000007
 20
-6.6500000000000048
 30
0.0
 11
114.6500000000007
 21
-6.6500000000000048
 31
0.0
  0
LINE
  5
43FB
  8
240
 10
144.50000000000071
 20
14.250000000000281
 30
0.0
 11
144.50000000000071
 21
14.000000000000281
 31
0.0
  0
ARC
  5
43FC
  8
240
 10
143.50000000000071
 20
14.250000000000281
 30
0.0
 40
1.0
 50
0.0
 51
90.0
1001
GENIUS_GENODEF_13
1002
{
1000
HIER
1070
     0
1002
}
1002
{
1000
MANEDIT
1070
     0
1002
}
1002
{
1000
NOSEL
1070
     0
1002
}
1002
{
1000
BEHIND
1070
     0
1002
}
1002
{
1000
OTHER
1070
     0
1002
}
1002
{
1000
REACTOR
1002
}
1001
GENIUS_GENOBJ-N-FIL_13
1002
{
1000
OWNER
1000
GEN
1002
}
  0
LINE
  5
43FD
  8
240
 10
144.50000000000071
 20
-14.24999999999971
 30
0.0
 11
144.50000000000071
 21
-13.999999999999741
 31
0.0
  0
ARC
  5
43FE
  8
240
 10
143.50000000000071
 20
-14.24999999999971
 30
0.0
 40
1.0
 50
270.0
 51
0.0
1001
GENIUS_GENODEF_13
1002
{
1000
HIER
1070
     0
1002
}
1002
{
1000
MANEDIT
1070
     0
1002
}
1002
{
1000
NOSEL
1070
     0
1002
}
1002
{
1000
BEHIND
1070
     0
1002
}
1002
{
1000
OTHER
1070
     0
1002
}
1002
{
1000
REACTOR
1002
}
1001
GENIUS_GENOBJ-N-FIL_13
1002
{
1000
OWNER
1000
GEN
1002
}
  0
LINE
  5
43FF
  8
241
 10
143.50000000000071
 20
15.250000000000281
 30
0.0
 11
143.50000000000071
 21
11.79823369687608
 31
0.0
  0
LINE
  5
4400
  8
241
 10
143.50000000000071
 20
-12.02341248627291
 30
0.0
 11
143.50000000000071
 21
-15.24999999999971
 31
0.0
  0
LINE
  5
4404
  8
250
 10
165.00000000000071
 20
-6.5
 30
0.0
 11
179.75879155171521
 21
-6.5
 31
0.0
  0
LINE
  5
4405
  8
250
 10
165.00000000000071
 20
6.5
 30
0.0
 11
179.61816497364009
 21
6.5
 31
0.0
  0
LINE
  5
4407
  8
241
 10
38.500000000000831
 20
-28.249999999999769
 30
0.0
 11
38.500000000000711
 21
0.000000000000199
 31
0.0
  0
LINE
  5
4408
  8
241
 10
66.999999999998778
 20
-15.249999999999741
 30
0.0
 11
66.999999999998778
 21
15.250000000000171
 31
0.0
  0
LINE
  5
4409
  8
240
  6
CONTINUOUS
 10
66.500000000000369
 20
-15.499999999999799
 30
0.0
 11
66.749999999998664
 21
-15.499999999999771
 31
0.0
  0
LINE
  5
440A
  8
240
 10
66.999999999998778
 20
-15.249999999999741
 30
0.0
 11
66.749999999998778
 21
-15.499999999999741
 31
0.0
  0
LINE
  5
440B
  8
241
  6
CONTINUOUS
 10
49.500000000000419
 20
0.0000000000000853
 30
0.0
 11
49.500000000000142
 21
-28.49999999999989
 31
0.0
  0
ARC
  5
440C
  8
240
 10
49.000000000000142
 20
-28.49999999999989
 30
0.0
 40
0.5
 50
270.0
 51
0.0
1001
GENIUS_GENODEF_13
1002
{
1000
HIER
1070
     0
1002
}
1002
{
1000
MANEDIT
1070
     0
1002
}
1002
{
1000
NOSEL
1070
     0
1002
}
1002
{
1000
BEHIND
1070
     0
1002
}
1002
{
1000
OTHER
1070
     0
1002
}
1002
{
1000
REACTOR
1002
}
1001
GENIUS_GENOBJ-N-FIL_13
1002
{
1000
OWNER
1000
GEN
1002
}
  0
LINE
  5
440D
  8
240
 10
49.00000000000076
 20
29.000000000000089
 30
0.0
 11
49.500000000000767
 21
28.500000000000082
 31
0.0
1001
GENIUS_GENFIL_13
1070
     0
1040
0.5
1040
0.5
1040
0.2500000000000284
1040
45.00000000000162
1002
{
1002
}
1001
GENIUS_GENODEF_13
1002
{
1000
HIER
1070
     0
1002
}
1002
{
1000
MANEDIT
1070
     0
1002
}
1002
{
1000
NOSEL
1070
     0
1002
}
1002
{
1000
BEHIND
1070
     0
1002
}
1002
{
1000
OTHER
1070
     0
1002
}
1002
{
1000
REACTOR
1002
}
1001
GENIUS_GENOBJ-N-CHA_13
1002
{
1000
OWNER
1000
GEN
1002
}
  0
LINE
  5
440E
  8
240
 10
39.000000000000767
 20
29.000000000000089
 30
0.0
 11
48.50000000000076
 21
29.000000000000089
 31
0.0
  0
LINE
  5
440F
  8
240
 10
39.000000000000767
 20
29.000000000000089
 30
0.0
 11
49.00000000000076
 21
29.000000000000089
 31
0.0
  0
LINE
  5
4410
  8
240
 10
38.500000000000647
 20
28.499999999999972
 30
0.0
 11
39.000000000000767
 21
29.000000000000089
 31
0.0
1001
GENIUS_GENFIL_13
1070
     0
1040
0.5
1040
0.5
1040
0.2500000000000284
1040
45.00000000000162
1002
{
1002
}
1001
GENIUS_GENOBJ-N-CHA_13
1002
{
1000
OWNER
1000
GEN
1002
}
1001
GENIUS_GENODEF_13
1002
{
1000
HIER
1070
     0
1002
}
1002
{
1000
MANEDIT
1070
     0
1002
}
1002
{
1000
NOSEL
1070
     0
1002
}
1002
{
1000
BEHIND
1070
     0
1002
}
1002
{
1000
OTHER
1070
     0
1002
}
1002
{
1000
REACTOR
1002
}
  0
LINE
  5
4411
  8
241
  6
CONTINUOUS
 10
38.500000000000597
 20
28.499999999999918
 30
0.0
 11
38.500000000000831
 21
-28.499999999999918
 31
0.0
  0
LINE
  5
4412
  8
240
 10
39.000000000000767
 20
-28.99999999999989
 30
0.0
 11
48.50000000000076
 21
-28.99999999999989
 31
0.0
  0
LINE
  5
4413
  8
240
 10
39.000000000000767
 20
-28.99999999999989
 30
0.0
 11
49.000000000000142
 21
-28.99999999999989
 31
0.0
  0
LINE
  5
4414
  8
240
 10
38.500000000000647
 20
-28.499999999999769
 30
0.0
 11
39.000000000000767
 21
-28.99999999999989
 31
0.0
1001
GENIUS_GENFIL_13
1070
     0
1040
0.4999999999999858
1040
0.5000000000000285
1040
0.4999999999999858
1040
45.00000000000081
1002
{
1002
}
1001
GENIUS_GENOREF_13
1005
0
  0
LINE
  5
4415
  8
241
 10
49.500000000000369
 20
-4.471678146993014
 30
0.0
 11
38.500000000000711
 21
-4.471678146993014
 31
0.0
  0
LINE
  5
4416
  8
241
 10
38.500000000000767
 20
-10.45399763419894
 30
0.0
 11
49.500000000000313
 21
-10.45399763419894
 31
0.0
  0
LINE
  5
4417
  8
241
 10
49.500000000000249
 20
-18.199171379886732
 30
0.0
 11
38.500000000000767
 21
-18.199171379886732
 31
0.0
  0
LINE
  5
4418
  8
241
 10
38.500000000000767
 20
-22.57853319162939
 30
0.0
 11
49.500000000000142
 21
-22.57853319162939
 31
0.0
  0
LINE
  5
4419
  8
241
 10
49.500000000000142
 20
-27.050211338623122
 30
0.0
 11
38.500000000000831
 21
-27.050211338623122
 31
0.0
  0
LINE
  5
441A
  8
241
 10
41.900000000000681
 20
24.366025403784281
 30
0.0
 11
41.900000000000631
 21
22.63397459621541
 31
0.0
  0
LINE
  5
441B
  8
241
 10
41.900000000000631
 20
22.63397459621541
 30
0.0
 11
43.400000000000688
 21
21.767949192430962
 31
0.0
  0
LINE
  5
441C
  8
241
 10
43.400000000000688
 20
21.767949192430962
 30
0.0
 11
44.900000000000631
 21
22.63397459621541
 31
0.0
  0
LINE
  5
441D
  8
241
 10
44.900000000000631
 20
22.63397459621541
 30
0.0
 11
44.900000000000681
 21
24.366025403784281
 31
0.0
  0
LINE
  5
441E
  8
241
 10
44.900000000000681
 20
24.366025403784281
 30
0.0
 11
43.400000000000617
 21
25.232050807568761
 31
0.0
  0
LINE
  5
441F
  8
241
 10
43.400000000000617
 20
25.232050807568761
 30
0.0
 11
41.900000000000681
 21
24.366025403784281
 31
0.0
  0
LINE
  5
4420
  8
241
 10
50.000000000000369
 20
-2.4839386683082969
 30
0.0
 11
52.000000000000369
 21
-2.4839386683082969
 31
0.0
  0
LINE
  5
4421
  8
241
 10
50.000000000000369
 20
-4.9489730635075651
 30
0.0
 11
53.000000000000369
 21
-4.9489730635075651
 31
0.0
  0
LINE
  5
4422
  8
241
 10
50.000000000000369
 20
-7.3763427854219401
 30
0.0
 11
52.000000000000369
 21
-7.3763427854219401
 31
0.0
  0
LINE
  5
4423
  8
241
 10
50.000000000000369
 20
-9.7475740847816326
 30
0.0
 11
53.000000000000369
 21
-9.7475740847816326
 31
0.0
  0
LINE
  5
4424
  8
241
 10
50.000000000000369
 20
-11.9987870423908
 30
0.0
 11
52.000000000000369
 21
-11.9987870423908
 31
0.0
  0
LINE
  5
4425
  8
241
 10
50.000000000000369
 20
-14.25000000000006
 30
0.0
 11
53.000000000000369
 21
-14.25000000000006
 31
0.0
  0
LINE
  5
4426
  8
241
 10
50.000000000000369
 20
-16.284723438033211
 30
0.0
 11
52.000000000000369
 21
-16.284723438033211
 31
0.0
  0
LINE
  5
4427
  8
241
 10
50.000000000000369
 20
-18.180290095256002
 30
0.0
 11
53.000000000000313
 21
-18.180290095256002
 31
0.0
  0
LINE
  5
4428
  8
241
 10
50.000000000000313
 20
-19.92335806534112
 30
0.0
 11
52.000000000000313
 21
-19.92335806534112
 31
0.0
  0
LINE
  5
4429
  8
241
 10
50.000000000000313
 20
-21.832266628890871
 30
0.0
 11
53.000000000000313
 21
-21.832266628890871
 31
0.0
  0
LINE
  5
442A
  8
241
 10
50.000000000000249
 20
-23.34583326223628
 30
0.0
 11
52.000000000000313
 21
-23.34583326223628
 31
0.0
  0
LINE
  5
442B
  8
241
 10
50.000000000000249
 20
-24.681724007856531
 30
0.0
 11
53.000000000000249
 21
-24.681724007856531
 31
0.0
  0
LINE
  5
442C
  8
241
 10
50.000000000000249
 20
-25.82977193054456
 30
0.0
 11
52.000000000000249
 21
-25.82977193054456
 31
0.0
  0
LINE
  5
442D
  8
241
 10
50.000000000000249
 20
-26.67932898989153
 30
0.0
 11
53.000000000000249
 21
-26.67932898989153
 31
0.0
  0
LINE
  5
442E
  8
241
 10
50.000000000000249
 20
-27.319773231159051
 30
0.0
 11
52.000000000000249
 21
-27.319773231159051
 31
0.0
  0
LINE
  5
442F
  8
241
 10
50.000000000000249
 20
-28.067020960847969
 30
0.0
 11
53.000000000000249
 21
-28.067020960847969
 31
0.0
  0
LINE
  5
4430
  8
241
 10
50.000000000000369
 20
-0.0000000000000284
 30
0.0
 11
53.000000000000369
 21
0.0000000000000853
 31
0.0
  0
LINE
  5
4431
  8
241
  6
CONTINUOUS
 10
49.500000000000419
 20
28.500000000000369
 30
0.0
 11
49.500000000000249
 21
-28.24999999999946
 31
0.0
  0
LINE
  5
4432
  8
240
 10
49.750000000000483
 20
28.499999999999972
 30
0.0
 11
49.50000000000049
 21
28.249999999999972
 31
0.0
1001
GENIUS_GENFIL_13
1070
     0
1040
0.25
1040
0.25
1040
0.2500000000000284
1040
45.00000000000162
1002
{
1002
}
1001
GENIUS_GENODEF_13
1002
{
1000
HIER
1070
     0
1002
}
1002
{
1000
MANEDIT
1070
     0
1002
}
1002
{
1000
NOSEL
1070
     0
1002
}
1002
{
1000
BEHIND
1070
     0
1002
}
1002
{
1000
OTHER
1070
     0
1002
}
1002
{
1000
REACTOR
1002
}
1001
GENIUS_GENOBJ-N-CHA_13
1002
{
1000
OWNER
1000
GEN
1002
}
  0
LINE
  5
4433
  8
240
 10
66.500000000000369
 20
22.67157287525399
 30
0.0
 11
66.500000000000369
 21
15.5
 31
0.0
  0
LINE
  5
4434
  8
241
 10
66.500000000000398
 20
15.5
 30
0.0
 11
66.500000000000369
 21
-15.499999999999829
 31
0.0
  0
ARC
  5
4435
  8
240
 10
64.500000000000369
 20
22.67157287525399
 30
0.0
 40
2.0
 50
0.0
 51
45.0
1001
GENIUS_GENOBJ-N-FIL_13
1002
{
1000
OWNER
1000
GEN
1002
}
1001
GENIUS_GENODEF_13
1002
{
1000
HIER
1070
     0
1002
}
1002
{
1000
MANEDIT
1070
     0
1002
}
1002
{
1000
NOSEL
1070
     0
1002
}
1002
{
1000
BEHIND
1070
     0
1002
}
1002
{
1000
OTHER
1070
     0
1002
}
1002
{
1000
REACTOR
1002
}
  0
LINE
  5
4436
  8
240
 10
62.085786437627263
 20
27.914213562373309
 30
0.0
 11
65.914213562373476
 21
24.085786437627089
 31
0.0
1001
GENIUS_GENFIL_13
1070
     0
1040
5.0
1040
5.0
1040
0.2500000000000284
1040
45.00000000000162
1002
{
1002
}
1001
GENIUS_GENOBJ-N-CHA_13
1002
{
1000
OWNER
1000
GEN
1002
}
1001
GENIUS_GENODEF_13
1002
{
1000
HIER
1070
     0
1002
}
1002
{
1000
MANEDIT
1070
     0
1002
}
1002
{
1000
NOSEL
1070
     0
1002
}
1002
{
1000
BEHIND
1070
     0
1002
}
1002
{
1000
OTHER
1070
     0
1002
}
1002
{
1000
REACTOR
1002
}
  0
ARC
  5
4437
  8
240
 10
60.671572875254149
 20
26.500000000000199
 30
0.0
 40
2.0
 50
45.0
 51
90.000000000001606
1001
GENIUS_GENFIL_13
1070
     0
1040
5.0
1040
5.0
1040
0.2500000000000284
1040
45.00000000000162
1002
{
1002
}
1001
GENIUS_GENOBJ-N-CHA_13
1002
{
1000
OWNER
1000
GEN
1002
}
1001
GENIUS_GENODEF_13
1002
{
1000
HIER
1070
     0
1002
}
1002
{
1000
MANEDIT
1070
     0
1002
}
1002
{
1000
NOSEL
1070
     0
1002
}
1002
{
1000
BEHIND
1070
     0
1002
}
1002
{
1000
OTHER
1070
     0
1002
}
1002
{
1000
REACTOR
1002
}
1001
GENIUS_GENOBJ-N-FIL_13
1002
{
1000
OWNER
1000
GEN
1002
}
  0
LINE
  5
4438
  8
240
 10
49.750000000000483
 20
28.499999999999972
 30
0.0
 11
60.671572875254149
 21
28.500000000000199
 31
0.0
  0
LINE
  5
4439
  8
240
 10
49.750000000000483
 20
-28.499999999999719
 30
0.0
 11
49.50000000000049
 21
-28.249999999999719
 31
0.0
1001
GENIUS_GENFIL_13
1070
     0
1040
0.25
1040
0.25
1040
0.2500000000000284
1040
45.00000000000162
1002
{
1002
}
1001
GENIUS_GENODEF_13
1002
{
1000
HIER
1070
     0
1002
}
1002
{
1000
MANEDIT
1070
     0
1002
}
1002
{
1000
NOSEL
1070
     0
1002
}
1002
{
1000
BEHIND
1070
     0
1002
}
1002
{
1000
OTHER
1070
     0
1002
}
1002
{
1000
REACTOR
1002
}
1001
GENIUS_GENOBJ-N-CHA_13
1002
{
1000
OWNER
1000
GEN
1002
}
  0
LINE
  5
443A
  8
240
 10
66.500000000000369
 20
-22.671572875253819
 30
0.0
 11
66.500000000000426
 21
-15.499999999999799
 31
0.0
  0
ARC
  5
443B
  8
240
 10
64.500000000000369
 20
-22.671572875253819
 30
0.0
 40
2.0
 50
315.0
 51
0.0
1001
GENIUS_GENODEF_13
1002
{
1000
HIER
1070
     0
1002
}
1002
{
1000
MANEDIT
1070
     0
1002
}
1002
{
1000
NOSEL
1070
     0
1002
}
1002
{
1000
BEHIND
1070
     0
1002
}
1002
{
1000
OTHER
1070
     0
1002
}
1002
{
1000
REACTOR
1002
}
1001
GENIUS_GENOBJ-N-FIL_13
1002
{
1000
OWNER
1000
GEN
1002
}
  0
LINE
  5
443C
  8
240
 10
62.085786437627263
 20
-27.914213562372989
 30
0.0
 11
65.914213562373476
 21
-24.085786437626918
 31
0.0
1001
GENIUS_GENFIL_13
1070
     0
1040
5.0
1040
5.0
1040
0.2500000000000284
1040
45.00000000000162
1002
{
1002
}
1001
GENIUS_GENOBJ-N-CHA_13
1002
{
1000
OWNER
1000
GEN
1002
}
1001
GENIUS_GENODEF_13
1002
{
1000
HIER
1070
     0
1002
}
1002
{
1000
MANEDIT
1070
     0
1002
}
1002
{
1000
NOSEL
1070
     0
1002
}
1002
{
1000
BEHIND
1070
     0
1002
}
1002
{
1000
OTHER
1070
     0
1002
}
1002
{
1000
REACTOR
1002
}
  0
ARC
  5
443D
  8
240
 10
60.67157287525422
 20
-26.49999999999989
 30
0.0
 40
2.0
 50
269.99999999999841
 51
315.0
1001
GENIUS_GENFIL_13
1070
     0
1040
5.0
1040
5.0
1040
0.2500000000000284
1040
45.00000000000162
1002
{
1002
}
1001
GENIUS_GENOBJ-N-CHA_13
1002
{
1000
OWNER
1000
GEN
1002
}
1001
GENIUS_GENOBJ-N-FIL_13
1002
{
1000
OWNER
1000
GEN
1002
}
1001
GENIUS_GENODEF_13
1002
{
1000
HIER
1070
     0
1002
}
1002
{
1000
MANEDIT
1070
     0
1002
}
1002
{
1000
NOSEL
1070
     0
1002
}
1002
{
1000
BEHIND
1070
     0
1002
}
1002
{
1000
OTHER
1070
     0
1002
}
1002
{
1000
REACTOR
1002
}
  0
LINE
  5
443E
  8
240
 10
49.750000000000483
 20
-28.499999999999719
 30
0.0
 11
60.671572875254149
 21
-28.49999999999989
 31
0.0
  0
LINE
  5
443F
  8
241
 10
61.500000000000369
 20
-28.32035944224879
 30
0.0
 11
61.500000000000341
 21
28.320359442249099
 31
0.0
  0
LINE
  5
4440
  8
240
 10
79.500000000000767
 20
15.250000000000201
 30
0.0
 11
66.999999999998721
 21
15.25000000000014
 31
0.0
  0
LINE
  5
4441
  8
240
 10
79.500000000000767
 20
-15.249999999999799
 30
0.0
 11
66.999999999998778
 21
-15.249999999999799
 31
0.0
  0
CIRCLE
  5
4442
  8
241
 10
43.400000000000617
 20
23.499999999999861
 30
0.0
 40
3.5
  0
ARC
  5
4444
  8
241
 10
43.400000000000617
 20
23.499999999999801
 30
0.0
 40
3.75
 50
180.0
 51
0.0
  0
LINE
  5
4445
  8
241
 10
39.650000000000631
 20
27.249999999999801
 30
0.0
 11
39.650000000000631
 21
23.499999999999801
 31
0.0
  0
LINE
  5
4446
  8
241
 10
47.150000000000617
 20
27.249999999999801
 30
0.0
 11
47.150000000000617
 21
23.499999999999801
 31
0.0
  0
LINE
  5
4447
  8
241
 10
39.650000000000631
 20
27.249999999999801
 30
0.0
 11
47.150000000000617
 21
27.249999999999801
 31
0.0
  0
LINE
  5
4448
  8
240
  6
CONTINUOUS
 10
66.500000000000369
 20
15.5
 30
0.0
 11
66.749999999998664
 21
15.49999999999997
 31
0.0
  0
LINE
  5
4449
  8
240
 10
66.999999999998778
 20
15.24999999999994
 30
0.0
 11
66.749999999998778
 21
15.49999999999994
 31
0.0
  0
LINE
  5
444A
  8
241
 10
49.500000000000369
 20
4.4716781469931837
 30
0.0
 11
38.500000000000711
 21
4.4716781469931837
 31
0.0
  0
LINE
  5
444B
  8
241
 10
50.000000000000369
 20
2.4839386683084679
 30
0.0
 11
52.000000000000369
 21
2.4839386683084679
 31
0.0
  0
LINE
  5
444C
  8
241
 10
50.000000000000369
 20
4.9489730635077356
 30
0.0
 11
53.000000000000369
 21
4.9489730635077356
 31
0.0
  0
LINE
  5
444D
  8
241
 10
50.000000000000369
 20
7.3763427854221097
 30
0.0
 11
52.000000000000369
 21
7.3763427854221097
 31
0.0
  0
LINE
  5
444E
  8
241
 10
50.000000000000369
 20
9.7475740847818031
 30
0.0
 11
53.000000000000369
 21
9.7475740847818031
 31
0.0
  0
LINE
  5
444F
  8
241
 10
50.000000000000369
 20
11.998787042390971
 30
0.0
 11
52.000000000000369
 21
11.998787042390971
 31
0.0
  0
LINE
  5
4450
  8
241
 10
50.000000000000369
 20
14.250000000000229
 30
0.0
 11
53.000000000000369
 21
14.250000000000229
 31
0.0
  0
LINE
  5
4451
  8
241
 10
50.000000000000369
 20
16.284723438033382
 30
0.0
 11
52.000000000000369
 21
16.284723438033382
 31
0.0
  0
LINE
  5
4452
  8
241
 10
50.000000000000369
 20
18.180290095256169
 30
0.0
 11
53.000000000000313
 21
18.180290095256169
 31
0.0
  0
LINE
  5
4453
  8
241
 10
50.000000000000313
 20
19.92335806534129
 30
0.0
 11
52.000000000000313
 21
19.92335806534129
 31
0.0
  0
LINE
  5
4454
  8
241
 10
50.000000000000313
 20
21.832266628891031
 30
0.0
 11
53.000000000000313
 21
21.832266628891031
 31
0.0
  0
LINE
  5
4455
  8
241
 10
50.000000000000249
 20
23.34583326223645
 30
0.0
 11
52.000000000000313
 21
23.34583326223645
 31
0.0
  0
LINE
  5
4456
  8
241
 10
50.000000000000249
 20
24.681724007856701
 30
0.0
 11
53.000000000000249
 21
24.681724007856701
 31
0.0
  0
LINE
  5
4457
  8
241
 10
50.000000000000249
 20
25.82977193054472
 30
0.0
 11
52.000000000000249
 21
25.82977193054472
 31
0.0
  0
LINE
  5
4458
  8
241
 10
50.000000000000249
 20
26.679328989891701
 30
0.0
 11
53.000000000000249
 21
26.679328989891701
 31
0.0
  0
LINE
  5
4459
  8
241
 10
50.000000000000249
 20
27.319773231159221
 30
0.0
 11
52.000000000000249
 21
27.319773231159221
 31
0.0
  0
LINE
  5
445A
  8
241
 10
50.000000000000249
 20
28.06702096084814
 30
0.0
 11
53.000000000000249
 21
28.06702096084814
 31
0.0
  0
ARC
  5
44EA
  8
240
 10
36.700000000000621
 20
-48.699999999999989
 30
0.0
 40
1.3000000000000109
 50
270.0
 51
0.0
  0
LINE
  5
44EB
  8
240
 10
1.500000000000113
 20
-34.925000000000011
 30
0.0
 11
1.500000000000113
 21
-49.0
 31
0.0
  0
ARC
  5
44EC
  8
240
 10
2.5000000000001128
 20
-49.0
 30
0.0
 40
1.0
 50
180.0
 51
270.0
  0
LINE
  5
44ED
  8
241
 10
15.66269223573061
 20
-0.000000000002899
 30
0.0
 11
15.662692235739961
 21
-49.826794919247618
 31
0.0
  0
LINE
  5
44EE
  8
241
 10
30.73730776427033
 20
-0.0000000000000568
 30
0.0
 11
30.737307764279681
 21
-49.826794919238687
 31
0.0
  0
LINE
  5
44EF
  8
240
 10
30.587307764271539
 20
-49.740192378865117
 30
0.0
 11
26.49378328572692
 21
-42.649999999999288
 31
0.0
  0
LINE
  5
44F0
  8
240
 10
36.700000000000621
 20
-50.000000000000171
 30
0.0
 11
31.03730776427108
 21
-50.000000000000107
 31
0.0
  0
LINE
  5
44F1
  8
240
 10
19.906216714274141
 20
-42.649999999999409
 30
0.0
 11
15.81269223573093
 21
-49.74019237886364
 31
0.0
  0
LINE
  5
44F2
  8
240
 10
15.36269223573095
 20
-49.999999999999041
 30
0.0
 11
15.81269223573093
 21
-49.74019237886364
 31
0.0
  0
LINE
  5
44F3
  8
240
 10
2.5000000000001128
 20
-50.000000000000171
 30
0.0
 11
15.3626922357289
 21
-50.000000000000227
 31
0.0
  0
LINE
  5
44F4
  8
241
 10
38.000000000013081
 20
28.999999999998892
 30
0.0
 11
38.000000000000142
 21
-0.0000000000015632
 31
0.0
  0
LINE
  5
44FC
  8
240
 10
0.0
 20
34.925000000000011
 30
0.0
 11
1.4999999999992359
 21
34.925000000000011
 31
0.0
  0
LINE
  5
44FD
  8
240
 10
0.0
 20
-34.925000000000011
 30
0.0
 11
1.500000000000113
 21
-34.925000000000011
 31
0.0
  0
LINE
  5
4558
  8
250
 10
0.0
 20
35.425000000000011
 30
0.0
 11
0.0000000000000018
 21
64.0
 31
0.0
  0
LINE
  5
4559
  8
250
 10
66.500000000000369
 20
23.171572875253979
 30
0.0
 11
66.500000000000369
 21
64.0
 31
0.0
  0
LINE
  5
455A
  8
250
 10
2.2300000000000009
 20
63.0
 30
0.0
 11
64.270000000000366
 21
63.0
 31
0.0
  0
LINE
  5
455F
  8
250
 10
66.500000000000369
 20
23.171572875253819
 30
0.0
 11
66.500000000000369
 21
64.0
 31
0.0
  0
LINE
  5
4560
  8
250
 10
165.00000000000071
 20
16.460050506338831
 30
0.0
 11
165.00000000000071
 21
64.0
 31
0.0
  0
LINE
  5
4561
  8
250
 10
68.730000000000373
 20
63.0
 30
0.0
 11
162.77000000000069
 21
63.0
 31
0.0
  0
LINE
  5
4565
  8
250
 10
-0.0000000000008526
 20
35.424999999999898
 30
0.0
 11
-0.0000000000008504
 21
71.0
 31
0.0
  0
LINE
  5
4566
  8
250
 10
165.00000000000071
 20
16.460050506338831
 30
0.0
 11
165.00000000000071
 21
71.0
 31
0.0
  0
LINE
  5
4567
  8
250
 10
2.2299999999991491
 20
70.0
 30
0.0
 11
162.77000000000069
 21
70.0
 31
0.0
  0
LINE
  5
456B
  8
250
 10
179.00000000000071
 20
-4.270000000000004
 30
0.0
 11
179.00000000000071
 21
4.2700000000000227
 31
0.0
  0
LINE
  5
456F
  8
250
 10
163.91862915010211
 20
-17.5
 30
0.0
 11
187.00000000000071
 21
-17.500000000000011
 31
0.0
  0
LINE
  5
4570
  8
250
 10
163.91862915010211
 20
17.5
 30
0.0
 11
187.00000000000071
 21
17.499999999999989
 31
0.0
  0
LINE
  5
4571
  8
250
 10
186.00000000000071
 20
-15.27
 30
0.0
 11
186.00000000000071
 21
15.269999999999991
 31
0.0
  0
LINE
  5
4575
  8
250
 10
115.0000000000007
 20
-6.5000000000000284
 30
0.0
 11
115.0000000000007
 21
-43.0
 31
0.0
  0
LINE
  5
4576
  8
250
 10
165.00000000000071
 20
-16.460050506338831
 30
0.0
 11
165.00000000000071
 21
-43.0
 31
0.0
  0
LINE
  5
4577
  8
250
 10
117.2300000000007
 20
-42.0
 30
0.0
 11
162.77000000000069
 21
-42.0
 31
0.0
  0
TEXT
  5
457B
  8
250
 10
28.51666666666685
 20
64.000000000000014
 30
0.0
 40
2.7999999999999989
  1
66.5
  0
LINE
  5
457C
  8
250
 10
64.270000000000366
 20
63.37166666666667
 30
0.0
 11
66.500000000000369
 21
63.0
 31
0.0
  0
LINE
  5
457D
  8
250
 10
64.270000000000366
 20
62.62833333333333
 30
0.0
 11
66.500000000000369
 21
63.0
 31
0.0
  0
LINE
  5
457E
  8
250
 10
66.500000000000369
 20
63.0
 30
0.0
 11
64.270000000000366
 21
63.0
 31
0.0
  0
LINE
  5
457F
  8
250
 10
2.2300000000000009
 20
62.62833333333333
 30
0.0
 11
0.0000000000000017
 21
63.0
 31
0.0
  0
LINE
  5
4580
  8
250
 10
2.2300000000000009
 20
63.37166666666667
 30
0.0
 11
0.0000000000000017
 21
63.0
 31
0.0
  0
LINE
  5
4581
  8
250
 10
0.0000000000000017
 20
63.0
 30
0.0
 11
2.2300000000000009
 21
63.0
 31
0.0
  0
TEXT
  5
4582
  8
250
 10
111.0833333333338
 20
64.000000000000014
 30
0.0
 40
2.7999999999999989
  1
98.5
  0
LINE
  5
4583
  8
250
 10
162.77000000000069
 20
63.37166666666667
 30
0.0
 11
165.00000000000071
 21
63.0
 31
0.0
  0
LINE
  5
4584
  8
250
 10
162.77000000000069
 20
62.62833333333333
 30
0.0
 11
165.00000000000071
 21
63.0
 31
0.0
  0
LINE
  5
4585
  8
250
 10
165.00000000000071
 20
63.0
 30
0.0
 11
162.77000000000069
 21
63.0
 31
0.0
  0
LINE
  5
4586
  8
250
 10
68.730000000000373
 20
62.62833333333333
 30
0.0
 11
66.500000000000369
 21
63.0
 31
0.0
  0
LINE
  5
4587
  8
250
 10
68.730000000000373
 20
63.37166666666667
 30
0.0
 11
66.500000000000369
 21
63.0
 31
0.0
  0
LINE
  5
4588
  8
250
 10
66.500000000000369
 20
63.0
 30
0.0
 11
68.730000000000373
 21
63.0
 31
0.0
  0
TEXT
  5
4589
  8
250
 10
78.299999999999926
 20
71.000000000000014
 30
0.0
 40
2.7999999999999989
  1
165
  0
LINE
  5
458A
  8
250
 10
162.77000000000069
 20
70.37166666666667
 30
0.0
 11
165.00000000000071
 21
70.0
 31
0.0
  0
LINE
  5
458B
  8
250
 10
162.77000000000069
 20
69.62833333333333
 30
0.0
 11
165.00000000000071
 21
70.0
 31
0.0
  0
LINE
  5
458C
  8
250
 10
165.00000000000071
 20
70.0
 30
0.0
 11
162.77000000000069
 21
70.0
 31
0.0
  0
LINE
  5
458D
  8
250
 10
2.2299999999991491
 20
69.62833333333333
 30
0.0
 11
-0.0000000000008505
 21
70.0
 31
0.0
  0
LINE
  5
458E
  8
250
 10
2.2299999999991491
 20
70.37166666666667
 30
0.0
 11
-0.0000000000008505
 21
70.0
 31
0.0
  0
LINE
  5
458F
  8
250
 10
-0.0000000000008505
 20
70.0
 30
0.0
 11
2.2299999999991491
 21
70.0
 31
0.0
  0
TEXT
  5
4590
  8
250
 10
178.00000000000071
 20
-9.4285714285713844
 30
0.0
 40
3.0
  1
MAX.\U+220513
 50
90.0
  0
LINE
  5
4591
  8
250
 10
178.62833333333401
 20
4.2700000000000244
 30
0.0
 11
179.00000000000071
 21
6.5000000000000231
 31
0.0
  0
LINE
  5
4592
  8
250
 10
179.37166666666729
 20
4.2700000000000244
 30
0.0
 11
179.00000000000071
 21
6.5000000000000231
 31
0.0
  0
LINE
  5
4593
  8
250
 10
179.00000000000071
 20
6.5000000000000231
 30
0.0
 11
179.00000000000071
 21
4.2700000000000244
 31
0.0
  0
LINE
  5
4594
  8
250
 10
179.37166666666729
 20
-4.270000000000004
 30
0.0
 11
179.00000000000071
 21
-6.5000000000000044
 31
0.0
  0
LINE
  5
4595
  8
250
 10
178.62833333333401
 20
-4.270000000000004
 30
0.0
 11
179.00000000000071
 21
-6.5000000000000044
 31
0.0
  0
LINE
  5
4596
  8
250
 10
179.00000000000071
 20
-6.5000000000000044
 30
0.0
 11
179.00000000000071
 21
-4.270000000000004
 31
0.0
  0
TEXT
  5
4597
  8
250
 10
185.00000000000071
 20
-4.2142857142856904
 30
0.0
 40
3.0
  1
\U+220535
 50
90.0
  0
LINE
  5
4598
  8
250
 10
185.62833333333401
 20
15.269999999999991
 30
0.0
 11
186.00000000000071
 21
17.499999999999989
 31
0.0
  0
LINE
  5
4599
  8
250
 10
186.37166666666741
 20
15.269999999999991
 30
0.0
 11
186.00000000000071
 21
17.499999999999989
 31
0.0
  0
LINE
  5
459A
  8
250
 10
186.00000000000071
 20
17.499999999999989
 30
0.0
 11
186.00000000000071
 21
15.269999999999991
 31
0.0
  0
LINE
  5
459B
  8
250
 10
186.37166666666741
 20
-15.27000000000001
 30
0.0
 11
186.00000000000071
 21
-17.500000000000011
 31
0.0
  0
LINE
  5
459C
  8
250
 10
185.62833333333401
 20
-15.27000000000001
 30
0.0
 11
186.00000000000071
 21
-17.500000000000011
 31
0.0
  0
LINE
  5
459D
  8
250
 10
186.00000000000071
 20
-17.500000000000011
 30
0.0
 11
186.00000000000071
 21
-15.27000000000001
 31
0.0
  0
TEXT
  5
459E
  8
250
 10
132.48571428571501
 20
-41.0
 30
0.0
 40
3.0
  1
41ü`60
  0
LINE
  5
459F
  8
250
 10
162.77000000000069
 20
-41.62833333333333
 30
0.0
 11
165.00000000000071
 21
-42.0
 31
0.0
  0
LINE
  5
45A0
  8
250
 10
162.77000000000069
 20
-42.371666666666663
 30
0.0
 11
165.00000000000071
 21
-42.0
 31
0.0
  0
LINE
  5
45A1
  8
250
 10
165.00000000000071
 20
-42.0
 30
0.0
 11
162.77000000000069
 21
-42.0
 31
0.0
  0
LINE
  5
45A2
  8
250
 10
117.2300000000007
 20
-42.371666666666663
 30
0.0
 11
115.0000000000007
 21
-42.0
 31
0.0
  0
LINE
  5
45A3
  8
250
 10
117.2300000000007
 20
-41.62833333333333
 30
0.0
 11
115.0000000000007
 21
-42.0
 31
0.0
  0
LINE
  5
45A4
  8
250
 10
115.0000000000007
 20
-42.0
 30
0.0
 11
117.2300000000007
 21
-42.0
 31
0.0
  0
INSERT
  5
45A5
  8
250
  2
_OPEN
 10
-42.23548254783411
 20
-28.76565879510753
 30
0.0
 41
2.2299999999999991
 42
2.2299999999999991
 43
2.2299999999999991
 50
60.0
1001
ACAD
1000
DSTYLE
1002
{
1070
    78
1070
     8
1070
   140
1040
3.0
1002
}
  0
POLYLINE
  5
45A6
  8
250
 66
     1
 10
0.0
 20
0.0
 30
0.0
1001
ACAD
1000
DSTYLE
1002
{
1070
    78
1070
     8
1070
   140
1040
3.0
1002
}
  0
VERTEX
  5
48D3
  8
250
 10
-43.350482547834112
 20
-30.696895445546829
 30
0.0
  0
VERTEX
  5
48D4
  8
250
 10
-50.782972670372892
 20
-43.570345964537808
 30
0.0
  0
SEQEND
  5
48D5
  8
250
  0
TEXT
  5
45A7
  8
250
 10
-67.354401241801455
 20
-42.5703459645378
 30
0.0
 40
3.0
  1
BBT50
  7
YOKO
1001
ITEMNAME
1000
LNSP3
  0
TEXT
  5
45D7
  8
241
 10
-77.0
 20
84.000000000000412
 30
0.0
 40
5.0
  1
BBT50-NBS13-165NRA
  7
YOKO
 11
-77.0
 21
84.000000000000412
 31
0.0
 73
     1
  0
VIEWPORT
  5
22
 67
     1
  8
0
 10
261.51769911504419
 20
148.5
 30
0.0
 40
523.0353982300885
 41
297.0
 68
     1
 69
     1
1001
ACAD
1000
MVIEW
1002
{
1070
    16
1010
0.0
1020
0.0
1030
0.0
1010
0.0
1020
0.0
1030
1.0
1040
0.0
1040
297.0
1040
261.51769911504419
1040
148.5
1040
50.0
1040
0.0
1040
0.0
1070
     0
1070
   100
1070
     1
1070
     1
1070
     0
1070
     0
1070
     0
1070
     0
1040
0.0
1040
0.0
1040
0.0
1040
1.0
1040
1.0
1040
10.0
1040
10.0
1070
     0
1002
{
1002
}
1002
}
1001
GENIUS_GENODEF_13
1002
{
1000
HIER
1070
     0
1002
}
1002
{
1000
MANEDIT
1070
     0
1002
}
1002
{
1000
NOSEL
1070
     0
1002
}
1002
{
1000
BEHIND
1070
     0
1002
}
1002
{
1000
OTHER
1070
     0
1002
}
1002
{
1000
REACTOR
1002
}
1001
GENIUS_GENOBJ-N-SDF_13
1002
{
1000
OWNER
1000
GEN
1002
}
1001
GENIUS_GENSCREG_15
1000
PF
1040
1.0
1000
DF
1040
1.0
1000
MIN
1011
0.0
1021
0.0
1031
0.0
1021
0.0
1031
0.0
1000
MAX
1011
523.0353982300885
1021
0.0
1031
0.0
1021
297.0
1031
0.0
1000
FLAGS
1070
     4
  0
ENDSEC
  0
EOF
