  0
SECTION
  2
HEADER
  9
$ACADVER
  1
AC1009
  9
$INSBASE
 10
0.0
 20
0.0
 30
0.0
  9
$EXTMIN
 10
-104.3360820532293
 20
-57.000000000009798
 30
0.0
  9
$EXTMAX
 10
127.0000000000007
 20
89.000000000000412
 30
0.0
  9
$LIMMIN
 10
0.0
 20
0.0
  9
$LIMMAX
 10
297.0
 20
210.0
  9
$ORTHOMODE
 70
     1
  9
$REGENMODE
 70
     1
  9
$FILLMODE
 70
     1
  9
$QTEXTMODE
 70
     0
  9
$MIRRTEXT
 70
     1
  9
$DRAGMODE
 70
     2
  9
$LTSCALE
 40
10.0
  9
$OSMODE
 70
    63
  9
$ATTMODE
 70
     1
  9
$TEXTSIZE
 40
3.0
  9
$TRACEWID
 40
1.0
  9
$TEXTSTYLE
  7
YOKO
  9
$CLAYER
  8
240
  9
$CELTYPE
  6
BYLAYER
  9
$CECOLOR
 62
   256
  9
$DIMSCALE
 40
1.0
  9
$DIMASZ
 40
2.2299999999999991
  9
$DIMEXO
 40
0.5
  9
$DIMDLI
 40
7.0
  9
$DIMRND
 40
0.0
  9
$DIMDLE
 40
0.0
  9
$DIMEXE
 40
1.0
  9
$DIMTP
 40
0.0
  9
$DIMTM
 40
0.01
  9
$DIMTXT
 40
2.7999999999999989
  9
$DIMCEN
 40
0.0
  9
$DIMTSZ
 40
0.0
  9
$DIMTOL
 70
     0
  9
$DIMLIM
 70
     0
  9
$DIMTIH
 70
     0
  9
$DIMTOH
 70
     0
  9
$DIMSE1
 70
     0
  9
$DIMSE2
 70
     0
  9
$DIMTAD
 70
     3
  9
$DIMZIN
 70
     9
  9
$DIMBLK
  1
OPEN
  9
$DIMASO
 70
     1
  9
$DIMSHO
 70
     1
  9
$DIMPOST
  1

  9
$DIMAPOST
  1

  9
$DIMALT
 70
     0
  9
$DIMALTD
 70
     2
  9
$DIMALTF
 40
25.399999999999999
  9
$DIMLFAC
 40
1.0
  9
$DIMTOFL
 70
     1
  9
$DIMTVP
 40
0.0
  9
$DIMTIX
 70
     1
  9
$DIMSOXD
 70
     0
  9
$DIMSAH
 70
     0
  9
$DIMBLK1
  1

  9
$DIMBLK2
  1

  9
$DIMSTYLE
  2
BIGT
  9
$DIMCLRD
 70
   256
  9
$DIMCLRE
 70
   256
  9
$DIMCLRT
 70
    40
  9
$DIMTFAC
 40
1.0
  9
$DIMGAP
 40
1.0
  9
$LUNITS
 70
     2
  9
$LUPREC
 70
     6
  9
$SKETCHINC
 40
1.0
  9
$FILLETRAD
 40
0.0
  9
$AUNITS
 70
     0
  9
$AUPREC
 70
     6
  9
$MENU
  1
.
  9
$ELEVATION
 40
0.0
  9
$PELEVATION
 40
0.0
  9
$THICKNESS
 40
0.0
  9
$LIMCHECK
 70
     0
  9
$BLIPMODE
 70
     0
  9
$CHAMFERA
 40
0.2
  9
$CHAMFERB
 40
0.2
  9
$SKPOLY
 70
     0
  9
$TDCREATE
 40
2457241.7084050002
  9
$TDUPDATE
 40
2457242.3829175341
  9
$TDINDWG
 40
0.0085680093
  9
$TDUSRTIMER
 40
0.0085679745
  9
$USRTIMER
 70
     1
  9
$ANGBASE
 50
0.0
  9
$ANGDIR
 70
     0
  9
$PDMODE
 70
     1
  9
$PDSIZE
 40
0.0
  9
$PLINEWID
 40
0.0
  9
$COORDS
 70
     1
  9
$SPLFRAME
 70
     0
  9
$SPLINETYPE
 70
     6
  9
$SPLINESEGS
 70
     4
  9
$ATTDIA
 70
     1
  9
$ATTREQ
 70
     1
  9
$HANDLING
 70
     1
  9
$HANDSEED
  5
4990
  9
$SURFTAB1
 70
     6
  9
$SURFTAB2
 70
     6
  9
$SURFTYPE
 70
     6
  9
$SURFU
 70
     6
  9
$SURFV
 70
     6
  9
$UCSNAME
  2

  9
$UCSORG
 10
0.0
 20
0.0
 30
0.0
  9
$UCSXDIR
 10
1.0
 20
0.0
 30
0.0
  9
$UCSYDIR
 10
0.0
 20
1.0
 30
0.0
  9
$PUCSNAME
  2

  9
$PUCSORG
 10
0.0
 20
0.0
 30
0.0
  9
$PUCSXDIR
 10
1.0
 20
0.0
 30
0.0
  9
$PUCSYDIR
 10
0.0
 20
1.0
 30
0.0
  9
$USERI1
 70
     1
  9
$USERI2
 70
     0
  9
$USERI3
 70
     0
  9
$USERI4
 70
     0
  9
$USERI5
 70
     0
  9
$USERR1
 40
0.0
  9
$USERR2
 40
0.0
  9
$USERR3
 40
0.0
  9
$USERR4
 40
0.0
  9
$USERR5
 40
0.0
  9
$WORLDVIEW
 70
     1
  9
$SHADEDGE
 70
     3
  9
$SHADEDIF
 70
    70
  9
$TILEMODE
 70
     1
  9
$MAXACTVP
 70
    16
  9
$PLIMCHECK
 70
     0
  9
$PEXTMIN
 10
1.0000000000000000E+020
 20
1.0000000000000000E+020
 30
1.0000000000000000E+020
  9
$PEXTMAX
 10
-1.0000000000000000E+020
 20
-1.0000000000000000E+020
 30
-1.0000000000000000E+020
  9
$PLIMMIN
 10
0.0
 20
0.0
  9
$PLIMMAX
 10
420.0
 20
297.0
  9
$UNITMODE
 70
     0
  9
$VISRETAIN
 70
     1
  9
$PLINEGEN
 70
     0
  9
$PSLTSCALE
 70
     1
  0
ENDSEC
  0
SECTION
  2
TABLES
  0
TABLE
  2
VPORT
 70
     1
  0
VPORT
  2
*ACTIVE
 70
     0
 10
0.0
 20
0.0
 11
1.0
 21
1.0
 12
11.33393113097217
 22
15.99115040300552
 13
0.0
 23
0.0
 14
7.0
 24
7.0
 15
7.0
 25
7.0
 16
0.0
 26
0.0
 36
1.0
 17
0.0
 27
0.0
 37
0.0
 40
161.92786871586989
 41
1.4355016538037479
 42
50.0
 43
0.0
 44
0.0
 50
0.0
 51
0.0
 71
     0
 72
  2000
 73
     1
 74
     0
 75
     1
 76
     1
 77
     0
 78
     0
  0
ENDTAB
  0
TABLE
  2
LTYPE
 70
    13
  0
LTYPE
  2
CONTINUOUS
 70
     0
  3
Solid line
 72
    65
 73
     0
 40
0.0
  0
LTYPE
  2
CENTER2
 70
     0
  3
___ _ ___ _ ___ _ ___ _ ___ _ ___ _ ___ _ ___ _
 72
    65
 73
     4
 40
1.125
 49
0.75
 49
-0.125
 49
0.125
 49
-0.125
  0
LTYPE
  2
HIDDEN2
 70
     0
  3
_ _ _ _ _ _ _ _ _ _ _ _ _ _ _ _ _ _ _ _ _ _ _ _
 72
    65
 73
     2
 40
0.1875
 49
0.125
 49
-0.0625
  0
LTYPE
  2
PHANTOM2
 70
     0
  3
___ _ _ ___ _ _ ___ _ _ ___ _ _ ___ _ _ ___ _ _
 72
    65
 73
     6
 40
1.25
 49
0.625
 49
-0.125
 49
0.125
 49
-0.125
 49
0.125
 49
-0.125
  0
LTYPE
  2
AM_ISO02W050
 70
     0
  3
__ __ __ __ __ __ __ __ __ __ __ __ __ __ __
 72
    65
 73
     2
 40
7.5
 49
6.0
 49
-1.5
  0
LTYPE
  2
AMCONSTR
 70
     0
  3
_______________________
 72
    65
 73
     2
 40
9999.0
 49
9999.0
 49
0.0
  0
LTYPE
  2
ACISOWELD
 70
     0
  3
_ _ _ _ _
 72
    65
 73
     2
 40
2.0
 49
2.0
 49
-1.0
  0
LTYPE
  2
ACISOTGB
 70
     0
  3
__ . . __ . .
 72
    65
 73
     6
 40
9.0
 49
4.0
 49
-1.0
 49
1.0
 49
-1.0
 49
1.0
 49
-1.0
  0
LTYPE
  2
ACISOTGL
 70
     0
  3
_ _ _ _ _
 72
    65
 73
     2
 40
3.0
 49
2.0
 49
-1.0
  0
LTYPE
  2
ACJISTGB
 70
     0
  3
__ . . __ . .
 72
    65
 73
     6
 40
9.0
 49
4.0
 49
-1.0
 49
1.0
 49
-1.0
 49
1.0
 49
-1.0
  0
LTYPE
  2
ACJISTGL
 70
     0
  3
_ _ _ _ _
 72
    65
 73
     2
 40
3.0
 49
2.0
 49
-1.0
  0
ENDTAB
  0
TABLE
  2
LAYER
 70
    10
  0
LAYER
  2
0
 70
     0
 62
     7
  6
CONTINUOUS
  0
LAYER
  2
DEFPOINTS
 70
     0
 62
     7
  6
CONTINUOUS
  0
LAYER
  2
245
 70
     0
 62
     2
  6
CENTER2
  0
LAYER
  2
240
 70
     0
 62
     4
  6
CONTINUOUS
  0
LAYER
  2
241
 70
     0
 62
   211
  6
CONTINUOUS
  0
LAYER
  2
242
 70
     0
 62
     3
  6
CONTINUOUS
  0
LAYER
  2
243
 70
     0
 62
   211
  6
HIDDEN2
  0
LAYER
  2
244
 70
     0
 62
     3
  6
HIDDEN2
  0
LAYER
  2
246
 70
     0
 62
     3
  6
PHANTOM2
  0
LAYER
  2
250
 70
     0
 62
     3
  6
CONTINUOUS
  0
ENDTAB
  0
TABLE
  2
STYLE
 70
     6
  0
STYLE
  2
STANDARD
 70
     0
 40
0.0
 41
1.0
 50
0.0
 71
     0
 42
3.0
  3
romans.shx
  4
extfont.shx
  0
STYLE
  2
ACISOTS
 70
     0
 40
1.0
 41
1.0
 50
0.0
 71
     0
 42
3.0
  3
amgdt.shx
  4
extfont.shx
  0
STYLE
  2
ACISOGDT
 70
     0
 40
0.0
 41
1.0
 50
0.0
 71
     0
 42
3.0
  3
amgdt.shx
  4
extfont.shx
  0
STYLE
  2
ACJISTS
 70
     0
 40
1.0
 41
1.0
 50
0.0
 71
     0
 42
3.0
  3
amgdt.shx
  4
extfont.shx
  0
STYLE
  2
ACJISGDT
 70
     0
 40
0.0
 41
1.0
 50
0.0
 71
     0
 42
3.0
  3
amgdt.shx
  4
extfont.shx
  0
STYLE
  2
YOKO
 70
     0
 40
0.0
 41
1.0
 50
0.0
 71
     0
 42
3.0
  3
romans.shx
  4
extfont.shx
  0
ENDTAB
  0
TABLE
  2
VIEW
 70
     0
  0
ENDTAB
  0
TABLE
  2
UCS
 70
     0
  0
ENDTAB
  0
TABLE
  2
APPID
 70
    41
  0
APPID
  2
ACAD
 70
     0
  0
APPID
  2
GLOBAL
 70
     0
  0
APPID
  2
DETAIL
 70
     0
  0
APPID
  2
GRPNAME
 70
     0
  0
APPID
  2
GPARA
 70
     0
  0
APPID
  2
MCAD_NO_VIS
 70
     0
  0
APPID
  2
ACAD_TEMP_GRAPHIC
 70
     0
  0
APPID
  2
ACATTRIBSERVICES
 70
     0
  0
APPID
  2
GENIUS_GENSCREG_15
 70
     0
  0
APPID
  2
GENIUS_GENODEF_13
 70
     0
  0
APPID
  2
GENIUS_GENOBJ-N-SDF_13
 70
     0
  0
APPID
  2
GENIUS_GENREC_14
 70
     0
  0
APPID
  2
GENIUS_GENOBJ-N-REC_13
 70
     0
  0
APPID
  2
GENIUS_GENDIMSH_14
 70
     0
  0
APPID
  2
GENIUS_GENOBJ-N-DIM_13
 70
     0
  0
APPID
  2
GENIUS_GENDIM_13
 70
     0
  0
APPID
  2
GENIUS_GENDTOL_13
 70
     0
  0
APPID
  2
GENIUS_GENOLIS_13
 70
     0
  0
APPID
  2
GENIUS_GENOENT_13
 70
     0
  0
APPID
  2
GENIUS_GENOBJ-F-FEM_13
 70
     0
  0
APPID
  2
GENIUS_GENOREF_13
 70
     0
  0
APPID
  2
GENIUS_GEFFEM_13
 70
     0
  0
APPID
  2
GENIUS_GEFFEMP_13
 70
     0
  0
APPID
  2
AD_DRAW
 70
     0
  0
APPID
  2
DESIGNERASSEMBLIES
 70
     0
  0
APPID
  2
ACADM_DIM_EDIT
 70
     0
  0
APPID
  2
AMDT_DM_ADJ
 70
     0
  0
APPID
  2
ITEMNAME
 70
     0
  0
APPID
  2
GENIUS_GENOBJ-N-FIL_13
 70
     0
  0
APPID
  2
GENIUS_GENFIL_13
 70
     0
  0
APPID
  2
GENIUS_GENOBJ-N-CHA_13
 70
     0
  0
APPID
  2
ACAD_NAV_VCDISPLAY
 70
     0
  0
APPID
  2
ACAD_EXEMPT_FROM_CAD_STANDARDS
 70
     0
  0
APPID
  2
ACAD_DSTYLE_DIMJAG
 70
     0
  0
APPID
  2
ACAD_DSTYLE_DIMBREAK
 70
     0
  0
APPID
  2
ACAD_DSTYLE_DIMINSPECT
 70
     0
  0
APPID
  2
ACAD_MLEADERVER
 70
     0
  0
APPID
  2
ACAD_DSTYLE_DIMARC_LENGTH_
 70
     0
  0
APPID
  2
ACAD_DSTYLE_DIM_LINETYPE
 70
     0
  0
APPID
  2
ACAD_DSTYLE_DIM_EXT1_LINETYPE
 70
     0
  0
APPID
  2
ACAD_DSTYLE_DIM_EXT2_LINETYPE
 70
     0
  0
ENDTAB
  0
TABLE
  2
DIMSTYLE
 70
    23
  0
DIMSTYLE
  2
BIGT
 70
     0
  3

  4

  5
OPEN
  6

  7

 40
1.0
 41
2.2299999999999991
 42
0.5
 43
7.0
 44
1.0
 45
0.0
 46
0.0
 47
0.0
 48
0.01
140
2.7999999999999989
141
0.0
142
0.0
143
25.399999999999999
144
1.0
145
0.0
146
1.0
147
1.0
 71
     0
 72
     0
 73
     0
 74
     0
 75
     0
 76
     0
 77
     3
 78
     9
170
     0
171
     2
172
     1
173
     0
174
     1
175
     0
176
   256
177
   256
178
    40
  0
DIMSTYLE
  2
AM_ISO
 70
     0
  3

  4
"
  5

  6

  7

 40
1.0
 41
2.5
 42
1.0
 43
10.0
 44
1.0
 45
0.0
 46
0.0
 47
0.1
 48
0.1
140
3.5
141
0.0
142
0.0
143
0.0393701
144
1.0
145
0.0
146
0.71
147
1.5
 71
     0
 72
     0
 73
     0
 74
     0
 75
     0
 76
     0
 77
     1
 78
     8
170
     0
171
     2
172
     1
173
     0
174
     0
175
     0
176
   256
177
   256
178
     2
  0
DIMSTYLE
  2
AM_ISO$3
 70
     0
  3

  4
"
  5

  6

  7

 40
1.0
 41
2.5
 42
1.0
 43
10.0
 44
1.0
 45
0.0
 46
0.0
 47
0.1
 48
0.1
140
3.5
141
0.0
142
0.0
143
0.0393701
144
1.0
145
0.0
146
0.71
147
1.5
 71
     0
 72
     0
 73
     0
 74
     1
 75
     0
 76
     0
 77
     1
 78
     8
170
     0
171
     2
172
     0
173
     0
174
     0
175
     0
176
   256
177
   256
178
     2
  0
DIMSTYLE
  2
AM_ISO$4
 70
     0
  3

  4
"
  5

  6

  7

 40
1.0
 41
2.5
 42
1.0
 43
10.0
 44
1.0
 45
0.0
 46
0.0
 47
0.1
 48
0.1
140
3.5
141
0.0
142
0.0
143
0.0393701
144
1.0
145
0.0
146
0.71
147
1.5
 71
     0
 72
     0
 73
     0
 74
     1
 75
     0
 76
     0
 77
     1
 78
     8
170
     0
171
     2
172
     0
173
     0
174
     0
175
     0
176
   256
177
   256
178
     2
  0
DIMSTYLE
  2
AM_ISO$6
 70
     0
  3

  4
"
  5

  6

  7

 40
1.0
 41
2.5
 42
1.0
 43
10.0
 44
1.0
 45
0.0
 46
0.0
 47
0.1
 48
0.1
140
3.5
141
0.0
142
0.0
143
0.0393701
144
1.0
145
0.0
146
0.71
147
1.5
 71
     0
 72
     0
 73
     0
 74
     0
 75
     0
 76
     0
 77
     0
 78
     8
170
     0
171
     2
172
     1
173
     0
174
     0
175
     0
176
   256
177
   256
178
     2
  0
DIMSTYLE
  2
AM_ISO$7
 70
     0
  3

  4
"
  5

  6

  7

 40
1.0
 41
2.5
 42
1.0
 43
10.0
 44
1.0
 45
0.0
 46
0.0
 47
0.1
 48
0.1
140
5.0
141
0.0
142
0.0
143
0.0393701
144
1.0
145
0.0
146
0.71
147
1.5
 71
     0
 72
     0
 73
     0
 74
     0
 75
     0
 76
     0
 77
     1
 78
     8
170
     0
171
     2
172
     1
173
     0
174
     0
175
     0
176
   256
177
   256
178
     2
  0
DIMSTYLE
  2
AM_ISO$SF
 70
     0
  3

  4
"
  5

  6

  7

 40
1.0
 41
2.5
 42
1.0
 43
10.0
 44
1.0
 45
0.0
 46
0.0
 47
0.1
 48
0.1
140
3.5
141
0.0
142
0.0
143
0.0393701
144
1.0
145
0.0
146
0.71
147
1.5
 71
     0
 72
     0
 73
     0
 74
     0
 75
     1
 76
     1
 77
     1
 78
     8
170
     0
171
     2
172
     1
173
     0
174
     0
175
     0
176
   256
177
   256
178
     2
  0
DIMSTYLE
  2
AM_ISO$SH
 70
     0
  3

  4
"
  5

  6
GENAXEH
  7

 40
1.0
 41
2.5
 42
1.0
 43
10.0
 44
1.0
 45
0.0
 46
0.0
 47
0.1
 48
0.1
140
3.5
141
0.0
142
0.0
143
0.0393701
144
2.0
145
0.0
146
0.71
147
1.5
 71
     0
 72
     0
 73
     0
 74
     0
 75
     1
 76
     1
 77
     1
 78
     8
170
     0
171
     2
172
     1
173
     1
174
     0
175
     0
176
   256
177
   256
178
     2
  0
DIMSTYLE
  2
BIGT$2
 70
     0
  3

  4

  5
OPEN
  6

  7

 40
1.0
 41
2.2299999999999991
 42
0.5
 43
7.0
 44
1.0
 45
0.0
 46
0.0
 47
0.0
 48
0.01
140
2.7999999999999989
141
0.0
142
0.0
143
25.399999999999999
144
1.0
145
0.0
146
1.0
147
1.0
 71
     0
 72
     0
 73
     0
 74
     0
 75
     0
 76
     0
 77
     3
 78
     9
170
     0
171
     2
172
     1
173
     0
174
     0
175
     0
176
   256
177
   256
178
    40
  0
DIMSTYLE
  2
BIGT$3
 70
     0
  3

  4

  5
OPEN
  6

  7

 40
1.0
 41
2.2299999999999991
 42
0.5
 43
2.5
 44
1.0
 45
0.0
 46
0.0
 47
0.0
 48
0.01
140
2.7999999999999989
141
0.0
142
0.0
143
25.399999999999999
144
1.0
145
0.0
146
1.0
147
1.0
 71
     0
 72
     0
 73
     0
 74
     0
 75
     0
 76
     0
 77
     3
 78
     9
170
     0
171
     2
172
     1
173
     0
174
     0
175
     0
176
   256
177
   256
178
    40
  0
DIMSTYLE
  2
BIGT$7
 70
     0
  3

  4

  5
OPEN
  6

  7

 40
0.0
 41
2.2299999999999991
 42
0.5
 43
7.0
 44
1.0
 45
0.0
 46
0.0
 47
0.0
 48
0.01
140
2.7999999999999989
141
0.0
142
0.0
143
25.399999999999999
144
1.0
145
0.0
146
1.0
147
1.0
 71
     0
 72
     0
 73
     0
 74
     0
 75
     0
 76
     0
 77
     3
 78
     9
170
     0
171
     2
172
     0
173
     0
174
     0
175
     0
176
   256
177
   256
178
    40
  0
DIMSTYLE
  2
BIGT$6
 70
     0
  3

  4

  5
OPEN
  6

  7

 40
1.0
 41
2.2299999999999991
 42
0.5
 43
2.5
 44
1.0
 45
0.0
 46
0.0
 47
0.0
 48
0.01
140
2.7999999999999989
141
0.0
142
0.0
143
25.399999999999999
144
1.0
145
0.0
146
1.0
147
1.0
 71
     0
 72
     0
 73
     0
 74
     0
 75
     0
 76
     0
 77
     3
 78
     9
170
     0
171
     2
172
     1
173
     0
174
     0
175
     0
176
   256
177
   256
178
    40
  0
DIMSTYLE
  2
BIGT$0
 70
     0
  3

  4

  5
OPEN
  6

  7

 40
1.0
 41
2.2299999999999991
 42
0.5
 43
7.0
 44
1.0
 45
0.0
 46
0.0
 47
0.0
 48
0.01
140
2.7999999999999989
141
0.0
142
0.0
143
25.399999999999999
144
1.0
145
0.0
146
1.0
147
1.0
 71
     0
 72
     0
 73
     0
 74
     0
 75
     0
 76
     0
 77
     3
 78
     9
170
     0
171
     2
172
     1
173
     0
174
     1
175
     0
176
   256
177
   256
178
    40
  0
DIMSTYLE
  2
BIGT$4
 70
     0
  3

  4

  5
OPEN
  6

  7

 40
1.0
 41
2.2299999999999991
 42
0.5
 43
2.5
 44
1.0
 45
0.0
 46
0.0
 47
0.0
 48
0.01
140
2.7999999999999989
141
0.0
142
0.0
143
25.399999999999999
144
1.0
145
0.0
146
1.0
147
1.0
 71
     0
 72
     0
 73
     0
 74
     0
 75
     0
 76
     0
 77
     3
 78
     9
170
     0
171
     2
172
     1
173
     0
174
     0
175
     0
176
   256
177
   256
178
    40
  0
DIMSTYLE
  2
BIGT$SH
 70
     0
  3

  4

  5
OPEN
  6

  7

 40
1.0
 41
2.2299999999999991
 42
0.5
 43
7.0
 44
1.0
 45
0.0
 46
0.0
 47
0.0
 48
0.0
140
2.7999999999999989
141
0.0
142
0.0
143
25.399999999999999
144
1.0
145
0.0
146
1.0
147
1.0
 71
     0
 72
     0
 73
     0
 74
     0
 75
     0
 76
     0
 77
     3
 78
     9
170
     0
171
     2
172
     1
173
     0
174
     0
175
     0
176
   256
177
   256
178
    40
  0
DIMSTYLE
  2
BIGT$SF
 70
     0
  3

  4

  5
OPEN
  6

  7

 40
1.0
 41
2.2299999999999991
 42
0.5
 43
7.0
 44
1.0
 45
0.0
 46
0.0
 47
0.0
 48
0.0
140
2.7999999999999989
141
0.0
142
0.0
143
25.399999999999999
144
1.0
145
0.0
146
1.0
147
1.0
 71
     0
 72
     0
 73
     0
 74
     0
 75
     0
 76
     0
 77
     3
 78
     9
170
     0
171
     2
172
     1
173
     0
174
     0
175
     0
176
   256
177
   256
178
    40
  0
DIMSTYLE
  2
TECHNICAL_OSAKA
 70
     0
  3

  4
"
  5
OPEN30
  6

  7

 40
1.0
 41
2.5
 42
1.0
 43
10.0
 44
1.0
 45
0.0
 46
0.0
 47
0.1
 48
0.1
140
2.7999999999999989
141
0.0
142
0.0
143
0.0393701
144
1.0
145
0.0
146
0.71
147
1.5
 71
     0
 72
     0
 73
     0
 74
     0
 75
     0
 76
     0
 77
     3
 78
     8
170
     0
171
     2
172
     1
173
     0
174
     0
175
     0
176
   256
177
   256
178
    40
  0
DIMSTYLE
  2
TECHNICAL_OSAKA$3
 70
     0
  3

  4
"
  5
OPEN30
  6

  7

 40
1.0
 41
2.5
 42
1.0
 43
10.0
 44
1.0
 45
0.0
 46
0.0
 47
0.1
 48
0.1
140
2.7999999999999989
141
0.0
142
0.0
143
0.0393701
144
1.0
145
0.0
146
0.71
147
1.5
 71
     0
 72
     0
 73
     0
 74
     1
 75
     0
 76
     0
 77
     3
 78
     8
170
     0
171
     2
172
     0
173
     0
174
     0
175
     0
176
   256
177
   256
178
    40
  0
DIMSTYLE
  2
TECHNICAL_OSAKA$4
 70
     0
  3

  4
"
  5
OPEN30
  6

  7

 40
1.0
 41
2.5
 42
1.0
 43
10.0
 44
1.0
 45
0.0
 46
0.0
 47
0.1
 48
0.1
140
2.7999999999999989
141
0.0
142
0.0
143
0.0393701
144
1.0
145
0.0
146
0.71
147
1.5
 71
     0
 72
     0
 73
     0
 74
     1
 75
     0
 76
     0
 77
     3
 78
     8
170
     0
171
     2
172
     0
173
     0
174
     0
175
     0
176
   256
177
   256
178
    40
  0
DIMSTYLE
  2
TECHNICAL_OSAKA$6
 70
     0
  3

  4
"
  5
OPEN30
  6

  7

 40
1.0
 41
2.5
 42
1.0
 43
10.0
 44
1.0
 45
0.0
 46
0.0
 47
0.1
 48
0.1
140
2.7999999999999989
141
0.0
142
0.0
143
0.0393701
144
1.0
145
0.0
146
0.71
147
1.5
 71
     0
 72
     0
 73
     0
 74
     0
 75
     0
 76
     0
 77
     0
 78
     8
170
     0
171
     2
172
     1
173
     0
174
     0
175
     0
176
   256
177
   256
178
    40
  0
DIMSTYLE
  2
TECHNICAL_OSAKA$7
 70
     0
  3

  4
"
  5
OPEN30
  6

  7

 40
1.0
 41
2.5
 42
1.0
 43
10.0
 44
1.0
 45
0.0
 46
0.0
 47
0.1
 48
0.1
140
2.7999999999999989
141
0.0
142
0.0
143
0.0393701
144
1.0
145
0.0
146
0.71
147
1.5
 71
     0
 72
     0
 73
     0
 74
     0
 75
     0
 76
     0
 77
     3
 78
     8
170
     0
171
     2
172
     1
173
     0
174
     0
175
     0
176
   256
177
   256
178
    40
  0
DIMSTYLE
  2
TECHNICAL_OSAKA$SF
 70
     0
  3

  4
"
  5
OPEN30
  6
OPEN30
  7
OPEN30
 40
1.0
 41
2.5
 42
1.0
 43
10.0
 44
1.0
 45
0.0
 46
0.0
 47
0.1
 48
0.1
140
3.5
141
0.0
142
0.0
143
0.0393701
144
1.0
145
0.0
146
0.71
147
1.5
 71
     0
 72
     0
 73
     0
 74
     0
 75
     1
 76
     1
 77
     3
 78
     8
170
     0
171
     2
172
     1
173
     0
174
     0
175
     0
176
   256
177
   256
178
    40
  0
DIMSTYLE
  2
TECHNICAL_OSAKA$SH
 70
     0
  3

  4
"
  5
OPEN30
  6
GENAXEH
  7
OPEN30
 40
1.0
 41
2.5
 42
1.0
 43
10.0
 44
1.0
 45
0.0
 46
0.0
 47
0.1
 48
0.1
140
3.5
141
0.0
142
0.0
143
0.0393701
144
2.0
145
0.0
146
0.71
147
1.5
 71
     0
 72
     0
 73
     0
 74
     0
 75
     1
 76
     1
 77
     3
 78
     8
170
     0
171
     2
172
     1
173
     1
174
     0
175
     0
176
   256
177
   256
178
    40
  0
ENDTAB
  0
ENDSEC
  0
SECTION
  2
BLOCKS
  0
BLOCK
  8
0
  2
$MODEL_SPACE
 70
     0
 10
0.0
 20
0.0
 30
0.0
  3
$MODEL_SPACE
  1

  0
ENDBLK
  5
1C
  8
0
  0
BLOCK
 67
     1
  8
0
  2
$PAPER_SPACE
 70
     0
 10
0.0
 20
0.0
 30
0.0
  3
$PAPER_SPACE
  1

  0
ENDBLK
  5
19
 67
     1
  8
0
  0
BLOCK
  8
0
  2
_OPEN
 70
     0
 10
0.0
 20
0.0
 30
0.0
  3
_OPEN
  1

  0
LINE
  5
488B
  8
0
  6
BYBLOCK
 62
     0
 10
-1.0
 20
0.1666666666666666
 30
0.0
 11
0.0
 21
0.0
 31
0.0
  0
LINE
  5
488C
  8
0
  6
BYBLOCK
 62
     0
 10
-1.0
 20
-0.1666666666666666
 30
0.0
 11
0.0
 21
0.0
 31
0.0
  0
LINE
  5
488D
  8
0
  6
BYBLOCK
 62
     0
 10
0.0
 20
0.0
 30
0.0
 11
-1.0
 21
0.0
 31
0.0
  0
ENDBLK
  5
488E
  8
0
  0
BLOCK
  8
0
  2
GENAXEH
 70
     0
 10
0.0
 20
0.0
 30
0.0
  3
GENAXEH
  1

  0
LINE
  5
48C6
  8
0
 10
-1.0
 20
0.0
 30
0.0
 11
1.0
 21
0.0
 31
0.0
  0
ENDBLK
  5
48C7
  8
0
  0
BLOCK
  8
0
  2
_OPEN30
 70
     0
 10
0.0
 20
0.0
 30
0.0
  3
_OPEN30
  1

  0
LINE
  5
4902
  8
0
  6
BYBLOCK
 62
     0
 10
-1.0
 20
0.26794919
 30
0.0
 11
0.0
 21
0.0
 31
0.0
  0
LINE
  5
4903
  8
0
  6
BYBLOCK
 62
     0
 10
0.0
 20
0.0
 30
0.0
 11
-1.0
 21
-0.26794919
 31
0.0
  0
LINE
  5
4904
  8
0
  6
BYBLOCK
 62
     0
 10
0.0
 20
0.0
 30
0.0
 11
-1.0
 21
0.0
 31
0.0
  0
ENDBLK
  5
4905
  8
0
  0
BLOCK
  8
0
  2
*U6
 70
     1
 10
0.0
 20
0.0
 30
0.0
  3
*U6
  1

  0
TEXT
  5
4981
  8
250
 10
-67.354401241801455
 20
-42.570345964538149
 30
0.0
 40
3.0
  1
BBT50
  7
YOKO
  0
ENDBLK
  5
4983
  8
0
  0
BLOCK
  8
0
  2
*U7
 70
     1
 10
0.0
 20
0.0
 30
0.0
  3
*U7
  1

  0
INSERT
  5
4985
  8
250
  2
_OPEN
 10
-42.235482547834117
 20
-28.765658795107871
 30
0.0
 41
2.2299999999999991
 42
2.2299999999999991
 43
2.2299999999999991
 50
60.000000000000028
  0
POLYLINE
  5
4986
  8
250
 66
     1
 10
0.0
 20
0.0
 30
0.0
  0
VERTEX
  5
4987
  8
250
 10
-43.350482547834119
 20
-30.69689544554717
 30
0.0
  0
VERTEX
  5
4988
  8
250
 10
-50.782972670372892
 20
-43.570345964538141
 30
0.0
  0
SEQEND
  5
4989
  8
250
  0
ENDBLK
  5
498B
  8
0
  0
ENDSEC
  0
SECTION
  2
ENTITIES
  0
INSERT
  5
435B
  8
240
  2
*U6
 10
0.0
 20
0.0
 30
0.0
  0
LINE
  5
435C
  8
250
 10
-50.782972670372892
 20
-43.570345964538141
 30
0.0
 11
-69.782972670372885
 21
-43.570345964538141
 31
0.0
1001
ITEMNAME
1000
LNSP2
  0
INSERT
  5
435E
  8
240
  2
*U7
 10
0.0
 20
0.0
 30
0.0
1001
ACAD
1000
DSTYLE
1002
{
1070
    78
1070
     8
1070
   140
1040
3.0
1002
}
  0
LINE
  5
4363
  8
243
 10
34.0
 20
35.399999999999778
 30
0.0
 11
34.0
 21
49.999999999999659
 31
0.0
  0
LINE
  5
4364
  8
243
 10
34.0
 20
35.399999999999778
 30
0.0
 11
1.4999999999984079
 21
35.39999999999975
 31
0.0
  0
LINE
  5
4365
  8
243
 10
34.0
 20
-35.40000000000024
 30
0.0
 11
1.4999999999984079
 21
-35.400000000000198
 31
0.0
  0
LINE
  5
4366
  8
243
 10
34.0
 20
-35.40000000000024
 30
0.0
 11
33.999999999999773
 21
-50.000000000000391
 31
0.0
  0
LINE
  5
437A
  8
241
 10
0.0
 20
34.92499999999967
 30
0.0
 11
0.0
 21
-34.925000000000352
 31
0.0
  0
LINE
  5
437B
  8
241
 10
1.4999999999984079
 20
-34.925000000000352
 30
0.0
 11
1.4999999999992359
 21
34.92499999999967
 31
0.0
  0
ARC
  5
437C
  8
240
 10
36.700000000000621
 20
48.699999999999648
 30
0.0
 40
1.3000000000000109
 50
0.0
 51
90.0
  0
LINE
  5
437D
  8
240
 10
38.000000000000632
 20
48.699999999999648
 30
0.0
 11
38.000000000000632
 21
28.999999999998071
 31
0.0
  0
ARC
  5
437E
  8
240
 10
36.699999999999818
 20
-48.7000000000005
 30
0.0
 40
1.3000000000000109
 50
270.0
 51
0.0
  0
LINE
  5
437F
  8
240
 10
37.999999999999829
 20
-48.7000000000005
 30
0.0
 11
38.000000000000142
 21
-29.000000000002359
 31
0.0
  0
LINE
  5
4380
  8
240
 10
0.0
 20
-34.925000000000352
 30
0.0
 11
-99.917475164758002
 21
-20.353701538473128
 31
0.0
  0
LINE
  5
4381
  8
240
 10
0.0
 20
34.92499999999967
 30
0.0
 11
-99.917475164757775
 21
20.353701538472482
 31
0.0
  0
ARC
  5
4386
  8
240
 10
2.4999999999984079
 20
-49.000000000000448
 30
0.0
 40
1.0
 50
179.9999999999967
 51
270.0
  0
LINE
  5
4387
  8
240
 10
1.500000000000113
 20
39.999999999999709
 30
0.0
 11
1.500000000000113
 21
48.999999999999659
 31
0.0
  0
ARC
  5
4388
  8
240
 10
2.5000000000001128
 20
48.999999999999659
 30
0.0
 40
1.0
 50
90.0
 51
180.0
  0
LINE
  5
438A
  8
240
 10
1.4999999999992359
 20
34.92499999999967
 30
0.0
 11
1.5000000000009941
 21
39.999999999998842
 31
0.0
  0
LINE
  5
438B
  8
240
 10
1.4999999999984079
 20
-49.000000000000398
 30
0.0
 11
1.4999999999984079
 21
-34.925000000000352
 31
0.0
  0
LINE
  5
438E
  8
241
 10
15.66269223573061
 20
0.000000000002558
 30
0.0
 11
15.662692235739961
 21
49.82679491924727
 31
0.0
  0
LINE
  5
438F
  8
241
 10
19.992819254652598
 20
0.0000000000017621
 30
0.0
 11
19.992819254660589
 21
42.55505102572311
 31
0.0
  0
LINE
  5
4390
  8
241
 10
26.407180745348398
 20
0.0000000000005684
 30
0.0
 11
26.407180745356388
 21
42.555051025721411
 31
0.0
  0
LINE
  5
4391
  8
241
 10
30.73730776427033
 20
-0.0000000000002842
 30
0.0
 11
30.737307764279681
 21
49.826794919238353
 31
0.0
  0
LINE
  5
4392
  8
240
 10
30.587307764271539
 20
49.740192378864769
 30
0.0
 11
26.49378328572692
 21
42.649999999998947
 31
0.0
  0
LINE
  5
4393
  8
240
 10
31.037307764271532
 20
50.000000000000057
 30
0.0
 11
30.587307764271539
 21
49.740192378864769
 31
0.0
  0
LINE
  5
4394
  8
240
 10
26.233975664591579
 20
42.49999999999897
 30
0.0
 11
20.166024335409471
 21
42.499999999999091
 31
0.0
  0
ARC
  5
4395
  8
240
 10
26.233975664591579
 20
42.799999999998981
 30
0.0
 40
0.3
 50
270.0
 51
329.99999999999812
  0
LINE
  5
4396
  8
240
 10
36.700000000000621
 20
49.999999999999829
 30
0.0
 11
31.03730776427108
 21
49.999999999999773
 31
0.0
  0
LINE
  5
4397
  8
240
 10
19.906216714274141
 20
42.649999999999068
 30
0.0
 11
15.81269223573093
 21
49.740192378863298
 31
0.0
  0
LINE
  5
4398
  8
240
 10
15.36269223573095
 20
49.999999999998693
 30
0.0
 11
15.81269223573093
 21
49.740192378863298
 31
0.0
  0
ARC
  5
4399
  8
240
 10
20.166024335409471
 20
42.799999999999102
 30
0.0
 40
0.3
 50
209.99999999999969
 51
270.0
  0
LINE
  5
439A
  8
240
 10
2.5000000000001128
 20
49.999999999999829
 30
0.0
 11
15.3626922357289
 21
49.999999999999893
 31
0.0
  0
LINE
  5
439B
  8
241
 10
30.73730776427033
 20
-0.0000000000003411
 30
0.0
 11
30.73730776427033
 21
-49.826794919238992
 31
0.0
  0
LINE
  5
439C
  8
241
 10
26.407180745348398
 20
-0.0000000000003411
 30
0.0
 11
26.407180745348398
 21
-42.555051025721198
 31
0.0
  0
LINE
  5
439D
  8
240
 10
26.23397566459187
 20
-42.499999999999673
 30
0.0
 11
20.166024335409759
 21
-42.499999999999837
 31
0.0
  0
LINE
  5
439E
  8
240
 10
30.58730776427188
 20
-49.740192378865473
 30
0.0
 11
26.493783285727211
 21
-42.649999999999707
 31
0.0
  0
LINE
  5
439F
  8
240
 10
31.037307764271869
 20
-50.000000000000753
 30
0.0
 11
30.58730776427188
 21
-49.740192378865473
 31
0.0
  0
ARC
  5
43A0
  8
240
 10
26.23397566459187
 20
-42.799999999999741
 30
0.0
 40
0.3
 50
30.00000000000195
 51
90.0
  0
LINE
  5
43A1
  8
240
 10
36.699999999999818
 20
-50.000000000000348
 30
0.0
 11
31.03730776427102
 21
-50.000000000000242
 31
0.0
  0
LINE
  5
43A2
  8
241
 10
19.992819254652598
 20
-0.0000000000003411
 30
0.0
 11
19.992819254652598
 21
-42.55505102572171
 31
0.0
  0
LINE
  5
43A3
  8
240
 10
19.906216714274422
 20
-42.649999999999878
 30
0.0
 11
15.81269223573128
 21
-49.740192378864108
 31
0.0
  0
ARC
  5
43A4
  8
240
 10
20.166024335409759
 20
-42.799999999999862
 30
0.0
 40
0.3
 50
90.0
 51
149.99999999999801
  0
LINE
  5
43A5
  8
241
 10
15.66269223573061
 20
-0.0000000000003411
 30
0.0
 11
15.66269223573061
 21
-49.826794919245067
 31
0.0
  0
LINE
  5
43A6
  8
240
 10
15.362692235731281
 20
-49.999999999999439
 30
0.0
 11
15.81269223573128
 21
-49.740192378864108
 31
0.0
  0
LINE
  5
43A7
  8
240
 10
2.4999999999984079
 20
-50.000000000000242
 30
0.0
 11
15.362692235729471
 21
-50.000000000000533
 31
0.0
  0
LINE
  5
43A8
  8
240
 10
-101.8
 20
18.176728980133529
 30
0.0
 11
-101.8
 21
-0.0000000000005116
 31
0.0
  0
LINE
  5
43AA
  8
240
 10
-101.8
 20
-0.0000000000005116
 30
0.0
 11
-101.8000000000001
 21
-18.176728980133529
 31
0.0
  0
ARC
  5
43AC
  8
240
 10
-99.600000000000151
 20
-18.176728980133529
 30
0.0
 40
2.2000000000000002
 50
180.0
 51
261.70285503016129
1001
GENIUS_GENODEF_13
1002
{
1000
HIER
1070
     0
1002
}
1002
{
1000
MANEDIT
1070
     0
1002
}
1002
{
1000
NOSEL
1070
     0
1002
}
1002
{
1000
BEHIND
1070
     0
1002
}
1002
{
1000
OTHER
1070
     0
1002
}
1002
{
1000
REACTOR
1002
}
1001
GENIUS_GENOBJ-N-FIL_13
1002
{
1000
OWNER
1000
GEN
1002
}
  0
ARC
  5
43AD
  8
240
 10
-99.600000000000023
 20
18.176728980133529
 30
0.0
 40
2.2000000000000002
 50
98.297144969835202
 51
180.0
1001
GENIUS_GENOBJ-N-FIL_13
1002
{
1000
OWNER
1000
GEN
1002
}
1001
GENIUS_GENODEF_13
1002
{
1000
HIER
1070
     0
1002
}
1002
{
1000
MANEDIT
1070
     0
1002
}
1002
{
1000
NOSEL
1070
     0
1002
}
1002
{
1000
BEHIND
1070
     0
1002
}
1002
{
1000
OTHER
1070
     0
1002
}
1002
{
1000
REACTOR
1002
}
  0
LINE
  5
43AF
  8
245
 10
-104.3360820532293
 20
0.0000000000007958
 30
0.0
 11
113.7201285704819
 21
0.0
 31
0.0
  0
LINE
  5
43B0
  8
250
 10
105.0000000000007
 20
-6.5
 30
0.0
 11
119.8669783497316
 21
-6.5
 31
0.0
  0
LINE
  5
43B1
  8
250
 10
105.0000000000007
 20
6.5
 30
0.0
 11
119.5028361173822
 21
6.5
 31
0.0
  0
LINE
  5
43B3
  8
240
 10
38.000000000000632
 20
28.999999999999861
 30
0.0
 11
38.500000000000568
 21
28.499999999999918
 31
0.0
  0
LINE
  5
43B4
  8
241
 10
38.000000000000632
 20
28.999999999999861
 30
0.0
 11
38.000000000000632
 21
-29.000000000000739
 31
0.0
  0
LINE
  5
43B5
  8
240
 10
38.000000000000959
 20
-29.000000000000401
 30
0.0
 11
38.500000000000909
 21
-28.500000000000458
 31
0.0
  0
LINE
  5
43B6
  8
241
 10
38.500000000000789
 20
-28.249999999999769
 30
0.0
 11
38.500000000000682
 21
0.000000000000199
 31
0.0
  0
LINE
  5
43B7
  8
241
 10
66.999999999998735
 20
-15.249999999999741
 30
0.0
 11
66.999999999998735
 21
15.250000000000171
 31
0.0
  0
LINE
  5
43B8
  8
240
  6
CONTINUOUS
 10
66.500000000000341
 20
-15.499999999999799
 30
0.0
 11
66.749999999998636
 21
-15.499999999999771
 31
0.0
  0
LINE
  5
43B9
  8
240
 10
66.999999999998735
 20
-15.249999999999741
 30
0.0
 11
66.749999999998749
 21
-15.499999999999741
 31
0.0
  0
LINE
  5
43BA
  8
241
  6
CONTINUOUS
 10
49.500000000000398
 20
0.0000000000000853
 30
0.0
 11
49.500000000000107
 21
-28.499999999999918
 31
0.0
  0
LINE
  5
43BB
  8
240
 10
49.000000000000107
 20
-28.999999999999911
 30
0.0
 11
49.500000000000107
 21
-28.499999999999918
 31
0.0
1001
GENIUS_GENFIL_13
1070
     0
1040
0.5
1040
0.5
1040
0.5000000000000285
1040
45.0
1000
~T
  0
LINE
  5
43BC
  8
240
 10
49.000000000000739
 20
29.000000000000089
 30
0.0
 11
49.500000000000732
 21
28.500000000000082
 31
0.0
1001
GENIUS_GENFIL_13
1070
     0
1040
0.5
1040
0.5
1040
0.2500000000000284
1040
45.00000000000162
1002
{
1002
}
1001
GENIUS_GENODEF_13
1002
{
1000
HIER
1070
     0
1002
}
1002
{
1000
MANEDIT
1070
     0
1002
}
1002
{
1000
NOSEL
1070
     0
1002
}
1002
{
1000
BEHIND
1070
     0
1002
}
1002
{
1000
OTHER
1070
     0
1002
}
1002
{
1000
REACTOR
1002
}
1001
GENIUS_GENOBJ-N-CHA_13
1002
{
1000
OWNER
1000
GEN
1002
}
  0
LINE
  5
43BD
  8
240
 10
39.000000000000739
 20
29.000000000000089
 30
0.0
 11
49.000000000000739
 21
29.000000000000089
 31
0.0
  0
LINE
  5
43BE
  8
240
 10
38.500000000000632
 20
28.499999999999972
 30
0.0
 11
39.000000000000739
 21
29.000000000000089
 31
0.0
1001
GENIUS_GENFIL_13
1070
     0
1040
0.5
1040
0.5
1040
0.2500000000000284
1040
45.00000000000162
1002
{
1002
}
1001
GENIUS_GENOBJ-N-CHA_13
1002
{
1000
OWNER
1000
GEN
1002
}
1001
GENIUS_GENODEF_13
1002
{
1000
HIER
1070
     0
1002
}
1002
{
1000
MANEDIT
1070
     0
1002
}
1002
{
1000
NOSEL
1070
     0
1002
}
1002
{
1000
BEHIND
1070
     0
1002
}
1002
{
1000
OTHER
1070
     0
1002
}
1002
{
1000
REACTOR
1002
}
  0
LINE
  5
43BF
  8
241
  6
CONTINUOUS
 10
38.500000000000568
 20
28.499999999999918
 30
0.0
 11
38.500000000000789
 21
-28.499999999999918
 31
0.0
  0
LINE
  5
43C0
  8
240
 10
39.000000000000739
 20
-28.99999999999989
 30
0.0
 11
49.000000000000107
 21
-28.999999999999911
 31
0.0
  0
LINE
  5
43C1
  8
240
 10
38.500000000000632
 20
-28.499999999999769
 30
0.0
 11
39.000000000000739
 21
-28.99999999999989
 31
0.0
1001
GENIUS_GENFIL_13
1070
     0
1040
0.4999999999999858
1040
0.5000000000000285
1040
0.4999999999999858
1040
45.00000000000081
1002
{
1002
}
1001
GENIUS_GENOREF_13
1005
0
  0
LINE
  5
43C2
  8
241
 10
49.500000000000341
 20
-4.471678146993014
 30
0.0
 11
38.500000000000682
 21
-4.471678146993014
 31
0.0
  0
LINE
  5
43C3
  8
241
 10
38.500000000000739
 20
-10.45399763419894
 30
0.0
 11
49.500000000000277
 21
-10.45399763419894
 31
0.0
  0
LINE
  5
43C4
  8
241
 10
49.500000000000227
 20
-18.199171379886732
 30
0.0
 11
38.500000000000739
 21
-18.199171379886732
 31
0.0
  0
LINE
  5
43C5
  8
241
 10
38.500000000000739
 20
-22.57853319162939
 30
0.0
 11
49.500000000000107
 21
-22.57853319162939
 31
0.0
  0
LINE
  5
43C6
  8
241
 10
49.500000000000107
 20
-27.050211338623122
 30
0.0
 11
38.500000000000789
 21
-27.050211338623122
 31
0.0
  0
LINE
  5
43C7
  8
241
 10
41.900000000000659
 20
24.366025403784281
 30
0.0
 11
41.900000000000603
 21
22.63397459621541
 31
0.0
  0
LINE
  5
43C8
  8
241
 10
41.900000000000603
 20
22.63397459621541
 30
0.0
 11
43.400000000000659
 21
21.767949192430962
 31
0.0
  0
LINE
  5
43C9
  8
241
 10
43.400000000000659
 20
21.767949192430962
 30
0.0
 11
44.900000000000603
 21
22.63397459621541
 31
0.0
  0
LINE
  5
43CA
  8
241
 10
44.900000000000603
 20
22.63397459621541
 30
0.0
 11
44.900000000000652
 21
24.366025403784281
 31
0.0
  0
LINE
  5
43CB
  8
241
 10
44.900000000000652
 20
24.366025403784281
 30
0.0
 11
43.400000000000603
 21
25.232050807568761
 31
0.0
  0
LINE
  5
43CC
  8
241
 10
43.400000000000603
 20
25.232050807568761
 30
0.0
 11
41.900000000000659
 21
24.366025403784281
 31
0.0
  0
LINE
  5
43CD
  8
246
 10
50.000000000000341
 20
-2.4839386683082969
 30
0.0
 11
52.000000000000341
 21
-2.4839386683082969
 31
0.0
  0
LINE
  5
43CE
  8
246
 10
50.000000000000341
 20
-4.9489730635075651
 30
0.0
 11
53.000000000000341
 21
-4.9489730635075651
 31
0.0
  0
LINE
  5
43CF
  8
246
 10
50.000000000000341
 20
-7.3763427854219401
 30
0.0
 11
52.000000000000341
 21
-7.3763427854219401
 31
0.0
  0
LINE
  5
43D0
  8
241
 10
50.000000000000341
 20
-9.7475740847816326
 30
0.0
 11
53.000000000000341
 21
-9.7475740847816326
 31
0.0
  0
LINE
  5
43D1
  8
241
 10
50.000000000000341
 20
-11.9987870423908
 30
0.0
 11
52.000000000000341
 21
-11.9987870423908
 31
0.0
  0
LINE
  5
43D2
  8
241
 10
50.000000000000341
 20
-14.25000000000006
 30
0.0
 11
53.000000000000341
 21
-14.25000000000006
 31
0.0
  0
LINE
  5
43D3
  8
241
 10
50.000000000000341
 20
-16.284723438033211
 30
0.0
 11
52.000000000000341
 21
-16.284723438033211
 31
0.0
  0
LINE
  5
43D4
  8
241
 10
50.000000000000341
 20
-18.180290095256002
 30
0.0
 11
53.000000000000291
 21
-18.180290095256002
 31
0.0
  0
LINE
  5
43D5
  8
241
 10
50.000000000000277
 20
-19.92335806534112
 30
0.0
 11
52.000000000000277
 21
-19.92335806534112
 31
0.0
  0
LINE
  5
43D6
  8
241
 10
50.000000000000277
 20
-21.832266628890871
 30
0.0
 11
53.000000000000291
 21
-21.832266628890871
 31
0.0
  0
LINE
  5
43D7
  8
241
 10
50.000000000000227
 20
-23.34583326223628
 30
0.0
 11
52.000000000000277
 21
-23.34583326223628
 31
0.0
  0
LINE
  5
43D8
  8
241
 10
50.000000000000227
 20
-24.681724007856531
 30
0.0
 11
53.00000000000022
 21
-24.681724007856531
 31
0.0
  0
LINE
  5
43D9
  8
241
 10
50.000000000000227
 20
-25.82977193054456
 30
0.0
 11
52.000000000000227
 21
-25.82977193054456
 31
0.0
  0
LINE
  5
43DA
  8
241
 10
50.000000000000227
 20
-26.67932898989153
 30
0.0
 11
53.00000000000022
 21
-26.67932898989153
 31
0.0
  0
LINE
  5
43DB
  8
241
 10
50.000000000000227
 20
-27.319773231159051
 30
0.0
 11
52.000000000000227
 21
-27.319773231159051
 31
0.0
  0
LINE
  5
43DC
  8
241
 10
50.000000000000227
 20
-28.067020960847969
 30
0.0
 11
53.00000000000022
 21
-28.067020960847969
 31
0.0
  0
LINE
  5
43DD
  8
246
 10
50.000000000000341
 20
-0.0000000000000284
 30
0.0
 11
53.000000000000341
 21
0.0000000000000853
 31
0.0
  0
LINE
  5
43DE
  8
241
  6
CONTINUOUS
 10
49.500000000000398
 20
28.500000000000369
 30
0.0
 11
49.500000000000227
 21
-28.24999999999946
 31
0.0
  0
LINE
  5
43DF
  8
240
 10
49.750000000000448
 20
28.499999999999972
 30
0.0
 11
49.500000000000448
 21
28.249999999999972
 31
0.0
1001
GENIUS_GENFIL_13
1070
     0
1040
0.25
1040
0.25
1040
0.2500000000000284
1040
45.00000000000162
1002
{
1002
}
1001
GENIUS_GENODEF_13
1002
{
1000
HIER
1070
     0
1002
}
1002
{
1000
MANEDIT
1070
     0
1002
}
1002
{
1000
NOSEL
1070
     0
1002
}
1002
{
1000
BEHIND
1070
     0
1002
}
1002
{
1000
OTHER
1070
     0
1002
}
1002
{
1000
REACTOR
1002
}
1001
GENIUS_GENOBJ-N-CHA_13
1002
{
1000
OWNER
1000
GEN
1002
}
  0
LINE
  5
43E0
  8
240
 10
66.500000000000341
 20
22.67157287525399
 30
0.0
 11
66.500000000000341
 21
15.5
 31
0.0
  0
LINE
  5
43E1
  8
241
 10
66.500000000000369
 20
15.5
 30
0.0
 11
66.500000000000341
 21
-15.499999999999829
 31
0.0
  0
ARC
  5
43E2
  8
240
 10
64.500000000000341
 20
22.67157287525399
 30
0.0
 40
2.0
 50
0.0
 51
45.0
1001
GENIUS_GENOBJ-N-FIL_13
1002
{
1000
OWNER
1000
GEN
1002
}
1001
GENIUS_GENODEF_13
1002
{
1000
HIER
1070
     0
1002
}
1002
{
1000
MANEDIT
1070
     0
1002
}
1002
{
1000
NOSEL
1070
     0
1002
}
1002
{
1000
BEHIND
1070
     0
1002
}
1002
{
1000
OTHER
1070
     0
1002
}
1002
{
1000
REACTOR
1002
}
  0
LINE
  5
43E3
  8
240
 10
62.085786437627242
 20
27.914213562373309
 30
0.0
 11
65.914213562373433
 21
24.085786437627089
 31
0.0
1001
GENIUS_GENFIL_13
1070
     0
1040
5.0
1040
5.0
1040
0.2500000000000284
1040
45.00000000000162
1002
{
1002
}
1001
GENIUS_GENOBJ-N-CHA_13
1002
{
1000
OWNER
1000
GEN
1002
}
1001
GENIUS_GENODEF_13
1002
{
1000
HIER
1070
     0
1002
}
1002
{
1000
MANEDIT
1070
     0
1002
}
1002
{
1000
NOSEL
1070
     0
1002
}
1002
{
1000
BEHIND
1070
     0
1002
}
1002
{
1000
OTHER
1070
     0
1002
}
1002
{
1000
REACTOR
1002
}
  0
ARC
  5
43E4
  8
240
 10
60.671572875254128
 20
26.500000000000199
 30
0.0
 40
2.0
 50
45.0
 51
90.000000000001606
1001
GENIUS_GENFIL_13
1070
     0
1040
5.0
1040
5.0
1040
0.2500000000000284
1040
45.00000000000162
1002
{
1002
}
1001
GENIUS_GENOBJ-N-CHA_13
1002
{
1000
OWNER
1000
GEN
1002
}
1001
GENIUS_GENODEF_13
1002
{
1000
HIER
1070
     0
1002
}
1002
{
1000
MANEDIT
1070
     0
1002
}
1002
{
1000
NOSEL
1070
     0
1002
}
1002
{
1000
BEHIND
1070
     0
1002
}
1002
{
1000
OTHER
1070
     0
1002
}
1002
{
1000
REACTOR
1002
}
1001
GENIUS_GENOBJ-N-FIL_13
1002
{
1000
OWNER
1000
GEN
1002
}
  0
LINE
  5
43E5
  8
240
 10
49.750000000000448
 20
28.499999999999972
 30
0.0
 11
60.671572875254128
 21
28.500000000000199
 31
0.0
  0
LINE
  5
43E6
  8
240
 10
49.750000000000448
 20
-28.499999999999719
 30
0.0
 11
49.500000000000448
 21
-28.249999999999719
 31
0.0
1001
GENIUS_GENFIL_13
1070
     0
1040
0.25
1040
0.25
1040
0.2500000000000284
1040
45.00000000000162
1002
{
1002
}
1001
GENIUS_GENODEF_13
1002
{
1000
HIER
1070
     0
1002
}
1002
{
1000
MANEDIT
1070
     0
1002
}
1002
{
1000
NOSEL
1070
     0
1002
}
1002
{
1000
BEHIND
1070
     0
1002
}
1002
{
1000
OTHER
1070
     0
1002
}
1002
{
1000
REACTOR
1002
}
1001
GENIUS_GENOBJ-N-CHA_13
1002
{
1000
OWNER
1000
GEN
1002
}
  0
LINE
  5
43E7
  8
240
 10
66.500000000000341
 20
-22.671572875253819
 30
0.0
 11
66.500000000000398
 21
-15.499999999999799
 31
0.0
  0
ARC
  5
43E8
  8
240
 10
64.500000000000341
 20
-22.671572875253819
 30
0.0
 40
2.0
 50
315.0
 51
0.0
1001
GENIUS_GENODEF_13
1002
{
1000
HIER
1070
     0
1002
}
1002
{
1000
MANEDIT
1070
     0
1002
}
1002
{
1000
NOSEL
1070
     0
1002
}
1002
{
1000
BEHIND
1070
     0
1002
}
1002
{
1000
OTHER
1070
     0
1002
}
1002
{
1000
REACTOR
1002
}
1001
GENIUS_GENOBJ-N-FIL_13
1002
{
1000
OWNER
1000
GEN
1002
}
  0
LINE
  5
43E9
  8
240
 10
62.085786437627242
 20
-27.914213562372989
 30
0.0
 11
65.914213562373433
 21
-24.085786437626918
 31
0.0
1001
GENIUS_GENFIL_13
1070
     0
1040
5.0
1040
5.0
1040
0.2500000000000284
1040
45.00000000000162
1002
{
1002
}
1001
GENIUS_GENOBJ-N-CHA_13
1002
{
1000
OWNER
1000
GEN
1002
}
1001
GENIUS_GENODEF_13
1002
{
1000
HIER
1070
     0
1002
}
1002
{
1000
MANEDIT
1070
     0
1002
}
1002
{
1000
NOSEL
1070
     0
1002
}
1002
{
1000
BEHIND
1070
     0
1002
}
1002
{
1000
OTHER
1070
     0
1002
}
1002
{
1000
REACTOR
1002
}
  0
ARC
  5
43EA
  8
240
 10
60.671572875254178
 20
-26.49999999999989
 30
0.0
 40
2.0
 50
269.99999999999841
 51
315.0
1001
GENIUS_GENFIL_13
1070
     0
1040
5.0
1040
5.0
1040
0.2500000000000284
1040
45.00000000000162
1002
{
1002
}
1001
GENIUS_GENOBJ-N-CHA_13
1002
{
1000
OWNER
1000
GEN
1002
}
1001
GENIUS_GENOBJ-N-FIL_13
1002
{
1000
OWNER
1000
GEN
1002
}
1001
GENIUS_GENODEF_13
1002
{
1000
HIER
1070
     0
1002
}
1002
{
1000
MANEDIT
1070
     0
1002
}
1002
{
1000
NOSEL
1070
     0
1002
}
1002
{
1000
BEHIND
1070
     0
1002
}
1002
{
1000
OTHER
1070
     0
1002
}
1002
{
1000
REACTOR
1002
}
  0
LINE
  5
43EB
  8
240
 10
49.750000000000448
 20
-28.499999999999719
 30
0.0
 11
60.671572875254128
 21
-28.49999999999989
 31
0.0
  0
LINE
  5
43EC
  8
241
 10
61.500000000000341
 20
-28.32035944224879
 30
0.0
 11
61.500000000000313
 21
28.320359442249099
 31
0.0
  0
LINE
  5
43ED
  8
240
 10
83.500000000000796
 20
15.250000000000229
 30
0.0
 11
66.999999999998693
 21
15.25000000000014
 31
0.0
  0
LINE
  5
43EE
  8
240
 10
83.500000000000796
 20
-15.249999999999799
 30
0.0
 11
66.999999999998735
 21
-15.249999999999799
 31
0.0
  0
CIRCLE
  5
43EF
  8
241
 10
43.400000000000603
 20
23.499999999999861
 30
0.0
 40
3.5
  0
ARC
  5
43F1
  8
241
 10
43.400000000000603
 20
23.499999999999801
 30
0.0
 40
3.75
 50
180.0
 51
0.0
  0
LINE
  5
43F2
  8
241
 10
39.650000000000603
 20
27.249999999999801
 30
0.0
 11
39.650000000000603
 21
23.499999999999801
 31
0.0
  0
LINE
  5
43F3
  8
241
 10
47.150000000000603
 20
27.249999999999801
 30
0.0
 11
47.150000000000603
 21
23.499999999999801
 31
0.0
  0
LINE
  5
43F4
  8
241
 10
39.650000000000603
 20
27.249999999999801
 30
0.0
 11
47.150000000000603
 21
27.249999999999801
 31
0.0
  0
LINE
  5
43F5
  8
240
  6
CONTINUOUS
 10
66.500000000000341
 20
15.5
 30
0.0
 11
66.749999999998636
 21
15.49999999999997
 31
0.0
  0
LINE
  5
43F6
  8
240
 10
66.999999999998735
 20
15.24999999999994
 30
0.0
 11
66.749999999998749
 21
15.49999999999994
 31
0.0
  0
LINE
  5
43F7
  8
241
 10
49.500000000000341
 20
4.4716781469931837
 30
0.0
 11
38.500000000000682
 21
4.4716781469931837
 31
0.0
  0
LINE
  5
43F8
  8
246
 10
50.000000000000341
 20
2.4839386683084679
 30
0.0
 11
52.000000000000341
 21
2.4839386683084679
 31
0.0
  0
LINE
  5
43F9
  8
246
 10
50.000000000000341
 20
4.9489730635077356
 30
0.0
 11
53.000000000000341
 21
4.9489730635077356
 31
0.0
  0
LINE
  5
43FA
  8
246
 10
50.000000000000341
 20
7.3763427854221097
 30
0.0
 11
52.000000000000341
 21
7.3763427854221097
 31
0.0
  0
LINE
  5
43FB
  8
241
 10
50.000000000000341
 20
9.7475740847818031
 30
0.0
 11
53.000000000000341
 21
9.7475740847818031
 31
0.0
  0
LINE
  5
43FC
  8
241
 10
50.000000000000341
 20
11.998787042390971
 30
0.0
 11
52.000000000000341
 21
11.998787042390971
 31
0.0
  0
LINE
  5
43FD
  8
241
 10
50.000000000000341
 20
14.250000000000229
 30
0.0
 11
53.000000000000341
 21
14.250000000000229
 31
0.0
  0
LINE
  5
43FE
  8
241
 10
50.000000000000341
 20
16.284723438033382
 30
0.0
 11
52.000000000000341
 21
16.284723438033382
 31
0.0
  0
LINE
  5
43FF
  8
241
 10
50.000000000000341
 20
18.180290095256169
 30
0.0
 11
53.000000000000291
 21
18.180290095256169
 31
0.0
  0
LINE
  5
4400
  8
241
 10
50.000000000000277
 20
19.92335806534129
 30
0.0
 11
52.000000000000277
 21
19.92335806534129
 31
0.0
  0
LINE
  5
4401
  8
241
 10
50.000000000000277
 20
21.832266628891031
 30
0.0
 11
53.000000000000291
 21
21.832266628891031
 31
0.0
  0
LINE
  5
4402
  8
241
 10
50.000000000000227
 20
23.34583326223645
 30
0.0
 11
52.000000000000277
 21
23.34583326223645
 31
0.0
  0
LINE
  5
4403
  8
241
 10
50.000000000000227
 20
24.681724007856701
 30
0.0
 11
53.00000000000022
 21
24.681724007856701
 31
0.0
  0
LINE
  5
4404
  8
241
 10
50.000000000000227
 20
25.82977193054472
 30
0.0
 11
52.000000000000227
 21
25.82977193054472
 31
0.0
  0
LINE
  5
4405
  8
241
 10
50.000000000000227
 20
26.679328989891701
 30
0.0
 11
53.00000000000022
 21
26.679328989891701
 31
0.0
  0
LINE
  5
4406
  8
241
 10
50.000000000000227
 20
27.319773231159221
 30
0.0
 11
52.000000000000227
 21
27.319773231159221
 31
0.0
  0
LINE
  5
4407
  8
241
 10
50.000000000000227
 20
28.06702096084814
 30
0.0
 11
53.00000000000022
 21
28.06702096084814
 31
0.0
  0
LINE
  5
440F
  8
240
 10
89.000000000000668
 20
-14.49999999999997
 30
0.0
 11
89.500000000000682
 21
-14.99999999999997
 31
0.0
  0
LINE
  5
4410
  8
240
 10
89.000000000000668
 20
14.5
 30
0.0
 11
89.500000000000682
 21
15.0
 31
0.0
  0
ARC
  5
4411
  8
240
 10
85.500000000000682
 20
-14.0
 30
0.0
 40
1.0
 50
90.0
 51
180.0
  0
LINE
  5
4412
  8
240
 10
85.500000000000682
 20
-13.0
 30
0.0
 11
89.000000000000668
 21
-13.0
 31
0.0
  0
ARC
  5
4413
  8
240
 10
85.500000000000682
 20
14.00000000000003
 30
0.0
 40
1.0
 50
180.0
 51
270.0
  0
LINE
  5
4414
  8
240
 10
85.500000000000682
 20
13.00000000000003
 30
0.0
 11
89.000000000000668
 21
13.00000000000003
 31
0.0
  0
LINE
  5
4415
  8
240
 10
89.500000000000568
 20
16.70000000000001
 30
0.0
 11
89.500000000000568
 21
14.99999999999997
 31
0.0
  0
ARC
  5
4416
  8
240
 10
90.300000000000637
 20
16.70000000000001
 30
0.0
 40
0.799999999999983
 50
90.0
 51
180.0
  0
LINE
  5
4417
  8
240
 10
89.500000000000568
 20
-16.69999999999996
 30
0.0
 11
89.500000000000568
 21
-14.99999999999994
 31
0.0
  0
ARC
  5
4418
  8
240
 10
90.300000000000637
 20
-16.69999999999996
 30
0.0
 40
0.8000000000000113
 50
180.0
 51
270.0
  0
LINE
  5
4419
  8
240
 10
90.300000000000637
 20
17.5
 30
0.0
 11
103.41862915010211
 21
17.5
 31
0.0
  0
ARC
  5
441A
  8
240
 10
103.41862915010211
 20
16.70000000000001
 30
0.0
 40
0.7999999999999984
 50
45.0
 51
90.0
  0
LINE
  5
441B
  8
240
 10
90.300000000000637
 20
-17.499999999999972
 30
0.0
 11
103.41862915010211
 21
-17.500000000000028
 31
0.0
  0
ARC
  5
441C
  8
240
 10
103.41862915010211
 20
-16.70000000000001
 30
0.0
 40
0.7999999999999972
 50
270.0
 51
314.99999999999773
  0
LINE
  5
441D
  8
240
 10
104.7949747468312
 20
16.455025253169421
 30
0.0
 11
103.9843145750513
 21
17.26568542494925
 31
0.0
  0
ARC
  5
441E
  8
240
 10
104.30000000000059
 20
15.960050506338829
 30
0.0
 40
0.7000000000000171
 50
0.0
 51
45.000000000002302
  0
LINE
  5
441F
  8
240
 10
105.0000000000007
 20
15.960050506338829
 30
0.0
 11
105.0000000000007
 21
-15.960050506338829
 31
0.0
  0
LINE
  5
4420
  8
240
 10
103.9843145750513
 20
-17.26568542494925
 30
0.0
 11
104.7949747468312
 21
-16.455025253169421
 31
0.0
  0
ARC
  5
4421
  8
240
 10
104.30000000000059
 20
-15.960050506338829
 30
0.0
 40
0.7000000000000137
 50
315.0
 51
0.0
  0
LINE
  5
4422
  8
240
 10
89.000000000000668
 20
-14.49999999999997
 30
0.0
 11
89.000000000000668
 21
-13.0
 31
0.0
  0
LINE
  5
4423
  8
240
 10
89.000000000000668
 20
14.5
 30
0.0
 11
89.000000000000668
 21
13.00000000000003
 31
0.0
  0
LINE
  5
4424
  8
241
 10
89.500000000000568
 20
14.99999999999997
 30
0.0
 11
89.500000000000682
 21
0.0
 31
0.0
  0
LINE
  5
4425
  8
241
 10
89.500000000000568
 20
-14.99999999999994
 30
0.0
 11
89.500000000000682
 21
0.0000000000000284
 31
0.0
  0
LINE
  5
4426
  8
241
 10
86.500000000000668
 20
12.50000000000003
 30
0.0
 11
86.500000000000668
 21
0.0000000000000284
 31
0.0
  0
LINE
  5
4427
  8
241
 10
86.500000000000668
 20
-12.5
 30
0.0
 11
86.500000000000668
 21
0.0
 31
0.0
  0
LINE
  5
4428
  8
241
 10
90.300000000000637
 20
17.5
 30
0.0
 11
90.300000000000637
 21
16.056144924913578
 31
0.0
  0
LINE
  5
4429
  8
241
 10
90.300000000000637
 20
14.05614492491361
 30
0.0
 11
90.300000000000637
 21
2.0
 31
0.0
  0
LINE
  5
442A
  8
241
 10
90.300000000000637
 20
-1.9999999999999709
 30
0.0
 11
90.300000000000637
 21
-14.05614492491355
 31
0.0
  0
LINE
  5
442B
  8
241
 10
90.300000000000637
 20
-16.05614492491355
 30
0.0
 11
90.300000000000637
 21
-17.499999999999972
 31
0.0
  0
LINE
  5
442C
  8
241
 10
103.41862915010211
 20
17.000946073793749
 30
0.0
 11
103.41862915010211
 21
-17.152317880794701
 31
0.0
  0
LINE
  5
442D
  8
241
 10
84.500000000000682
 20
14.00000000000003
 30
0.0
 11
84.500000000000682
 21
0.0000000000000284
 31
0.0
  0
LINE
  5
442E
  8
241
 10
84.500000000000682
 20
-14.0
 30
0.0
 11
84.500000000000682
 21
0.0
 31
0.0
  0
LINE
  5
442F
  8
241
 10
89.000000000000668
 20
-13.0
 30
0.0
 11
89.000000000000668
 21
0.0000000000000284
 31
0.0
  0
LINE
  5
4430
  8
241
 10
89.000000000000668
 20
13.00000000000003
 30
0.0
 11
89.000000000000668
 21
0.0
 31
0.0
  0
LINE
  5
4431
  8
241
 10
98.500000000000682
 20
2.0
 30
0.0
 11
89.500000000000568
 21
2.0
 31
0.0
  0
LINE
  5
4432
  8
241
 10
98.500000000000682
 20
-1.9999999999999709
 30
0.0
 11
89.500000000000568
 21
-1.9999999999999709
 31
0.0
  0
LINE
  5
4433
  8
241
 10
98.500000000000682
 20
2.0
 30
0.0
 11
98.500000000000682
 21
0.0
 31
0.0
  0
LINE
  5
4434
  8
241
 10
98.500000000000682
 20
-1.9999999999999709
 30
0.0
 11
98.500000000000682
 21
0.0000000000000284
 31
0.0
  0
LINE
  5
4435
  8
241
 10
98.500000000000682
 20
-14.05614492491355
 30
0.0
 11
89.500000000000568
 21
-14.05614492491355
 31
0.0
  0
LINE
  5
4436
  8
241
 10
98.500000000000682
 20
-16.05614492491355
 30
0.0
 11
89.500000000000568
 21
-16.05614492491355
 31
0.0
  0
LINE
  5
4437
  8
241
 10
98.500000000000682
 20
-16.05614492491355
 30
0.0
 11
98.500000000000682
 21
-14.05614492491355
 31
0.0
  0
LINE
  5
4438
  8
241
 10
98.500000000000682
 20
16.056144924913578
 30
0.0
 11
89.500000000000568
 21
16.056144924913578
 31
0.0
  0
LINE
  5
4439
  8
241
 10
98.500000000000682
 20
14.05614492491361
 30
0.0
 11
89.500000000000568
 21
14.05614492491361
 31
0.0
  0
LINE
  5
443A
  8
241
 10
98.500000000000682
 20
16.056144924913578
 30
0.0
 11
98.500000000000682
 21
14.05614492491361
 31
0.0
  0
LINE
  5
443B
  8
242
 10
86.500000000000668
 20
12.50000000000003
 30
0.0
 11
86.000000000000682
 21
13.00000000000003
 31
0.0
  0
LINE
  5
443C
  8
242
 10
86.500000000000668
 20
-12.5
 30
0.0
 11
86.000000000000682
 21
-13.0
 31
0.0
  0
LINE
  5
443D
  8
242
 10
89.000000000000668
 20
12.50000000000003
 30
0.0
 11
86.500000000000668
 21
12.50000000000003
 31
0.0
  0
LINE
  5
443E
  8
242
 10
89.000000000000668
 20
-12.49999999999997
 30
0.0
 11
86.500000000000668
 21
-12.49999999999997
 31
0.0
  0
LINE
  5
443F
  8
246
 10
101.80000000000059
 20
10.25000000000003
 30
0.0
 11
102.0000000000007
 21
10.25000000000003
 31
0.0
  0
LINE
  5
4440
  8
246
 10
102.0000000000007
 20
10.25000000000003
 30
0.0
 11
105.0000000000007
 21
8.5179491924311606
 31
0.0
  0
LINE
  5
4441
  8
246
 10
99.400000000000674
 20
8.7500000000000284
 30
0.0
 11
101.80000000000059
 21
8.7500000000000284
 31
0.0
  0
LINE
  5
4442
  8
246
 10
101.80000000000059
 20
8.7500000000000284
 30
0.0
 11
101.80000000000059
 21
10.25000000000003
 31
0.0
  0
LINE
  5
4443
  8
246
 10
99.400000000000674
 20
10.25000000000003
 30
0.0
 11
99.400000000000674
 21
8.7500000000000284
 31
0.0
  0
LINE
  5
4444
  8
246
 10
99.400000000000674
 20
10.25000000000003
 30
0.0
 11
74.000000000000654
 21
7.5803524242518563
 31
0.0
  0
LINE
  5
4445
  8
246
 10
74.000000000000654
 20
6.5000000000000284
 30
0.0
 11
105.0000000000007
 21
6.5000000000000284
 31
0.0
  0
LINE
  5
4446
  8
246
 10
101.80000000000059
 20
-10.25
 30
0.0
 11
102.0000000000007
 21
-10.25
 31
0.0
  0
LINE
  5
4447
  8
246
 10
99.400000000000674
 20
-10.25
 30
0.0
 11
74.000000000000654
 21
-7.5803524242517986
 31
0.0
  0
LINE
  5
4448
  8
246
 10
99.400000000000674
 20
-10.25
 30
0.0
 11
99.400000000000674
 21
-8.75
 31
0.0
  0
LINE
  5
4449
  8
246
 10
99.400000000000674
 20
-8.75
 30
0.0
 11
101.80000000000059
 21
-8.75
 31
0.0
  0
LINE
  5
444A
  8
246
 10
101.80000000000059
 20
-8.75
 30
0.0
 11
101.80000000000059
 21
-10.25
 31
0.0
  0
LINE
  5
444B
  8
246
 10
102.0000000000007
 20
-10.25
 30
0.0
 11
105.0000000000007
 21
-8.5179491924311037
 31
0.0
  0
LINE
  5
444C
  8
246
 10
74.000000000000654
 20
-6.5
 30
0.0
 11
105.0000000000007
 21
-6.5
 31
0.0
  0
LINE
  5
444D
  8
243
 10
89.000000000000668
 20
-13.0
 30
0.0
 11
96.500000000000696
 21
-12.99999999999997
 31
0.0
  0
LINE
  5
444E
  8
243
 10
97.000000000000682
 20
-12.49999999999997
 30
0.0
 11
96.500000000000696
 21
-12.99999999999997
 31
0.0
  0
LINE
  5
444F
  8
243
 10
89.000000000000668
 20
13.00000000000003
 30
0.0
 11
96.500000000000696
 21
13.00000000000003
 31
0.0
  0
LINE
  5
4450
  8
243
 10
97.000000000000682
 20
12.50000000000003
 30
0.0
 11
96.500000000000696
 21
13.00000000000003
 31
0.0
  0
LINE
  5
4455
  8
246
 10
60.511944380561353
 20
6.0000000000000284
 30
0.0
 11
56.821345457319829
 21
2.3094010767585469
 31
0.0
  0
LINE
  5
4456
  8
246
 10
60.511944380561353
 20
-6.0
 30
0.0
 11
56.821345457319829
 21
-2.309401076758518
 31
0.0
  0
LINE
  5
4457
  8
246
 10
52.910661854796821
 20
-2.309401076758518
 30
0.0
 11
56.821345457319829
 21
-2.309401076758518
 31
0.0
  0
LINE
  5
4458
  8
246
 10
52.910661854796821
 20
-1.154700538379273
 30
0.0
 11
56.821345457319829
 21
-1.154700538379273
 31
0.0
  0
LINE
  5
4459
  8
246
 10
52.910661854796821
 20
1.1547005383793021
 30
0.0
 11
56.821345457319829
 21
1.1547005383793021
 31
0.0
  0
LINE
  5
445A
  8
246
 10
52.511944380561353
 20
3.000000000000028
 30
0.0
 11
52.511944380561353
 21
1.772515030365923
 31
0.0
  0
LINE
  5
445B
  8
246
 10
52.910661854796821
 20
2.3094010767585469
 30
0.0
 11
52.511944380561289
 21
3.000000000000028
 31
0.0
  0
LINE
  5
445C
  8
246
 10
52.910661854796821
 20
-2.309401076758518
 30
0.0
 11
52.511944380561289
 21
-3.0
 31
0.0
  0
LINE
  5
445D
  8
246
 10
52.511944380561353
 20
-3.0
 30
0.0
 11
52.511944380561353
 21
-1.7725150303658941
 31
0.0
  0
LINE
  5
445E
  8
246
 10
41.511944380561339
 20
-6.25
 30
0.0
 11
45.511944380561353
 21
-6.25
 31
0.0
  0
LINE
  5
445F
  8
246
 10
45.511944380561353
 20
-6.25
 30
0.0
 11
46.261944380561339
 21
-7.0
 31
0.0
  0
ARC
  5
4460
  8
246
 10
41.511944380561339
 20
5.2500000000000284
 30
0.0
 40
1.0
 50
90.0
 51
180.0
  0
LINE
  5
4461
  8
246
 10
41.511944380561339
 20
6.2500000000000284
 30
0.0
 11
45.511944380561353
 21
6.2500000000000284
 31
0.0
  0
LINE
  5
4462
  8
246
 10
45.511944380561353
 20
6.2500000000000284
 30
0.0
 11
46.261944380561339
 21
7.0000000000000284
 31
0.0
  0
LINE
  5
4466
  8
246
 10
52.910661854796821
 20
-2.309401076758518
 30
0.0
 11
52.910661854796821
 21
2.3094010767585469
 31
0.0
  0
LINE
  5
4467
  8
246
 10
52.910661854796821
 20
2.3094010767585469
 30
0.0
 11
56.821345457319829
 21
2.3094010767585469
 31
0.0
  0
LINE
  5
4468
  8
246
 10
56.821345457319829
 20
-2.309401076758518
 30
0.0
 11
56.821345457319829
 21
2.3094010767585469
 31
0.0
  0
LINE
  5
446A
  8
246
 10
74.000000000000654
 20
7.5803524242518563
 30
0.0
 11
74.000000000000654
 21
-7.5803524242517986
 31
0.0
  0
LINE
  5
446D
  8
246
 10
59.8119443805613
 20
-7.0
 30
0.0
 11
60.511944380561282
 21
-6.2999999999999821
 31
0.0
  0
LINE
  5
446E
  8
246
 10
60.511944380561282
 20
6.3000000000000389
 30
0.0
 11
60.511944380561282
 21
-6.2999999999999821
 31
0.0
  0
LINE
  5
446F
  8
246
 10
60.511944380561282
 20
6.3000000000000389
 30
0.0
 11
59.8119443805613
 21
7.0000000000000284
 31
0.0
  0
LINE
  5
4470
  8
246
 10
40.511944380561353
 20
-5.25
 30
0.0
 11
40.511944380561353
 21
5.2500000000000284
 31
0.0
  0
ARC
  5
4471
  8
246
 10
41.511944380561339
 20
-5.25
 30
0.0
 40
1.0
 50
180.0
 51
270.0
  0
LINE
  5
4472
  8
246
 10
52.511944380561353
 20
3.000000000000028
 30
0.0
 11
40.511944380561353
 21
3.000000000000028
 31
0.0
  0
LINE
  5
4473
  8
246
 10
52.511944380561353
 20
-3.0
 30
0.0
 11
40.511944380561353
 21
-3.0
 31
0.0
  0
LINE
  5
4474
  8
246
 10
46.261944380561339
 20
7.0000000000000284
 30
0.0
 11
59.8119443805613
 21
7.0000000000000284
 31
0.0
  0
LINE
  5
4476
  8
246
 10
46.261944380561339
 20
-7.0
 30
0.0
 11
59.8119443805613
 21
-7.0
 31
0.0
  0
LINE
  5
4478
  8
243
 10
97.000000000000682
 20
-12.49999999999997
 30
0.0
 11
97.000000000000682
 21
-9.9977498353623844
 31
0.0
  0
LINE
  5
4479
  8
243
 10
97.000000000000682
 20
12.50000000000003
 30
0.0
 11
97.000000000000682
 21
9.9977498353624128
 31
0.0
  0
LINE
  5
447A
  8
244
 10
89.000000000000668
 20
12.50000000000003
 30
0.0
 11
97.000000000000682
 21
12.50000000000003
 31
0.0
  0
LINE
  5
447B
  8
244
 10
89.000000000000668
 20
-12.49999999999997
 30
0.0
 11
97.000000000000682
 21
-12.49999999999997
 31
0.0
  0
LINE
  5
4480
  8
246
 10
45.911944380561323
 20
6.6500000000000341
 30
0.0
 11
60.161944380561323
 21
6.6500000000000341
 31
0.0
  0
LINE
  5
4482
  8
246
 10
45.911944380561323
 20
-6.6500000000000048
 30
0.0
 11
60.161944380561323
 21
-6.6500000000000048
 31
0.0
  0
LINE
  5
4484
  8
240
 10
84.500000000000796
 20
14.250000000000281
 30
0.0
 11
84.500000000000796
 21
14.000000000000281
 31
0.0
  0
ARC
  5
4485
  8
240
 10
83.500000000000796
 20
14.250000000000281
 30
0.0
 40
1.0
 50
0.0
 51
90.0
1001
GENIUS_GENODEF_13
1002
{
1000
HIER
1070
     0
1002
}
1002
{
1000
MANEDIT
1070
     0
1002
}
1002
{
1000
NOSEL
1070
     0
1002
}
1002
{
1000
BEHIND
1070
     0
1002
}
1002
{
1000
OTHER
1070
     0
1002
}
1002
{
1000
REACTOR
1002
}
1001
GENIUS_GENOBJ-N-FIL_13
1002
{
1000
OWNER
1000
GEN
1002
}
  0
LINE
  5
4486
  8
240
 10
84.500000000000796
 20
-14.24999999999971
 30
0.0
 11
84.500000000000796
 21
-13.999999999999741
 31
0.0
  0
ARC
  5
4487
  8
240
 10
83.500000000000796
 20
-14.24999999999971
 30
0.0
 40
1.0
 50
270.0
 51
0.0
1001
GENIUS_GENODEF_13
1002
{
1000
HIER
1070
     0
1002
}
1002
{
1000
MANEDIT
1070
     0
1002
}
1002
{
1000
NOSEL
1070
     0
1002
}
1002
{
1000
BEHIND
1070
     0
1002
}
1002
{
1000
OTHER
1070
     0
1002
}
1002
{
1000
REACTOR
1002
}
1001
GENIUS_GENOBJ-N-FIL_13
1002
{
1000
OWNER
1000
GEN
1002
}
  0
LINE
  5
4488
  8
241
 10
83.500000000000796
 20
15.250000000000281
 30
0.0
 11
83.500000000000796
 21
11.79823369687608
 31
0.0
  0
LINE
  5
4489
  8
241
 10
83.500000000000796
 20
-12.02341248627291
 30
0.0
 11
83.500000000000796
 21
-15.24999999999971
 31
0.0
  0
LINE
  5
4553
  8
240
 10
0.0
 20
-34.925000000000352
 30
0.0
 11
1.4999999999984079
 21
-34.925000000000352
 31
0.0
  0
LINE
  5
4554
  8
240
 10
0.0
 20
34.92499999999967
 30
0.0
 11
1.4999999999992359
 21
34.92499999999967
 31
0.0
  0
TEXT
  5
45A5
  8
241
 10
-77.0
 20
84.000000000000412
 30
0.0
 40
5.0
  1
BBT50-NBS13-105NRA
  7
YOKO
 11
-77.0
 21
84.000000000000412
 31
0.0
 73
     1
  0
LINE
  5
460A
  8
250
 10
0.0
 20
35.42499999999967
 30
0.0
 11
0.0000000000000018
 21
64.0
 31
0.0
  0
LINE
  5
460B
  8
250
 10
66.500000000002743
 20
23.171572875247769
 30
0.0
 11
66.500000000002743
 21
64.0
 31
0.0
  0
LINE
  5
460C
  8
250
 10
2.2300000000000009
 20
63.0
 30
0.0
 11
64.270000000002739
 21
63.0
 31
0.0
  0
LINE
  5
4611
  8
250
 10
66.500000000002743
 20
23.171572875247769
 30
0.0
 11
66.500000000002743
 21
64.0
 31
0.0
  0
LINE
  5
4612
  8
250
 10
105.0000000000024
 20
16.460050506328681
 30
0.0
 11
105.0000000000024
 21
64.0
 31
0.0
  0
LINE
  5
4613
  8
250
 10
68.730000000002747
 20
63.0
 30
0.0
 11
102.7700000000024
 21
63.0
 31
0.0
  0
LINE
  5
4617
  8
250
 10
0.0000000000028494
 20
35.425000000001219
 30
0.0
 11
0.0000000000028516
 21
71.0
 31
0.0
  0
LINE
  5
4618
  8
250
 10
105.0000000000024
 20
16.460050506328681
 30
0.0
 11
105.0000000000024
 21
71.0
 31
0.0
  0
LINE
  5
4619
  8
250
 10
2.230000000002851
 20
70.0
 30
0.0
 11
102.7700000000024
 21
70.0
 31
0.0
  0
LINE
  5
461D
  8
250
 10
119.0000000000007
 20
-4.270000000000004
 30
0.0
 11
119.0000000000007
 21
4.2700000000000244
 31
0.0
  0
LINE
  5
4621
  8
250
 10
103.91862915010211
 20
-17.5
 30
0.0
 11
127.0000000000007
 21
-17.500000000000011
 31
0.0
  0
LINE
  5
4622
  8
250
 10
103.91862915010211
 20
17.5
 30
0.0
 11
127.0000000000007
 21
17.499999999999989
 31
0.0
  0
LINE
  5
4623
  8
250
 10
126.0000000000007
 20
-15.27000000000001
 30
0.0
 11
126.0000000000007
 21
15.269999999999991
 31
0.0
  0
LINE
  5
4627
  8
250
 10
60.511944380560713
 20
-6.5000000000054641
 30
0.0
 11
60.511944380560713
 21
-57.000000000009798
 31
0.0
  0
LINE
  5
4628
  8
250
 10
104.99999999999901
 20
-16.460050506348981
 30
0.0
 11
104.99999999999901
 21
-57.000000000009798
 31
0.0
  0
LINE
  5
4629
  8
250
 10
62.74194438056071
 20
-56.000000000009813
 30
0.0
 11
102.769999999999
 21
-56.000000000009813
 31
0.0
  0
TEXT
  5
462D
  8
250
 10
75.241686475994129
 20
-55.000000000009798
 30
0.0
 40
3.0
  1
41ü`60
  0
LINE
  5
462E
  8
250
 10
102.769999999999
 20
-55.628333333343143
 30
0.0
 11
104.99999999999901
 21
-56.000000000009813
 31
0.0
  0
LINE
  5
462F
  8
250
 10
102.769999999999
 20
-56.371666666676468
 30
0.0
 11
104.99999999999901
 21
-56.000000000009813
 31
0.0
  0
LINE
  5
4630
  8
250
 10
104.99999999999901
 20
-56.000000000009813
 30
0.0
 11
102.769999999999
 21
-56.000000000009813
 31
0.0
  0
LINE
  5
4631
  8
250
 10
62.74194438056071
 20
-56.371666666676468
 30
0.0
 11
60.511944380560713
 21
-56.000000000009813
 31
0.0
  0
LINE
  5
4632
  8
250
 10
62.74194438056071
 20
-55.628333333343143
 30
0.0
 11
60.511944380560713
 21
-56.000000000009813
 31
0.0
  0
LINE
  5
4633
  8
250
 10
60.511944380560713
 20
-56.000000000009813
 30
0.0
 11
62.74194438056071
 21
-56.000000000009813
 31
0.0
  0
TEXT
  5
4634
  8
250
 10
118.0000000000007
 20
-9.4285714285713933
 30
0.0
 40
3.0
  1
MAX.\U+220513
 50
90.0
  0
LINE
  5
4635
  8
250
 10
118.628333333334
 20
4.2700000000000244
 30
0.0
 11
119.0000000000007
 21
6.5000000000000231
 31
0.0
  0
LINE
  5
4636
  8
250
 10
119.37166666666729
 20
4.2700000000000244
 30
0.0
 11
119.0000000000007
 21
6.5000000000000231
 31
0.0
  0
LINE
  5
4637
  8
250
 10
119.0000000000007
 20
6.5000000000000231
 30
0.0
 11
119.0000000000007
 21
4.2700000000000244
 31
0.0
  0
LINE
  5
4638
  8
250
 10
119.37166666666729
 20
-4.270000000000004
 30
0.0
 11
119.0000000000007
 21
-6.5000000000000044
 31
0.0
  0
LINE
  5
4639
  8
250
 10
118.628333333334
 20
-4.270000000000004
 30
0.0
 11
119.0000000000007
 21
-6.5000000000000044
 31
0.0
  0
LINE
  5
463A
  8
250
 10
119.0000000000007
 20
-6.5000000000000044
 30
0.0
 11
119.0000000000007
 21
-4.270000000000004
 31
0.0
  0
TEXT
  5
463B
  8
250
 10
125.0000000000007
 20
-4.2142857142857011
 30
0.0
 40
3.0
  1
\U+220535
 50
90.0
  0
LINE
  5
463C
  8
250
 10
125.628333333334
 20
15.269999999999991
 30
0.0
 11
126.0000000000007
 21
17.499999999999989
 31
0.0
  0
LINE
  5
463D
  8
250
 10
126.37166666666729
 20
15.269999999999991
 30
0.0
 11
126.0000000000007
 21
17.499999999999989
 31
0.0
  0
LINE
  5
463E
  8
250
 10
126.0000000000007
 20
17.499999999999989
 30
0.0
 11
126.0000000000007
 21
15.269999999999991
 31
0.0
  0
LINE
  5
463F
  8
250
 10
126.37166666666729
 20
-15.27000000000001
 30
0.0
 11
126.0000000000007
 21
-17.500000000000011
 31
0.0
  0
LINE
  5
4640
  8
250
 10
125.628333333334
 20
-15.27000000000001
 30
0.0
 11
126.0000000000007
 21
-17.500000000000011
 31
0.0
  0
LINE
  5
4641
  8
250
 10
126.0000000000007
 20
-17.500000000000011
 30
0.0
 11
126.0000000000007
 21
-15.27000000000001
 31
0.0
  0
TEXT
  5
4642
  8
250
 10
28.516666666668041
 20
64.000000000000014
 30
0.0
 40
2.7999999999999989
  1
66.5
  0
LINE
  5
4643
  8
250
 10
64.270000000002739
 20
63.37166666666667
 30
0.0
 11
66.500000000002743
 21
63.0
 31
0.0
  0
LINE
  5
4644
  8
250
 10
64.270000000002739
 20
62.62833333333333
 30
0.0
 11
66.500000000002743
 21
63.0
 31
0.0
  0
LINE
  5
4645
  8
250
 10
66.500000000002743
 20
63.0
 30
0.0
 11
64.270000000002739
 21
63.0
 31
0.0
  0
LINE
  5
4646
  8
250
 10
2.2300000000000009
 20
62.62833333333333
 30
0.0
 11
0.0000000000000017
 21
63.0
 31
0.0
  0
LINE
  5
4647
  8
250
 10
2.2300000000000009
 20
63.37166666666667
 30
0.0
 11
0.0000000000000017
 21
63.0
 31
0.0
  0
LINE
  5
4648
  8
250
 10
0.0000000000000017
 20
63.0
 30
0.0
 11
2.2300000000000009
 21
63.0
 31
0.0
  0
TEXT
  5
4649
  8
250
 10
81.083333333335887
 20
64.000000000000014
 30
0.0
 40
2.7999999999999989
  1
38.5
  0
LINE
  5
464A
  8
250
 10
102.7700000000024
 20
63.37166666666667
 30
0.0
 11
105.0000000000024
 21
63.0
 31
0.0
  0
LINE
  5
464B
  8
250
 10
102.7700000000024
 20
62.62833333333333
 30
0.0
 11
105.0000000000024
 21
63.0
 31
0.0
  0
LINE
  5
464C
  8
250
 10
105.0000000000024
 20
63.0
 30
0.0
 11
102.7700000000024
 21
63.0
 31
0.0
  0
LINE
  5
464D
  8
250
 10
68.730000000002747
 20
62.62833333333333
 30
0.0
 11
66.500000000002743
 21
63.0
 31
0.0
  0
LINE
  5
464E
  8
250
 10
68.730000000002747
 20
63.37166666666667
 30
0.0
 11
66.500000000002743
 21
63.0
 31
0.0
  0
LINE
  5
464F
  8
250
 10
66.500000000002743
 20
63.0
 30
0.0
 11
68.730000000002747
 21
63.0
 31
0.0
  0
TEXT
  5
4650
  8
250
 10
48.300000000002612
 20
71.000000000000014
 30
0.0
 40
2.7999999999999989
  1
105
  0
LINE
  5
4651
  8
250
 10
102.7700000000024
 20
70.37166666666667
 30
0.0
 11
105.0000000000024
 21
70.0
 31
0.0
  0
LINE
  5
4652
  8
250
 10
102.7700000000024
 20
69.62833333333333
 30
0.0
 11
105.0000000000024
 21
70.0
 31
0.0
  0
LINE
  5
4653
  8
250
 10
105.0000000000024
 20
70.0
 30
0.0
 11
102.7700000000024
 21
70.0
 31
0.0
  0
LINE
  5
4654
  8
250
 10
2.230000000002851
 20
69.62833333333333
 30
0.0
 11
0.0000000000028515
 21
70.0
 31
0.0
  0
LINE
  5
4655
  8
250
 10
2.230000000002851
 20
70.37166666666667
 30
0.0
 11
0.0000000000028515
 21
70.0
 31
0.0
  0
LINE
  5
4656
  8
250
 10
0.0000000000028515
 20
70.0
 30
0.0
 11
2.230000000002851
 21
70.0
 31
0.0
  0
VIEWPORT
  5
22
 67
     1
  8
0
 10
261.51769911504419
 20
148.5
 30
0.0
 40
523.0353982300885
 41
297.0
 68
     1
 69
     1
1001
ACAD
1000
MVIEW
1002
{
1070
    16
1010
0.0
1020
0.0
1030
0.0
1010
0.0
1020
0.0
1030
1.0
1040
0.0
1040
297.0
1040
261.51769911504419
1040
148.5
1040
50.0
1040
0.0
1040
0.0
1070
     0
1070
   100
1070
     1
1070
     1
1070
     0
1070
     0
1070
     0
1070
     0
1040
0.0
1040
0.0
1040
0.0
1040
1.0
1040
1.0
1040
10.0
1040
10.0
1070
     0
1002
{
1002
}
1002
}
1001
GENIUS_GENODEF_13
1002
{
1000
HIER
1070
     0
1002
}
1002
{
1000
MANEDIT
1070
     0
1002
}
1002
{
1000
NOSEL
1070
     0
1002
}
1002
{
1000
BEHIND
1070
     0
1002
}
1002
{
1000
OTHER
1070
     0
1002
}
1002
{
1000
REACTOR
1002
}
1001
GENIUS_GENOBJ-N-SDF_13
1002
{
1000
OWNER
1000
GEN
1002
}
1001
GENIUS_GENSCREG_15
1000
PF
1040
1.0
1000
DF
1040
1.0
1000
MIN
1011
0.0
1021
0.0
1031
0.0
1021
0.0
1031
0.0
1000
MAX
1011
523.0353982300885
1021
0.0
1031
0.0
1021
297.0
1031
0.0
1000
FLAGS
1070
     4
  0
ENDSEC
  0
EOF
