  0
SECTION
  2
HEADER
  9
$ACADVER
  1
AC1009
  9
$INSBASE
 10
0.0
 20
0.0
 30
0.0
  9
$EXTMIN
 10
-106.9259560195256
 20
-50.269238815543247
 30
0.0
  9
$EXTMAX
 10
148.0
 20
89.0
 30
0.0
  9
$LIMMIN
 10
0.0
 20
0.0
  9
$LIMMAX
 10
297.0
 20
210.0
  9
$ORTHOMODE
 70
     1
  9
$REGENMODE
 70
     1
  9
$FILLMODE
 70
     1
  9
$QTEXTMODE
 70
     0
  9
$MIRRTEXT
 70
     1
  9
$DRAGMODE
 70
     2
  9
$LTSCALE
 40
10.0
  9
$OSMODE
 70
  3071
  9
$ATTMODE
 70
     1
  9
$TEXTSIZE
 40
3.0
  9
$TRACEWID
 40
1.0
  9
$TEXTSTYLE
  7
YOKO
  9
$CLAYER
  8
240
  9
$CELTYPE
  6
BYLAYER
  9
$CECOLOR
 62
   256
  9
$DIMSCALE
 40
1.0
  9
$DIMASZ
 40
2.2299999999999991
  9
$DIMEXO
 40
0.5
  9
$DIMDLI
 40
7.0
  9
$DIMRND
 40
0.0
  9
$DIMDLE
 40
0.0
  9
$DIMEXE
 40
1.0
  9
$DIMTP
 40
0.0
  9
$DIMTM
 40
0.01
  9
$DIMTXT
 40
2.7999999999999989
  9
$DIMCEN
 40
0.0
  9
$DIMTSZ
 40
0.0
  9
$DIMTOL
 70
     0
  9
$DIMLIM
 70
     0
  9
$DIMTIH
 70
     0
  9
$DIMTOH
 70
     0
  9
$DIMSE1
 70
     0
  9
$DIMSE2
 70
     0
  9
$DIMTAD
 70
     3
  9
$DIMZIN
 70
     9
  9
$DIMBLK
  1
OPEN
  9
$DIMASO
 70
     1
  9
$DIMSHO
 70
     1
  9
$DIMPOST
  1

  9
$DIMAPOST
  1

  9
$DIMALT
 70
     0
  9
$DIMALTD
 70
     2
  9
$DIMALTF
 40
25.399999999999999
  9
$DIMLFAC
 40
1.0
  9
$DIMTOFL
 70
     1
  9
$DIMTVP
 40
0.0
  9
$DIMTIX
 70
     1
  9
$DIMSOXD
 70
     0
  9
$DIMSAH
 70
     0
  9
$DIMBLK1
  1

  9
$DIMBLK2
  1

  9
$DIMSTYLE
  2
BIGT
  9
$DIMCLRD
 70
   256
  9
$DIMCLRE
 70
   256
  9
$DIMCLRT
 70
    40
  9
$DIMTFAC
 40
1.0
  9
$DIMGAP
 40
1.0
  9
$LUNITS
 70
     2
  9
$LUPREC
 70
     3
  9
$SKETCHINC
 40
1.0
  9
$FILLETRAD
 40
0.0
  9
$AUNITS
 70
     0
  9
$AUPREC
 70
     3
  9
$MENU
  1
.
  9
$ELEVATION
 40
0.0
  9
$PELEVATION
 40
0.0
  9
$THICKNESS
 40
0.0
  9
$LIMCHECK
 70
     0
  9
$BLIPMODE
 70
     0
  9
$CHAMFERA
 40
0.25
  9
$CHAMFERB
 40
0.25
  9
$SKPOLY
 70
     0
  9
$TDCREATE
 40
2455799.5992158451
  9
$TDUPDATE
 40
2455799.6068115048
  9
$TDINDWG
 40
0.007499294
  9
$TDUSRTIMER
 40
0.007499294
  9
$USRTIMER
 70
     1
  9
$ANGBASE
 50
0.0
  9
$ANGDIR
 70
     0
  9
$PDMODE
 70
     1
  9
$PDSIZE
 40
0.0
  9
$PLINEWID
 40
0.0
  9
$COORDS
 70
     0
  9
$SPLFRAME
 70
     0
  9
$SPLINETYPE
 70
     6
  9
$SPLINESEGS
 70
     4
  9
$ATTDIA
 70
     1
  9
$ATTREQ
 70
     1
  9
$HANDLING
 70
     1
  9
$HANDSEED
  5
17ED
  9
$SURFTAB1
 70
     6
  9
$SURFTAB2
 70
     6
  9
$SURFTYPE
 70
     6
  9
$SURFU
 70
     6
  9
$SURFV
 70
     6
  9
$UCSNAME
  2

  9
$UCSORG
 10
0.0
 20
0.0
 30
0.0
  9
$UCSXDIR
 10
1.0
 20
0.0
 30
0.0
  9
$UCSYDIR
 10
0.0
 20
1.0
 30
0.0
  9
$PUCSNAME
  2

  9
$PUCSORG
 10
0.0
 20
0.0
 30
0.0
  9
$PUCSXDIR
 10
1.0
 20
0.0
 30
0.0
  9
$PUCSYDIR
 10
0.0
 20
1.0
 30
0.0
  9
$USERI1
 70
     1
  9
$USERI2
 70
     0
  9
$USERI3
 70
     0
  9
$USERI4
 70
     0
  9
$USERI5
 70
     0
  9
$USERR1
 40
0.0
  9
$USERR2
 40
0.0
  9
$USERR3
 40
0.0
  9
$USERR4
 40
0.0
  9
$USERR5
 40
0.0
  9
$WORLDVIEW
 70
     1
  9
$SHADEDGE
 70
     3
  9
$SHADEDIF
 70
    70
  9
$TILEMODE
 70
     1
  9
$MAXACTVP
 70
    16
  9
$PLIMCHECK
 70
     0
  9
$PEXTMIN
 10
1.0000000000000000E+020
 20
1.0000000000000000E+020
 30
1.0000000000000000E+020
  9
$PEXTMAX
 10
-1.0000000000000000E+020
 20
-1.0000000000000000E+020
 30
-1.0000000000000000E+020
  9
$PLIMMIN
 10
0.0
 20
0.0
  9
$PLIMMAX
 10
420.0
 20
297.0
  9
$UNITMODE
 70
     0
  9
$VISRETAIN
 70
     1
  9
$PLINEGEN
 70
     0
  9
$PSLTSCALE
 70
     1
  0
ENDSEC
  0
SECTION
  2
TABLES
  0
TABLE
  2
VPORT
 70
     3
  0
VPORT
  2
*ACTIVE
 70
     0
 10
0.0
 20
0.0
 11
1.0
 21
1.0
 12
41.219477223681558
 22
16.35704839058711
 13
0.0
 23
0.0
 14
7.0
 24
7.0
 15
7.0
 25
7.0
 16
0.0
 26
0.0
 36
1.0
 17
0.0
 27
0.0
 37
0.0
 40
212.97897785432789
 41
1.5857487922705309
 42
50.0
 43
0.0
 44
0.0
 50
0.0
 51
0.0
 71
     0
 72
  2000
 73
     1
 74
     0
 75
     0
 76
     0
 77
     0
 78
     0
  0
ENDTAB
  0
TABLE
  2
LTYPE
 70
    13
  0
LTYPE
  2
CONTINUOUS
 70
     0
  3
Solid line
 72
    65
 73
     0
 40
0.0
  0
LTYPE
  2
CENTER2
 70
     0
  3
___ _ ___ _ ___ _ ___ _ ___ _ ___ _ ___ _ ___ _
 72
    65
 73
     4
 40
1.125
 49
0.75
 49
-0.125
 49
0.125
 49
-0.125
  0
LTYPE
  2
HIDDEN2
 70
     0
  3
_ _ _ _ _ _ _ _ _ _ _ _ _ _ _ _ _ _ _ _ _ _ _ _
 72
    65
 73
     2
 40
0.1875
 49
0.125
 49
-0.0625
  0
LTYPE
  2
PHANTOM2
 70
     0
  3
___ _ _ ___ _ _ ___ _ _ ___ _ _ ___ _ _ ___ _ _
 72
    65
 73
     6
 40
1.25
 49
0.625
 49
-0.125
 49
0.125
 49
-0.125
 49
0.125
 49
-0.125
  0
LTYPE
  2
CENTER
 70
     0
  3
____ _ ____ _ ____ _ ____ _ ____ _ ____ _ ____ 
 72
    65
 73
     4
 40
2.0
 49
1.25
 49
-0.25
 49
0.25
 49
-0.25
  0
LTYPE
  2
AM_ISO02W050
 70
     0
  3
__ __ __ __ __ __ __ __ __ __ __ __ __ __ __
 72
    65
 73
     2
 40
7.5
 49
6.0
 49
-1.5
  0
LTYPE
  2
AMCONSTR
 70
     0
  3
_______________________
 72
    65
 73
     2
 40
9999.0
 49
9999.0
 49
0.0
  0
LTYPE
  2
ACISOWELD
 70
     0
  3
_ _ _ _ _
 72
    65
 73
     2
 40
2.0
 49
2.0
 49
-1.0
  0
LTYPE
  2
ACISOTGB
 70
     0
  3
__ . . __ . .
 72
    65
 73
     6
 40
9.0
 49
4.0
 49
-1.0
 49
1.0
 49
-1.0
 49
1.0
 49
-1.0
  0
LTYPE
  2
ACISOTGL
 70
     0
  3
_ _ _ _ _
 72
    65
 73
     2
 40
3.0
 49
2.0
 49
-1.0
  0
LTYPE
  2
ACJISTGB
 70
     0
  3
__ . . __ . .
 72
    65
 73
     6
 40
9.0
 49
4.0
 49
-1.0
 49
1.0
 49
-1.0
 49
1.0
 49
-1.0
  0
LTYPE
  2
ACJISTGL
 70
     0
  3
_ _ _ _ _
 72
    65
 73
     2
 40
3.0
 49
2.0
 49
-1.0
  0
LTYPE
  2
HIDDEN
 70
     0
  3
Hidden __ __ __ __ __ __ __ __ __ __ __ __ __ _
 72
    65
 73
     2
 40
9.5249999999999986
 49
6.3499999999999988
 49
-3.1749999999999989
  0
ENDTAB
  0
TABLE
  2
LAYER
 70
     7
  0
LAYER
  2
0
 70
     0
 62
     7
  6
CONTINUOUS
  0
LAYER
  2
DEFPOINTS
 70
     0
 62
     7
  6
CONTINUOUS
  0
LAYER
  2
245
 70
     0
 62
     2
  6
CENTER2
  0
LAYER
  2
240
 70
     0
 62
     4
  6
CONTINUOUS
  0
LAYER
  2
241
 70
     0
 62
   211
  6
CONTINUOUS
  0
LAYER
  2
243
 70
     0
 62
   211
  6
HIDDEN2
  0
LAYER
  2
250
 70
     0
 62
     3
  6
CONTINUOUS
  0
ENDTAB
  0
TABLE
  2
STYLE
 70
     6
  0
STYLE
  2
STANDARD
 70
     0
 40
0.0
 41
1.0
 50
0.0
 71
     0
 42
3.0
  3
romans.shx
  4
extfont.shx
  0
STYLE
  2
ACISOTS
 70
     0
 40
1.0
 41
1.0
 50
0.0
 71
     0
 42
3.0
  3
amgdt.shx
  4
extfont.shx
  0
STYLE
  2
ACISOGDT
 70
     0
 40
0.0
 41
1.0
 50
0.0
 71
     0
 42
3.0
  3
amgdt.shx
  4
extfont.shx
  0
STYLE
  2
ACJISTS
 70
     0
 40
1.0
 41
1.0
 50
0.0
 71
     0
 42
3.0
  3
amgdt.shx
  4
extfont.shx
  0
STYLE
  2
ACJISGDT
 70
     0
 40
0.0
 41
1.0
 50
0.0
 71
     0
 42
3.0
  3
amgdt.shx
  4
extfont.shx
  0
STYLE
  2
YOKO
 70
     0
 40
0.0
 41
1.0
 50
0.0
 71
     0
 42
3.0
  3
romans.shx
  4
extfont.shx
  0
ENDTAB
  0
TABLE
  2
VIEW
 70
     0
  0
ENDTAB
  0
TABLE
  2
UCS
 70
     0
  0
ENDTAB
  0
TABLE
  2
APPID
 70
    31
  0
APPID
  2
ACAD
 70
     0
  0
APPID
  2
GLOBAL
 70
     0
  0
APPID
  2
DETAIL
 70
     0
  0
APPID
  2
GRPNAME
 70
     0
  0
APPID
  2
GPARA
 70
     0
  0
APPID
  2
MCAD_NO_VIS
 70
     0
  0
APPID
  2
ACAD_TEMP_GRAPHIC
 70
     0
  0
APPID
  2
ACATTRIBSERVICES
 70
     0
  0
APPID
  2
GENIUS_GENSCREG_15
 70
     0
  0
APPID
  2
GENIUS_GENODEF_13
 70
     0
  0
APPID
  2
GENIUS_GENOBJ-N-SDF_13
 70
     0
  0
APPID
  2
GENIUS_GENREC_14
 70
     0
  0
APPID
  2
GENIUS_GENOBJ-N-REC_13
 70
     0
  0
APPID
  2
GENIUS_GENDIMSH_14
 70
     0
  0
APPID
  2
GENIUS_GENOBJ-N-DIM_13
 70
     0
  0
APPID
  2
GENIUS_GENDIM_13
 70
     0
  0
APPID
  2
GENIUS_GENDTOL_13
 70
     0
  0
APPID
  2
GENIUS_GENOLIS_13
 70
     0
  0
APPID
  2
GENIUS_GENOENT_13
 70
     0
  0
APPID
  2
GENIUS_GENOBJ-F-FEM_13
 70
     0
  0
APPID
  2
GENIUS_GENOREF_13
 70
     0
  0
APPID
  2
GENIUS_GEFFEM_13
 70
     0
  0
APPID
  2
GENIUS_GEFFEMP_13
 70
     0
  0
APPID
  2
AD_DRAW
 70
     0
  0
APPID
  2
DESIGNERASSEMBLIES
 70
     0
  0
APPID
  2
ACADM_DIM_EDIT
 70
     0
  0
APPID
  2
AMDT_DM_ADJ
 70
     0
  0
APPID
  2
GENIUS_GENOBJ-N-FIL_13
 70
     0
  0
APPID
  2
GENIUS_GENFIL_13
 70
     0
  0
APPID
  2
GENIUS_GENOBJ-N-CHA_13
 70
     0
  0
APPID
  2
GENIUS_GENOBJ-N-CRS_13
 70
     0
  0
ENDTAB
  0
TABLE
  2
DIMSTYLE
 70
    23
  0
DIMSTYLE
  2
BIGT
 70
     0
  3

  4

  5
OPEN
  6

  7

 40
1.0
 41
2.2299999999999991
 42
0.5
 43
7.0
 44
1.0
 45
0.0
 46
0.0
 47
0.0
 48
0.01
140
2.7999999999999989
141
0.0
142
0.0
143
25.399999999999999
144
1.0
145
0.0
146
1.0
147
1.0
 71
     0
 72
     0
 73
     0
 74
     0
 75
     0
 76
     0
 77
     3
 78
     9
170
     0
171
     2
172
     1
173
     0
174
     1
175
     0
176
   256
177
   256
178
    40
  0
DIMSTYLE
  2
AM_ISO
 70
     0
  3

  4
"
  5

  6

  7

 40
1.0
 41
2.5
 42
1.0
 43
10.0
 44
1.0
 45
0.0
 46
0.0
 47
0.1
 48
0.1
140
3.5
141
0.0
142
0.0
143
0.0393701
144
1.0
145
0.0
146
0.71
147
1.5
 71
     0
 72
     0
 73
     0
 74
     0
 75
     0
 76
     0
 77
     1
 78
     8
170
     0
171
     2
172
     1
173
     0
174
     0
175
     0
176
   256
177
   256
178
     2
  0
DIMSTYLE
  2
AM_ISO$3
 70
     0
  3

  4
"
  5

  6

  7

 40
1.0
 41
2.5
 42
1.0
 43
10.0
 44
1.0
 45
0.0
 46
0.0
 47
0.1
 48
0.1
140
3.5
141
0.0
142
0.0
143
0.0393701
144
1.0
145
0.0
146
0.71
147
1.5
 71
     0
 72
     0
 73
     0
 74
     1
 75
     0
 76
     0
 77
     1
 78
     8
170
     0
171
     2
172
     0
173
     0
174
     0
175
     0
176
   256
177
   256
178
     2
  0
DIMSTYLE
  2
AM_ISO$4
 70
     0
  3

  4
"
  5

  6

  7

 40
1.0
 41
2.5
 42
1.0
 43
10.0
 44
1.0
 45
0.0
 46
0.0
 47
0.1
 48
0.1
140
3.5
141
0.0
142
0.0
143
0.0393701
144
1.0
145
0.0
146
0.71
147
1.5
 71
     0
 72
     0
 73
     0
 74
     1
 75
     0
 76
     0
 77
     1
 78
     8
170
     0
171
     2
172
     0
173
     0
174
     0
175
     0
176
   256
177
   256
178
     2
  0
DIMSTYLE
  2
AM_ISO$6
 70
     0
  3

  4
"
  5

  6

  7

 40
1.0
 41
2.5
 42
1.0
 43
10.0
 44
1.0
 45
0.0
 46
0.0
 47
0.1
 48
0.1
140
3.5
141
0.0
142
0.0
143
0.0393701
144
1.0
145
0.0
146
0.71
147
1.5
 71
     0
 72
     0
 73
     0
 74
     0
 75
     0
 76
     0
 77
     0
 78
     8
170
     0
171
     2
172
     1
173
     0
174
     0
175
     0
176
   256
177
   256
178
     2
  0
DIMSTYLE
  2
AM_ISO$7
 70
     0
  3

  4
"
  5

  6

  7

 40
1.0
 41
2.5
 42
1.0
 43
10.0
 44
1.0
 45
0.0
 46
0.0
 47
0.1
 48
0.1
140
5.0
141
0.0
142
0.0
143
0.0393701
144
1.0
145
0.0
146
0.71
147
1.5
 71
     0
 72
     0
 73
     0
 74
     0
 75
     0
 76
     0
 77
     1
 78
     8
170
     0
171
     2
172
     1
173
     0
174
     0
175
     0
176
   256
177
   256
178
     2
  0
DIMSTYLE
  2
AM_ISO$SF
 70
     0
  3

  4
"
  5

  6

  7

 40
1.0
 41
2.5
 42
1.0
 43
10.0
 44
1.0
 45
0.0
 46
0.0
 47
0.1
 48
0.1
140
3.5
141
0.0
142
0.0
143
0.0393701
144
1.0
145
0.0
146
0.71
147
1.5
 71
     0
 72
     0
 73
     0
 74
     0
 75
     1
 76
     1
 77
     1
 78
     8
170
     0
171
     2
172
     1
173
     0
174
     0
175
     0
176
   256
177
   256
178
     2
  0
DIMSTYLE
  2
AM_ISO$SH
 70
     0
  3

  4
"
  5

  6
GENAXEH
  7

 40
1.0
 41
2.5
 42
1.0
 43
10.0
 44
1.0
 45
0.0
 46
0.0
 47
0.1
 48
0.1
140
3.5
141
0.0
142
0.0
143
0.0393701
144
2.0
145
0.0
146
0.71
147
1.5
 71
     0
 72
     0
 73
     0
 74
     0
 75
     1
 76
     1
 77
     1
 78
     8
170
     0
171
     2
172
     1
173
     1
174
     0
175
     0
176
   256
177
   256
178
     2
  0
DIMSTYLE
  2
BIGT$2
 70
     0
  3

  4

  5
OPEN
  6

  7

 40
1.0
 41
2.2299999999999991
 42
0.5
 43
7.0
 44
1.0
 45
0.0
 46
0.0
 47
0.0
 48
0.01
140
2.7999999999999989
141
0.0
142
0.0
143
25.399999999999999
144
1.0
145
0.0
146
1.0
147
1.0
 71
     0
 72
     0
 73
     0
 74
     0
 75
     0
 76
     0
 77
     3
 78
     9
170
     0
171
     2
172
     1
173
     0
174
     0
175
     0
176
   256
177
   256
178
    40
  0
DIMSTYLE
  2
BIGT$3
 70
     0
  3

  4

  5
OPEN
  6

  7

 40
1.0
 41
2.2299999999999991
 42
0.5
 43
2.5
 44
1.0
 45
0.0
 46
0.0
 47
0.0
 48
0.01
140
2.7999999999999989
141
0.0
142
0.0
143
25.399999999999999
144
1.0
145
0.0
146
1.0
147
1.0
 71
     0
 72
     0
 73
     0
 74
     0
 75
     0
 76
     0
 77
     3
 78
     9
170
     0
171
     2
172
     1
173
     0
174
     0
175
     0
176
   256
177
   256
178
    40
  0
DIMSTYLE
  2
BIGT$7
 70
     0
  3

  4

  5
OPEN
  6

  7

 40
0.0
 41
2.2299999999999991
 42
0.5
 43
7.0
 44
1.0
 45
0.0
 46
0.0
 47
0.0
 48
0.01
140
2.7999999999999989
141
0.0
142
0.0
143
25.399999999999999
144
1.0
145
0.0
146
1.0
147
1.0
 71
     0
 72
     0
 73
     0
 74
     0
 75
     0
 76
     0
 77
     3
 78
     9
170
     0
171
     2
172
     0
173
     0
174
     0
175
     0
176
   256
177
   256
178
    40
  0
DIMSTYLE
  2
BIGT$6
 70
     0
  3

  4

  5
OPEN
  6

  7

 40
1.0
 41
2.2299999999999991
 42
0.5
 43
2.5
 44
1.0
 45
0.0
 46
0.0
 47
0.0
 48
0.01
140
2.7999999999999989
141
0.0
142
0.0
143
25.399999999999999
144
1.0
145
0.0
146
1.0
147
1.0
 71
     0
 72
     0
 73
     0
 74
     0
 75
     0
 76
     0
 77
     3
 78
     9
170
     0
171
     2
172
     1
173
     0
174
     0
175
     0
176
   256
177
   256
178
    40
  0
DIMSTYLE
  2
BIGT$0
 70
     0
  3

  4

  5
OPEN
  6

  7

 40
1.0
 41
2.2299999999999991
 42
0.5
 43
7.0
 44
1.0
 45
0.0
 46
0.0
 47
0.0
 48
0.01
140
2.7999999999999989
141
0.0
142
0.0
143
25.399999999999999
144
1.0
145
0.0
146
1.0
147
1.0
 71
     0
 72
     0
 73
     0
 74
     0
 75
     0
 76
     0
 77
     3
 78
     9
170
     0
171
     2
172
     1
173
     0
174
     0
175
     0
176
   256
177
   256
178
    40
  0
DIMSTYLE
  2
BIGT$4
 70
     0
  3

  4

  5
OPEN
  6

  7

 40
1.0
 41
2.2299999999999991
 42
0.5
 43
2.5
 44
1.0
 45
0.0
 46
0.0
 47
0.0
 48
0.01
140
2.7999999999999989
141
0.0
142
0.0
143
25.399999999999999
144
1.0
145
0.0
146
1.0
147
1.0
 71
     0
 72
     0
 73
     0
 74
     0
 75
     0
 76
     0
 77
     3
 78
     9
170
     0
171
     2
172
     1
173
     0
174
     0
175
     0
176
   256
177
   256
178
    40
  0
DIMSTYLE
  2
BIGT$SH
 70
     0
  3

  4

  5
OPEN
  6

  7

 40
1.0
 41
2.2299999999999991
 42
0.5
 43
7.0
 44
1.0
 45
0.0
 46
0.0
 47
0.0
 48
0.0
140
2.7999999999999989
141
0.0
142
0.0
143
25.399999999999999
144
1.0
145
0.0
146
1.0
147
1.0
 71
     0
 72
     0
 73
     0
 74
     0
 75
     0
 76
     0
 77
     3
 78
     9
170
     0
171
     2
172
     1
173
     0
174
     0
175
     0
176
   256
177
   256
178
    40
  0
DIMSTYLE
  2
BIGT$SF
 70
     0
  3

  4

  5
OPEN
  6

  7

 40
1.0
 41
2.2299999999999991
 42
0.5
 43
7.0
 44
1.0
 45
0.0
 46
0.0
 47
0.0
 48
0.0
140
2.7999999999999989
141
0.0
142
0.0
143
25.399999999999999
144
1.0
145
0.0
146
1.0
147
1.0
 71
     0
 72
     0
 73
     0
 74
     0
 75
     0
 76
     0
 77
     3
 78
     9
170
     0
171
     2
172
     1
173
     0
174
     0
175
     0
176
   256
177
   256
178
    40
  0
DIMSTYLE
  2
TECHNICAL_OSAKA
 70
     0
  3

  4
"
  5
OPEN30
  6

  7

 40
1.0
 41
2.5
 42
1.0
 43
10.0
 44
1.0
 45
0.0
 46
0.0
 47
0.1
 48
0.1
140
2.7999999999999989
141
0.0
142
0.0
143
0.0393701
144
1.0
145
0.0
146
0.71
147
1.5
 71
     0
 72
     0
 73
     0
 74
     0
 75
     0
 76
     0
 77
     3
 78
     8
170
     0
171
     2
172
     1
173
     0
174
     0
175
     0
176
   256
177
   256
178
    40
  0
DIMSTYLE
  2
TECHNICAL_OSAKA$3
 70
     0
  3

  4
"
  5
OPEN30
  6

  7

 40
1.0
 41
2.5
 42
1.0
 43
10.0
 44
1.0
 45
0.0
 46
0.0
 47
0.1
 48
0.1
140
2.7999999999999989
141
0.0
142
0.0
143
0.0393701
144
1.0
145
0.0
146
0.71
147
1.5
 71
     0
 72
     0
 73
     0
 74
     1
 75
     0
 76
     0
 77
     3
 78
     8
170
     0
171
     2
172
     0
173
     0
174
     0
175
     0
176
   256
177
   256
178
    40
  0
DIMSTYLE
  2
TECHNICAL_OSAKA$4
 70
     0
  3

  4
"
  5
OPEN30
  6

  7

 40
1.0
 41
2.5
 42
1.0
 43
10.0
 44
1.0
 45
0.0
 46
0.0
 47
0.1
 48
0.1
140
2.7999999999999989
141
0.0
142
0.0
143
0.0393701
144
1.0
145
0.0
146
0.71
147
1.5
 71
     0
 72
     0
 73
     0
 74
     1
 75
     0
 76
     0
 77
     3
 78
     8
170
     0
171
     2
172
     0
173
     0
174
     0
175
     0
176
   256
177
   256
178
    40
  0
DIMSTYLE
  2
TECHNICAL_OSAKA$6
 70
     0
  3

  4
"
  5
OPEN30
  6

  7

 40
1.0
 41
2.5
 42
1.0
 43
10.0
 44
1.0
 45
0.0
 46
0.0
 47
0.1
 48
0.1
140
2.7999999999999989
141
0.0
142
0.0
143
0.0393701
144
1.0
145
0.0
146
0.71
147
1.5
 71
     0
 72
     0
 73
     0
 74
     0
 75
     0
 76
     0
 77
     0
 78
     8
170
     0
171
     2
172
     1
173
     0
174
     0
175
     0
176
   256
177
   256
178
    40
  0
DIMSTYLE
  2
TECHNICAL_OSAKA$7
 70
     0
  3

  4
"
  5
OPEN30
  6

  7

 40
1.0
 41
2.5
 42
1.0
 43
10.0
 44
1.0
 45
0.0
 46
0.0
 47
0.1
 48
0.1
140
2.7999999999999989
141
0.0
142
0.0
143
0.0393701
144
1.0
145
0.0
146
0.71
147
1.5
 71
     0
 72
     0
 73
     0
 74
     0
 75
     0
 76
     0
 77
     3
 78
     8
170
     0
171
     2
172
     1
173
     0
174
     0
175
     0
176
   256
177
   256
178
    40
  0
DIMSTYLE
  2
TECHNICAL_OSAKA$SF
 70
     0
  3

  4
"
  5
OPEN30
  6
OPEN30
  7
OPEN30
 40
1.0
 41
2.5
 42
1.0
 43
10.0
 44
1.0
 45
0.0
 46
0.0
 47
0.1
 48
0.1
140
3.5
141
0.0
142
0.0
143
0.0393701
144
1.0
145
0.0
146
0.71
147
1.5
 71
     0
 72
     0
 73
     0
 74
     0
 75
     1
 76
     1
 77
     3
 78
     8
170
     0
171
     2
172
     1
173
     0
174
     0
175
     0
176
   256
177
   256
178
    40
  0
DIMSTYLE
  2
TECHNICAL_OSAKA$SH
 70
     0
  3

  4
"
  5
OPEN30
  6
GENAXEH
  7
OPEN30
 40
1.0
 41
2.5
 42
1.0
 43
10.0
 44
1.0
 45
0.0
 46
0.0
 47
0.1
 48
0.1
140
3.5
141
0.0
142
0.0
143
0.0393701
144
2.0
145
0.0
146
0.71
147
1.5
 71
     0
 72
     0
 73
     0
 74
     0
 75
     1
 76
     1
 77
     3
 78
     8
170
     0
171
     2
172
     1
173
     1
174
     0
175
     0
176
   256
177
   256
178
    40
  0
ENDTAB
  0
ENDSEC
  0
SECTION
  2
BLOCKS
  0
BLOCK
  8
0
  2
$MODEL_SPACE
 70
     0
 10
0.0
 20
0.0
 30
0.0
  3
$MODEL_SPACE
  1

  0
ENDBLK
  5
1C
  8
0
  0
BLOCK
 67
     1
  8
0
  2
$PAPER_SPACE
 70
     0
 10
0.0
 20
0.0
 30
0.0
  3
$PAPER_SPACE
  1

  0
ENDBLK
  5
19
 67
     1
  8
0
  0
BLOCK
  8
0
  2
_OPEN
 70
     0
 10
0.0
 20
0.0
 30
0.0
  3
_OPEN
  1

  0
LINE
  5
1783
  8
0
  6
BYBLOCK
 62
     0
 10
-1.0
 20
0.1666666666666666
 30
0.0
 11
0.0
 21
0.0
 31
0.0
  0
LINE
  5
1784
  8
0
  6
BYBLOCK
 62
     0
 10
-1.0
 20
-0.1666666666666666
 30
0.0
 11
0.0
 21
0.0
 31
0.0
  0
LINE
  5
1785
  8
0
  6
BYBLOCK
 62
     0
 10
0.0
 20
0.0
 30
0.0
 11
-1.0
 21
0.0
 31
0.0
  0
ENDBLK
  5
1786
  8
0
  0
BLOCK
  8
0
  2
GENAXEH
 70
     0
 10
0.0
 20
0.0
 30
0.0
  3
GENAXEH
  1

  0
LINE
  5
17AE
  8
0
 10
-1.0
 20
0.0
 30
0.0
 11
1.0
 21
0.0
 31
0.0
  0
ENDBLK
  5
17AF
  8
0
  0
BLOCK
  8
0
  2
_OPEN30
 70
     0
 10
0.0
 20
0.0
 30
0.0
  3
_OPEN30
  1

  0
LINE
  5
17D3
  8
0
  6
BYBLOCK
 62
     0
 10
-1.0
 20
0.26794919
 30
0.0
 11
0.0
 21
0.0
 31
0.0
  0
LINE
  5
17D4
  8
0
  6
BYBLOCK
 62
     0
 10
0.0
 20
0.0
 30
0.0
 11
-1.0
 21
-0.26794919
 31
0.0
  0
LINE
  5
17D5
  8
0
  6
BYBLOCK
 62
     0
 10
0.0
 20
0.0
 30
0.0
 11
-1.0
 21
0.0
 31
0.0
  0
ENDBLK
  5
17D6
  8
0
  0
ENDSEC
  0
SECTION
  2
ENTITIES
  0
LINE
  5
14BF
  8
240
 10
81.800000000006548
 20
47.0
 30
0.0
 11
110.5252125362076
 21
47.0
 31
0.0
  0
LINE
  5
14C0
  8
240
 10
81.800000000006548
 20
-47.0
 30
0.0
 11
110.5252125362076
 21
-47.0
 31
0.0
  0
LINE
  5
14C5
  8
240
 10
38.0
 20
-46.99999999999816
 30
0.0
 11
77.200000000004366
 21
-47.0
 31
0.0
  0
LINE
  5
14CA
  8
240
 10
0.0
 20
-34.92500000000291
 30
0.0
 11
-99.232920679216477
 21
-20.453532400948461
 31
0.0
  0
ARC
  5
14CC
  8
240
 10
2.5
 20
-49.0
 30
0.0
 40
1.0
 50
180.0
 51
270.0
  0
LINE
  5
14CD
  8
240
 10
1.5
 20
-34.92500000000291
 30
0.0
 11
1.5
 21
-49.0
 31
0.0
  0
LINE
  5
14D1
  8
243
 10
34.0
 20
-35.400000000001462
 30
0.0
 11
34.0
 21
-50.0
 31
0.0
  0
LINE
  5
14D2
  8
243
 10
1.5
 20
-35.400000000001462
 30
0.0
 11
34.0
 21
-35.400000000001462
 31
0.0
  0
LINE
  5
14D3
  8
241
 10
15.700000000000729
 20
-50.0
 30
0.0
 11
15.700000000000729
 21
-50.0
 31
0.0
  0
ARC
  5
14D4
  8
240
 10
36.700000000000728
 20
-48.70000000000072
 30
0.0
 40
1.3000000000000109
 50
270.0
 51
0.0
  0
LINE
  5
14D5
  8
240
 10
36.700000000000728
 20
-50.0
 30
0.0
 11
30.700000000000731
 21
-50.0
 31
0.0
  0
LINE
  5
14D6
  8
240
 10
2.5
 20
-50.0
 30
0.0
 11
15.700000000000729
 21
-50.0
 31
0.0
  0
LINE
  5
14D7
  8
240
 10
20.03012701892294
 20
-42.5
 30
0.0
 11
15.700000000000729
 21
-50.0
 31
0.0
  0
LINE
  5
14D8
  8
240
 10
26.369872981078519
 20
-42.5
 30
0.0
 11
30.700000000000731
 21
-50.0
 31
0.0
  0
LINE
  5
14D9
  8
240
 10
26.369872981078519
 20
-42.5
 30
0.0
 11
20.03012701892294
 21
-42.5
 31
0.0
  0
ARC
  5
14EC
  8
240
 10
110.52521253620939
 20
-32.000000000001819
 30
0.0
 40
15.0
 50
270.0
 51
284.99999999999437
1001
GENIUS_GENOBJ-N-FIL_13
1002
{
1000
OWNER
1000
GEN
1002
}
1001
GENIUS_GENODEF_13
1002
{
1000
HIER
1070
     0
1002
}
1002
{
1000
MANEDIT
1070
     0
1002
}
1002
{
1000
NOSEL
1070
     0
1002
}
1002
{
1000
BEHIND
1070
     0
1002
}
1002
{
1000
OTHER
1070
     0
1002
}
1002
{
1000
REACTOR
1002
}
  0
LINE
  5
14ED
  8
240
 10
114.4074982127495
 20
-46.488887394336409
 30
0.0
 11
123.51763809020849
 21
-44.047832771233509
 31
0.0
  0
LINE
  5
14EE
  8
241
 10
100.0000000000036
 20
-46.799999999999727
 30
0.0
 11
99.99999999994543
 21
46.799999999999727
 31
0.0
  0
ARC
  5
14EF
  8
240
 10
123.0000000000018
 20
-42.115981118655327
 30
0.0
 40
2.0
 50
285.00000000004468
 51
0.0
1001
GENIUS_GENODEF_13
1002
{
1000
HIER
1070
     0
1002
}
1002
{
1000
MANEDIT
1070
     0
1002
}
1002
{
1000
NOSEL
1070
     0
1002
}
1002
{
1000
BEHIND
1070
     0
1002
}
1002
{
1000
OTHER
1070
     0
1002
}
1002
{
1000
REACTOR
1002
}
1001
GENIUS_GENOBJ-N-FIL_13
1002
{
1000
OWNER
1000
GEN
1002
}
  0
ARC
  5
14F0
  8
240
 10
123.0000000000018
 20
42.115981118655327
 30
0.0
 40
2.0
 50
0.0
 51
74.999999999955222
1001
GENIUS_GENODEF_13
1002
{
1000
HIER
1070
     0
1002
}
1002
{
1000
MANEDIT
1070
     0
1002
}
1002
{
1000
NOSEL
1070
     0
1002
}
1002
{
1000
BEHIND
1070
     0
1002
}
1002
{
1000
OTHER
1070
     0
1002
}
1002
{
1000
REACTOR
1002
}
1001
GENIUS_GENOBJ-N-FIL_13
1002
{
1000
OWNER
1000
GEN
1002
}
  0
LINE
  5
14F1
  8
240
 10
125.0000000000018
 20
42.115981118655327
 30
0.0
 11
124.9999999999982
 21
-42.115981118655327
 31
0.0
  0
LINE
  5
14F4
  8
240
 10
114.4074982127495
 20
46.488887394336409
 30
0.0
 11
123.51763809020849
 21
44.047832771233509
 31
0.0
  0
ARC
  5
14F5
  8
240
 10
110.52521253620939
 20
32.000000000001819
 30
0.0
 40
15.0
 50
75.000000000005556
 51
90.0
1001
GENIUS_GENOBJ-N-FIL_13
1002
{
1000
OWNER
1000
GEN
1002
}
1001
GENIUS_GENODEF_13
1002
{
1000
HIER
1070
     0
1002
}
1002
{
1000
MANEDIT
1070
     0
1002
}
1002
{
1000
NOSEL
1070
     0
1002
}
1002
{
1000
BEHIND
1070
     0
1002
}
1002
{
1000
OTHER
1070
     0
1002
}
1002
{
1000
REACTOR
1002
}
  0
LINE
  5
14F6
  8
240
 10
38.0
 20
46.99999999999816
 30
0.0
 11
77.200000000004366
 21
47.0
 31
0.0
  0
LINE
  5
150A
  8
245
  6
CENTER2
 10
-106.9259560195256
 20
0.0
 30
0.0
 11
130.53730004337081
 21
0.0
 31
0.0
  0
LINE
  5
150B
  8
240
 10
38.0
 20
48.70000000000072
 30
0.0
 11
38.0
 21
46.99999999999816
 31
0.0
  0
LINE
  5
1535
  8
240
 10
26.369872981078519
 20
42.5
 30
0.0
 11
20.03012701892294
 21
42.5
 31
0.0
  0
LINE
  5
1536
  8
240
 10
26.369872981078519
 20
42.5
 30
0.0
 11
30.700000000000731
 21
50.0
 31
0.0
  0
LINE
  5
1538
  8
240
 10
20.03012701892294
 20
42.5
 30
0.0
 11
15.700000000000729
 21
50.0
 31
0.0
  0
LINE
  5
1539
  8
240
 10
2.5
 20
50.0
 30
0.0
 11
15.700000000000729
 21
50.0
 31
0.0
  0
LINE
  5
153A
  8
240
 10
1.5
 20
34.92500000000291
 30
0.0
 11
1.5
 21
49.0
 31
0.0
  0
ARC
  5
153B
  8
240
 10
2.5
 20
49.0
 30
0.0
 40
1.0
 50
90.0
 51
180.0
  0
LINE
  5
153C
  8
240
 10
36.700000000000728
 20
50.0
 30
0.0
 11
30.700000000000731
 21
50.0
 31
0.0
  0
ARC
  5
153D
  8
240
 10
36.700000000000728
 20
48.70000000000072
 30
0.0
 40
1.3000000000000109
 50
0.0
 51
90.0
  0
LINE
  5
153E
  8
241
 10
15.700000000000729
 20
50.0
 30
0.0
 11
15.700000000000729
 21
50.0
 31
0.0
  0
LINE
  5
153F
  8
243
 10
1.799999999999272
 20
35.400000000001462
 30
0.0
 11
34.0
 21
35.400000000001462
 31
0.0
  0
LINE
  5
1540
  8
243
 10
34.0
 20
35.400000000001462
 30
0.0
 11
34.0
 21
50.0
 31
0.0
  0
LINE
  5
1541
  8
241
 10
0.0
 20
34.92500000000291
 30
0.0
 11
0.0
 21
-34.92500000000291
 31
0.0
  0
LINE
  5
1542
  8
240
 10
0.0
 20
34.92500000000291
 30
0.0
 11
-99.232920679216477
 21
20.453532400948461
 31
0.0
  0
LINE
  5
1543
  8
240
 10
-101.7999999999992
 20
17.484933457759318
 30
0.0
 11
-101.7999999999992
 21
-17.484933457755691
 31
0.0
  0
ARC
  5
1544
  8
240
 10
-98.799999999999272
 20
17.484933457759318
 30
0.0
 40
2.9999999999999689
 50
98.297144969857257
 51
180.0
  0
LINE
  5
1545
  8
245
  6
CENTER2
 10
59.0
 20
0.0
 30
0.0
 11
58.999999999996362
 21
46.999999999999091
 31
0.0
1001
GENIUS_GENOREF_13
1005
15F0
  0
ARC
  5
1546
  8
240
 10
-98.799999999999272
 20
-17.484933457755691
 30
0.0
 40
2.9999999999999689
 50
180.0
 51
261.7028550301427
  0
TEXT
  5
156A
  8
241
 10
-99.745533141678607
 20
84.0
 30
0.0
 40
5.0
  1
BBT50-MGT36-125
  7
YOKO
  0
LINE
  5
1572
  8
241
 10
80.200000000004366
 20
-47.0
 30
0.0
 11
80.200000000004366
 21
47.0
 31
0.0
  0
LINE
  5
1573
  8
241
 10
81.800000000010186
 20
-47.0
 30
0.0
 11
81.800000000010186
 21
47.0
 31
0.0
  0
LINE
  5
1574
  8
241
 10
77.200000000004366
 20
-47.0
 30
0.0
 11
77.200000000004366
 21
47.0
 31
0.0
  0
LINE
  5
1575
  8
241
 10
78.80000000000291
 20
-46.999999999998181
 30
0.0
 11
78.80000000000291
 21
46.999999999998167
 31
0.0
  0
LINE
  5
1576
  8
240
 10
38.0
 20
-48.69999999999937
 30
0.0
 11
38.0
 21
-46.99999999999816
 31
0.0
  0
LINE
  5
157B
  8
241
 10
15.700000000000729
 20
-50.0
 30
0.0
 11
15.700000000000729
 21
50.0
 31
0.0
  0
LINE
  5
157C
  8
241
 10
20.03012701892294
 20
-42.5
 30
0.0
 11
20.03012701892294
 21
42.5
 31
0.0
  0
LINE
  5
157D
  8
241
 10
26.369872981078519
 20
-42.5
 30
0.0
 11
26.369872981078519
 21
42.5
 31
0.0
  0
LINE
  5
157E
  8
241
 10
30.700000000000731
 20
-50.0
 30
0.0
 11
30.700000000000731
 21
50.0
 31
0.0
  0
LINE
  5
1583
  8
241
 10
112.5000000000291
 20
-46.869438942770557
 30
0.0
 11
112.50000000002539
 21
46.86943894277146
 31
0.0
  0
LINE
  5
15E3
  8
240
 10
78.800000000001091
 20
46.999999999998181
 30
0.0
 11
78.000000000003624
 21
46.538119784649098
 31
0.0
  0
LINE
  5
15E4
  8
240
 10
77.200000000004366
 20
47.0
 30
0.0
 11
78.000000000003624
 21
46.538119784649098
 31
0.0
  0
LINE
  5
15E5
  8
240
 10
78.80000000000291
 20
46.999999999998181
 30
0.0
 11
80.200000000008004
 21
46.999999999998181
 31
0.0
  0
LINE
  5
15E6
  8
240
 10
80.200000000000713
 20
47.0
 30
0.0
 11
81.000000000003624
 21
46.53811978464676
 31
0.0
  0
LINE
  5
15E7
  8
240
 10
81.800000000006548
 20
47.0
 30
0.0
 11
81.000000000003624
 21
46.53811978464676
 31
0.0
  0
LINE
  5
15E9
  8
240
 10
78.800000000001091
 20
-46.999999999997719
 30
0.0
 11
78.000000000003624
 21
-46.538119784648643
 31
0.0
  0
LINE
  5
15EA
  8
240
 10
77.200000000004366
 20
-46.999999999999538
 30
0.0
 11
78.000000000003624
 21
-46.538119784648643
 31
0.0
  0
LINE
  5
15EB
  8
240
 10
78.80000000000291
 20
-46.999999999997719
 30
0.0
 11
80.200000000008004
 21
-46.999999999997719
 31
0.0
  0
LINE
  5
15EC
  8
240
 10
80.200000000000713
 20
-46.999999999999538
 30
0.0
 11
81.000000000003624
 21
-46.538119784646312
 31
0.0
  0
LINE
  5
15ED
  8
240
 10
81.800000000006548
 20
-46.999999999999538
 30
0.0
 11
81.000000000003624
 21
-46.538119784646312
 31
0.0
  0
POINT
  5
15F0
  8
0
 10
-12560.21565603775
 20
-819.74271395610776
 30
0.0
1001
GENIUS_GENOLIS_13
1002
{
1000
ENT
1005
0
1005
0
1005
1545
1005
0
1002
}
1001
GENIUS_GENOENT_13
1002
{
1000
MYREF
1005
15F0
1002
}
1002
{
1000
GRP
1005
0
1002
}
1001
GENIUS_GENOBJ-N-CRS_13
1002
{
1000
OWNER
1000
GEN
1002
}
1001
GENIUS_GENODEF_13
1002
{
1000
HIER
1070
    10
1002
}
1002
{
1000
MANEDIT
1070
     1
1002
}
1002
{
1000
NOSEL
1070
     0
1002
}
1002
{
1000
BEHIND
1070
     0
1002
}
1002
{
1000
OTHER
1070
     0
1002
}
1002
{
1000
REACTOR
1002
}
  0
LINE
  5
164B
  8
240
 10
0.0
 20
34.92500000000291
 30
0.0
 11
1.5
 21
34.92500000000291
 31
0.0
  0
LINE
  5
164D
  8
240
 10
0.0
 20
-34.92500000000291
 30
0.0
 11
1.5
 21
-34.92500000000291
 31
0.0
  0
LINE
  5
1655
  8
241
 10
38.0
 20
46.99999999999816
 30
0.0
 11
38.0
 21
-46.99999999999816
 31
0.0
  0
LINE
  5
1656
  8
241
 10
1.5
 20
34.92500000000291
 30
0.0
 11
1.5
 21
-35.400000000001462
 31
0.0
  0
LINE
  5
1684
  8
243
 10
5.0000000000018181
 20
19.999999999997819
 30
0.0
 11
106.0
 21
19.999999999999449
 31
0.0
  0
LINE
  5
1685
  8
243
 10
5.0000000000018181
 20
19.999999999997819
 30
0.0
 11
5.0000000000018181
 21
0.0
 31
0.0
  0
LINE
  5
1686
  8
243
 10
125.00000000000109
 20
27.199999999995271
 30
0.0
 11
106.0
 21
27.199999999995271
 31
0.0
  0
LINE
  5
1687
  8
243
 10
106.0
 20
27.199999999995271
 30
0.0
 11
106.0
 21
0.0
 31
0.0
  0
LINE
  5
16D3
  8
250
 10
0.0
 20
35.425000000001553
 30
0.0
 11
0.0000000000000022
 21
71.0
 31
0.0
  0
LINE
  5
16D4
  8
250
 10
125.0000000000018
 20
42.615981118653963
 30
0.0
 11
125.0000000000018
 21
71.0
 31
0.0
  0
LINE
  5
16D5
  8
250
 10
2.2300000000000022
 20
70.0
 30
0.0
 11
122.7700000000018
 21
70.0
 31
0.0
  0
LINE
  5
16DA
  8
250
 10
111.02521253620939
 20
47.000000000001819
 30
0.0
 11
148.0
 21
47.000000000001798
 31
0.0
  0
LINE
  5
16DB
  8
250
 10
111.02521253620939
 20
-47.000000000001819
 30
0.0
 11
148.0
 21
-47.000000000001833
 31
0.0
  0
LINE
  5
16DC
  8
250
 10
147.0
 20
44.770000000001801
 30
0.0
 11
147.0
 21
-44.770000000001843
 31
0.0
  0
LINE
  5
16E0
  8
250
 10
-66.926895316658531
 20
-45.457932873448947
 30
0.0
 11
-51.993561983325201
 21
-45.457932873448947
 31
0.0
  0
LINE
  5
16E1
  8
250
 10
-51.993561983325201
 20
-45.457932873448947
 30
0.0
 11
-40.395572985426369
 21
-30.977806229592971
 31
0.0
  0
LINE
  5
16E2
  8
250
 10
-40.395572985426369
 20
-30.977806229592971
 30
0.0
 11
-39.001485395040042
 21
-29.237283379892101
 31
0.0
  0
LINE
  5
16E3
  8
250
 10
-40.166428806177692
 20
-31.161341341904041
 30
0.0
 11
-39.001485395040042
 21
-29.237283379892101
 31
0.0
  0
LINE
  5
16E4
  8
250
 10
-39.001485395040042
 20
-29.237283379892101
 30
0.0
 11
-40.624717164675047
 21
-30.794271117281902
 31
0.0
  0
TEXT
  5
16E6
  8
250
 10
-67.460228649991862
 20
-44.057932873448948
 30
0.0
 40
2.7999999999999989
  1
BBT50
  7
YOKO
  0
TEXT
  5
16E7
  8
250
 10
58.300000000000907
 20
71.0
 30
0.0
 40
2.7999999999999989
  1
125
  0
LINE
  5
16E8
  8
250
 10
122.7700000000018
 20
70.37166666666667
 30
0.0
 11
125.0000000000018
 21
70.0
 31
0.0
  0
LINE
  5
16E9
  8
250
 10
122.7700000000018
 20
69.62833333333333
 30
0.0
 11
125.0000000000018
 21
70.0
 31
0.0
  0
LINE
  5
16EA
  8
250
 10
125.0000000000018
 20
70.0
 30
0.0
 11
122.7700000000018
 21
70.0
 31
0.0
  0
LINE
  5
16EB
  8
250
 10
2.2300000000000022
 20
69.62833333333333
 30
0.0
 11
0.0000000000000021
 21
70.0
 31
0.0
  0
LINE
  5
16EC
  8
250
 10
2.2300000000000022
 20
70.37166666666667
 30
0.0
 11
0.0000000000000021
 21
70.0
 31
0.0
  0
LINE
  5
16ED
  8
250
 10
0.0000000000000021
 20
70.0
 30
0.0
 11
2.2300000000000022
 21
70.0
 31
0.0
  0
TEXT
  5
16EE
  8
250
 10
146.0
 20
-3.8666666666666538
 30
0.0
 40
2.7999999999999989
  1
\U+220594
 50
90.0
  0
LINE
  5
16EF
  8
250
 10
147.3716666666667
 20
-44.770000000001843
 30
0.0
 11
147.0
 21
-47.000000000001833
 31
0.0
  0
LINE
  5
16F0
  8
250
 10
146.6283333333333
 20
-44.770000000001843
 30
0.0
 11
147.0
 21
-47.000000000001833
 31
0.0
  0
LINE
  5
16F1
  8
250
 10
147.0
 20
-47.000000000001833
 30
0.0
 11
147.0
 21
-44.770000000001843
 31
0.0
  0
LINE
  5
16F2
  8
250
 10
146.6283333333333
 20
44.770000000001801
 30
0.0
 11
147.0
 21
47.000000000001798
 31
0.0
  0
LINE
  5
16F3
  8
250
 10
147.3716666666667
 20
44.770000000001801
 30
0.0
 11
147.0
 21
47.000000000001798
 31
0.0
  0
LINE
  5
16F4
  8
250
 10
147.0
 20
47.000000000001798
 30
0.0
 11
147.0
 21
44.770000000001801
 31
0.0
  0
VIEWPORT
  5
22
 67
     1
  8
0
 10
261.51769911504419
 20
148.5
 30
0.0
 40
523.0353982300885
 41
297.0
 68
     1
 69
     1
1001
ACAD
1000
MVIEW
1002
{
1070
    16
1010
0.0
1020
0.0
1030
0.0
1010
0.0
1020
0.0
1030
1.0
1040
0.0
1040
297.0
1040
261.51769911504419
1040
148.5
1040
50.0
1040
0.0
1040
0.0
1070
     0
1070
   100
1070
     1
1070
     1
1070
     0
1070
     0
1070
     0
1070
     0
1040
0.0
1040
0.0
1040
0.0
1040
1.0
1040
1.0
1040
10.0
1040
10.0
1070
     0
1002
{
1002
}
1002
}
1001
GENIUS_GENODEF_13
1002
{
1000
HIER
1070
     0
1002
}
1002
{
1000
MANEDIT
1070
     0
1002
}
1002
{
1000
NOSEL
1070
     0
1002
}
1002
{
1000
BEHIND
1070
     0
1002
}
1002
{
1000
OTHER
1070
     0
1002
}
1002
{
1000
REACTOR
1002
}
1001
GENIUS_GENOBJ-N-SDF_13
1002
{
1000
OWNER
1000
GEN
1002
}
1001
GENIUS_GENSCREG_15
1000
PF
1040
1.0
1000
DF
1040
1.0
1000
MIN
1011
0.0
1021
-1.6708594254841647E+189
1031
0.0
1021
0.0
1031
0.0
1000
MAX
1011
523.0353982300885
1021
-1.6708594254841647E+189
1031
0.0
1021
297.0
1031
0.0
1000
FLAGS
1070
     2
  0
ENDSEC
  0
EOF
