  0
SECTION
  2
HEADER
  9
$ACADVER
  1
AC1009
  9
$INSBASE
 10
0.0
 20
0.0
 30
0.0
  9
$EXTMIN
 10
-104.3483289240485
 20
-50.007933964962383
 30
-0.0015258207003583
  9
$EXTMAX
 10
148.10955637999629
 20
89.005737769191214
 30
0.0000000349246037
  9
$LIMMIN
 10
0.0
 20
0.0
  9
$LIMMAX
 10
297.0
 20
210.0
  9
$ORTHOMODE
 70
     0
  9
$REGENMODE
 70
     1
  9
$FILLMODE
 70
     1
  9
$QTEXTMODE
 70
     0
  9
$MIRRTEXT
 70
     1
  9
$DRAGMODE
 70
     2
  9
$LTSCALE
 40
10.0
  9
$OSMODE
 70
    63
  9
$ATTMODE
 70
     1
  9
$TEXTSIZE
 40
3.0
  9
$TRACEWID
 40
1.0
  9
$TEXTSTYLE
  7
YOKO
  9
$CLAYER
  8
240
  9
$CELTYPE
  6
BYLAYER
  9
$CECOLOR
 62
   256
  9
$DIMSCALE
 40
1.0
  9
$DIMASZ
 40
2.2299999999999991
  9
$DIMEXO
 40
0.5
  9
$DIMDLI
 40
7.0
  9
$DIMRND
 40
0.0
  9
$DIMDLE
 40
0.0
  9
$DIMEXE
 40
1.0
  9
$DIMTP
 40
0.0
  9
$DIMTM
 40
0.01
  9
$DIMTXT
 40
2.799999999999998
  9
$DIMCEN
 40
0.0
  9
$DIMTSZ
 40
0.0
  9
$DIMTOL
 70
     0
  9
$DIMLIM
 70
     0
  9
$DIMTIH
 70
     0
  9
$DIMTOH
 70
     0
  9
$DIMSE1
 70
     0
  9
$DIMSE2
 70
     0
  9
$DIMTAD
 70
     3
  9
$DIMZIN
 70
     9
  9
$DIMBLK
  1
OPEN
  9
$DIMASO
 70
     1
  9
$DIMSHO
 70
     1
  9
$DIMPOST
  1

  9
$DIMAPOST
  1

  9
$DIMALT
 70
     0
  9
$DIMALTD
 70
     2
  9
$DIMALTF
 40
25.399999999999999
  9
$DIMLFAC
 40
1.0
  9
$DIMTOFL
 70
     1
  9
$DIMTVP
 40
0.0
  9
$DIMTIX
 70
     1
  9
$DIMSOXD
 70
     0
  9
$DIMSAH
 70
     0
  9
$DIMBLK1
  1

  9
$DIMBLK2
  1

  9
$DIMSTYLE
  2
BIGT
  9
$DIMCLRD
 70
   256
  9
$DIMCLRE
 70
   256
  9
$DIMCLRT
 70
    40
  9
$DIMTFAC
 40
1.0
  9
$DIMGAP
 40
1.0
  9
$LUNITS
 70
     2
  9
$LUPREC
 70
     6
  9
$SKETCHINC
 40
1.0
  9
$FILLETRAD
 40
0.0
  9
$AUNITS
 70
     0
  9
$AUPREC
 70
     6
  9
$MENU
  1
.
  9
$ELEVATION
 40
0.0
  9
$PELEVATION
 40
0.0
  9
$THICKNESS
 40
0.0
  9
$LIMCHECK
 70
     0
  9
$BLIPMODE
 70
     0
  9
$CHAMFERA
 40
0.2
  9
$CHAMFERB
 40
0.2
  9
$SKPOLY
 70
     0
  9
$TDCREATE
 40
2457241.8066706019
  9
$TDUPDATE
 40
2457242.4242081949
  9
$TDINDWG
 40
0.0068981944
  9
$TDUSRTIMER
 40
0.0068981481
  9
$USRTIMER
 70
     1
  9
$ANGBASE
 50
0.0
  9
$ANGDIR
 70
     0
  9
$PDMODE
 70
     1
  9
$PDSIZE
 40
0.0
  9
$PLINEWID
 40
0.0
  9
$COORDS
 70
     1
  9
$SPLFRAME
 70
     0
  9
$SPLINETYPE
 70
     6
  9
$SPLINESEGS
 70
     4
  9
$ATTDIA
 70
     1
  9
$ATTREQ
 70
     1
  9
$HANDLING
 70
     1
  9
$HANDSEED
  5
4D0F
  9
$SURFTAB1
 70
     6
  9
$SURFTAB2
 70
     6
  9
$SURFTYPE
 70
     6
  9
$SURFU
 70
     6
  9
$SURFV
 70
     6
  9
$UCSNAME
  2

  9
$UCSORG
 10
0.0
 20
0.0
 30
0.0
  9
$UCSXDIR
 10
1.0
 20
0.0
 30
0.0
  9
$UCSYDIR
 10
0.0
 20
1.0
 30
0.0
  9
$PUCSNAME
  2

  9
$PUCSORG
 10
0.0
 20
0.0
 30
0.0
  9
$PUCSXDIR
 10
1.0
 20
0.0
 30
0.0
  9
$PUCSYDIR
 10
0.0
 20
1.0
 30
0.0
  9
$USERI1
 70
     1
  9
$USERI2
 70
     0
  9
$USERI3
 70
     0
  9
$USERI4
 70
     0
  9
$USERI5
 70
     0
  9
$USERR1
 40
0.0
  9
$USERR2
 40
0.0
  9
$USERR3
 40
0.0
  9
$USERR4
 40
0.0
  9
$USERR5
 40
0.0
  9
$WORLDVIEW
 70
     1
  9
$SHADEDGE
 70
     3
  9
$SHADEDIF
 70
    70
  9
$TILEMODE
 70
     1
  9
$MAXACTVP
 70
    16
  9
$PLIMCHECK
 70
     0
  9
$PEXTMIN
 10
1.0000000000000000E+020
 20
1.0000000000000000E+020
 30
1.0000000000000000E+020
  9
$PEXTMAX
 10
-1.0000000000000000E+020
 20
-1.0000000000000000E+020
 30
-1.0000000000000000E+020
  9
$PLIMMIN
 10
0.0
 20
0.0
  9
$PLIMMAX
 10
420.0
 20
297.0
  9
$UNITMODE
 70
     0
  9
$VISRETAIN
 70
     1
  9
$PLINEGEN
 70
     0
  9
$PSLTSCALE
 70
     1
  0
ENDSEC
  0
SECTION
  2
TABLES
  0
TABLE
  2
VPORT
 70
     1
  0
VPORT
  2
*ACTIVE
 70
     0
 10
0.0
 20
0.0
 11
1.0
 21
1.0
 12
21.88061372797392
 22
19.498901902114429
 13
0.0
 23
0.0
 14
7.0
 24
7.0
 15
7.0
 25
7.0
 16
0.0
 26
0.0
 36
1.0
 17
0.0
 27
0.0
 37
0.0
 40
176.6769155208915
 41
1.4355016538037479
 42
50.0
 43
0.0
 44
0.0
 50
0.0
 51
0.0
 71
     0
 72
  2000
 73
     1
 74
     0
 75
     0
 76
     1
 77
     0
 78
     0
  0
ENDTAB
  0
TABLE
  2
LTYPE
 70
    22
  0
LTYPE
  2
CONTINUOUS
 70
     0
  3
Solid line
 72
    65
 73
     0
 40
0.0
  0
LTYPE
  2
CENTER2
 70
     0
  3
___ _ ___ _ ___ _ ___ _ ___ _ ___ _ ___ _ ___ _
 72
    65
 73
     4
 40
1.125
 49
0.75
 49
-0.125
 49
0.125
 49
-0.125
  0
LTYPE
  2
HIDDEN2
 70
     0
  3
_ _ _ _ _ _ _ _ _ _ _ _ _ _ _ _ _ _ _ _ _ _ _ _
 72
    65
 73
     2
 40
0.1875
 49
0.125
 49
-0.0625
  0
LTYPE
  2
PHANTOM2
 70
     0
  3
___ _ _ ___ _ _ ___ _ _ ___ _ _ ___ _ _ ___ _ _
 72
    65
 73
     6
 40
1.25
 49
0.625
 49
-0.125
 49
0.125
 49
-0.125
 49
0.125
 49
-0.125
  0
LTYPE
  2
AMCONSTR
 70
     0
  3
_______________________
 72
    65
 73
     2
 40
9999.0
 49
9999.0
 49
0.0
  0
LTYPE
  2
HIDDEN
 70
     0
  3
Hidden __ __ __ __ __ __ __ __ __ __ __ __ __ _
 72
    65
 73
     2
 40
0.375
 49
0.25
 49
-0.125
  0
LTYPE
  2
CENTER
 70
     0
  3
Center ____ _ ____ _ ____ _ ____ _ ____ _ ____
 72
    65
 73
     4
 40
2.0
 49
1.25
 49
-0.25
 49
0.25
 49
-0.25
  0
LTYPE
  2
AMZIGZAG2
 70
     0
  3
/\/-/\/-/\/-/\/-/\/-/\/
 72
    65
 73
     2
 40
0.4401
 49
0.0001
 49
-0.4400000000000001
  0
LTYPE
  2
ACANSTGB
 70
     0
  3
__ . . __ . .
 72
    65
 73
     6
 40
0.35433070866
 49
0.15748031496
 49
-0.03937007874
 49
0.03937007874
 49
-0.03937007874
 49
0.03937007874
 49
-0.03937007874
  0
LTYPE
  2
ACANSTGL
 70
     0
  3
_ _ _ _ _
 72
    65
 73
     2
 40
0.11811023622
 49
0.07874015748
 49
-0.03937007874
  0
ENDTAB
  0
TABLE
  2
LAYER
 70
     8
  0
LAYER
  2
0
 70
     0
 62
     7
  6
CONTINUOUS
  0
LAYER
  2
241
 70
     0
 62
   211
  6
CONTINUOUS
  0
LAYER
  2
DEFPOINTS
 70
     0
 62
     7
  6
CONTINUOUS
  0
LAYER
  2
245
 70
     0
 62
     2
  6
CENTER2
  0
LAYER
  2
240
 70
     0
 62
     4
  6
CONTINUOUS
  0
LAYER
  2
242
 70
     0
 62
     3
  6
CONTINUOUS
  0
LAYER
  2
243
 70
     0
 62
   211
  6
HIDDEN2
  0
LAYER
  2
250
 70
     0
 62
     3
  6
CONTINUOUS
  0
ENDTAB
  0
TABLE
  2
STYLE
 70
    10
  0
STYLE
  2
STANDARD
 70
     0
 40
0.0
 41
1.0
 50
0.0
 71
     0
 42
3.0
  3
romans.shx
  4
extfont.shx
  0
STYLE
  2
YOKO
 70
     0
 40
0.0
 41
1.0
 50
0.0
 71
     0
 42
3.0
  3
romans.shx
  4
extfont.shx
  0
STYLE
  2

 70
     1
 40
0.0
 41
1.0
 50
0.0
 71
     0
 42
3.0
  3
genltshp.shx
  4

  0
STYLE
  2
ACANSGDT
 70
     0
 40
0.0
 41
1.0
 50
0.0
 71
     0
 42
3.0
  3
amgdt.shx
  4

  0
ENDTAB
  0
TABLE
  2
VIEW
 70
     0
  0
ENDTAB
  0
TABLE
  2
UCS
 70
     0
  0
ENDTAB
  0
TABLE
  2
APPID
 70
    43
  0
APPID
  2
ACAD
 70
     0
  0
APPID
  2
ACADANNOTATIVE
 70
     0
  0
APPID
  2
GLOBAL
 70
     0
  0
APPID
  2
DETAIL
 70
     0
  0
APPID
  2
GRPNAME
 70
     0
  0
APPID
  2
GPARA
 70
     0
  0
APPID
  2
MCAD_NO_VIS
 70
     0
  0
APPID
  2
ACAD_TEMP_GRAPHIC
 70
     0
  0
APPID
  2
ACATTRIBSERVICES
 70
     0
  0
APPID
  2
GENIUS_GENSCREG_15
 70
     0
  0
APPID
  2
GENIUS_GENODEF_13
 70
     0
  0
APPID
  2
GENIUS_GENOBJ-N-SDF_13
 70
     0
  0
APPID
  2
GENIUS_GENREC_14
 70
     0
  0
APPID
  2
GENIUS_GENOBJ-N-REC_13
 70
     0
  0
APPID
  2
GENIUS_GENDIMSH_14
 70
     0
  0
APPID
  2
GENIUS_GENOBJ-N-DIM_13
 70
     0
  0
APPID
  2
GENIUS_GENDIM_13
 70
     0
  0
APPID
  2
GENIUS_GENDTOL_13
 70
     0
  0
APPID
  2
GENIUS_GENOLIS_13
 70
     0
  0
APPID
  2
GENIUS_GENOENT_13
 70
     0
  0
APPID
  2
GENIUS_GENOBJ-F-FEM_13
 70
     0
  0
APPID
  2
GENIUS_GENOREF_13
 70
     0
  0
APPID
  2
GENIUS_GEFFEM_13
 70
     0
  0
APPID
  2
GENIUS_GEFFEMP_13
 70
     0
  0
APPID
  2
AD_DRAW
 70
     0
  0
APPID
  2
DESIGNERASSEMBLIES
 70
     0
  0
APPID
  2
ACADM_DIM_EDIT
 70
     0
  0
APPID
  2
AMDT_DM_ADJ
 70
     0
  0
APPID
  2
ITEMNAME
 70
     0
  0
APPID
  2
GENIUS_GENOBJ-N-FIL_13
 70
     0
  0
APPID
  2
GENIUS_GENFIL_13
 70
     0
  0
APPID
  2
GENIUS_GENOBJ-N-CHA_13
 70
     0
  0
APPID
  2
ACAD_NAV_VCDISPLAY
 70
     0
  0
APPID
  2
ASK_MEN_XD
 70
     0
  0
APPID
  2
ACAD_DSTYLE_DIMJAG
 70
     0
  0
APPID
  2
ACAD_DSTYLE_DIMBREAK
 70
     0
  0
APPID
  2
ACAD_EXEMPT_FROM_CAD_STANDARDS
 70
     0
  0
APPID
  2
ACAD_DSTYLE_DIMINSPECT
 70
     0
  0
APPID
  2
ACAD_MLEADERVER
 70
     0
  0
APPID
  2
ACAD_DSTYLE_DIMARC_LENGTH_
 70
     0
  0
APPID
  2
ACAD_DSTYLE_DIM_LINETYPE
 70
     0
  0
APPID
  2
ACAD_DSTYLE_DIM_EXT1_LINETYPE
 70
     0
  0
APPID
  2
ACAD_DSTYLE_DIM_EXT2_LINETYPE
 70
     0
  0
ENDTAB
  0
TABLE
  2
DIMSTYLE
 70
    32
  0
DIMSTYLE
  2
STANDARD
 70
     0
  3

  4

  5

  6

  7

 40
1.0
 41
0.18
 42
0.0625
 43
0.38
 44
0.18
 45
0.0
 46
0.0
 47
0.0
 48
0.0
140
0.18
141
0.09
142
0.0
143
25.399999999999999
144
1.0
145
0.0
146
1.0
147
0.09
 71
     0
 72
     0
 73
     1
 74
     1
 75
     0
 76
     0
 77
     0
 78
     0
170
     0
171
     2
172
     0
173
     0
174
     0
175
     0
176
     0
177
     0
178
     0
  0
DIMSTYLE
  2
BIGT
 70
     0
  3

  4

  5

  6

  7

 40
1.0
 41
2.2299999999999991
 42
0.5
 43
7.0
 44
1.0
 45
0.0
 46
0.0
 47
0.0
 48
0.01
140
2.799999999999998
141
0.0
142
0.0
143
25.399999999999999
144
1.0
145
0.0
146
1.0
147
1.0
 71
     0
 72
     0
 73
     0
 74
     0
 75
     0
 76
     0
 77
     3
 78
     9
170
     0
171
     2
172
     1
173
     0
174
     1
175
     0
176
   256
177
   256
178
    40
  0
DIMSTYLE
  2
AM_ANSI
 70
     0
  3

  4
mm
  5

  6

  7

 40
1.0
 41
0.12
 42
0.05
 43
0.5
 44
0.1
 45
0.0
 46
0.0
 47
0.1
 48
0.1
140
0.12
141
0.0
142
0.0
143
25.399999999999999
144
1.0
145
0.0
146
0.71
147
0.06
 71
     0
 72
     0
 73
     1
 74
     1
 75
     0
 76
     0
 77
     0
 78
     7
170
     0
171
     2
172
     0
173
     0
174
     0
175
     0
176
   256
177
   256
178
     2
  0
DIMSTYLE
  2
AM_ANSI$3
 70
     0
  3

  4
mm
  5

  6

  7

 40
1.0
 41
0.12
 42
0.05
 43
0.5
 44
0.1
 45
0.0
 46
0.0
 47
0.1
 48
0.1
140
0.12
141
0.0
142
0.0
143
25.399999999999999
144
1.0
145
0.0
146
0.71
147
0.06
 71
     0
 72
     0
 73
     1
 74
     1
 75
     0
 76
     0
 77
     0
 78
     7
170
     0
171
     2
172
     0
173
     0
174
     0
175
     0
176
   256
177
   256
178
     2
  0
DIMSTYLE
  2
AM_ANSI$4
 70
     0
  3

  4
mm
  5

  6

  7

 40
1.0
 41
0.12
 42
0.05
 43
0.5
 44
0.1
 45
0.0
 46
0.0
 47
0.1
 48
0.1
140
0.12
141
0.0
142
0.0
143
25.399999999999999
144
1.0
145
0.0
146
0.71
147
0.06
 71
     0
 72
     0
 73
     1
 74
     1
 75
     0
 76
     0
 77
     0
 78
     7
170
     0
171
     2
172
     0
173
     0
174
     0
175
     0
176
   256
177
   256
178
     2
  0
DIMSTYLE
  2
AM_ANSI$7
 70
     0
  3

  4
mm
  5

  6

  7

 40
1.0
 41
0.12
 42
0.05
 43
0.5
 44
0.1
 45
0.0
 46
0.0
 47
0.1
 48
0.1
140
0.12
141
0.0
142
0.0
143
25.399999999999999
144
1.0
145
0.0
146
0.71
147
0.06
 71
     0
 72
     0
 73
     1
 74
     1
 75
     0
 76
     0
 77
     0
 78
     7
170
     0
171
     2
172
     0
173
     0
174
     0
175
     0
176
   256
177
   256
178
     2
  0
DIMSTYLE
  2
AM_ANSI$SF
 70
     0
  3

  4
mm
  5

  6

  7

 40
1.0
 41
0.12
 42
0.05
 43
0.5
 44
0.1
 45
0.0
 46
0.0
 47
0.1
 48
0.1
140
0.12
141
0.0
142
0.0
143
25.399999999999999
144
1.0
145
0.0
146
0.71
147
0.06
 71
     0
 72
     0
 73
     1
 74
     1
 75
     1
 76
     1
 77
     0
 78
     7
170
     0
171
     2
172
     0
173
     0
174
     0
175
     0
176
   256
177
   256
178
     2
  0
DIMSTYLE
  2
AM_ANSI$SH
 70
     0
  3

  4
mm
  5

  6
GENAXEH
  7

 40
1.0
 41
0.12
 42
0.05
 43
0.5
 44
0.1
 45
0.0
 46
0.0
 47
0.1
 48
0.1
140
0.12
141
0.0
142
0.0
143
25.399999999999999
144
1.0
145
0.0
146
0.71
147
0.06
 71
     0
 72
     0
 73
     1
 74
     1
 75
     1
 76
     1
 77
     0
 78
     7
170
     0
171
     2
172
     0
173
     1
174
     0
175
     0
176
   256
177
   256
178
     2
  0
ENDTAB
  0
ENDSEC
  0
SECTION
  2
BLOCKS
  0
BLOCK
  8
0
  2
$MODEL_SPACE
 70
     0
 10
0.0
 20
0.0
 30
0.0
  3
$MODEL_SPACE
  1

  0
ENDBLK
  5
4BC2
  8
0
  0
BLOCK
 67
     1
  8
0
  2
$PAPER_SPACE
 70
     0
 10
0.0
 20
0.0
 30
0.0
  3
$PAPER_SPACE
  1

  0
ENDBLK
  5
4BBE
 67
     1
  8
0
  0
BLOCK
  8
0
  2
_OPEN
 70
     0
 10
0.0
 20
0.0
 30
0.0
  3
_OPEN
  1

  0
LINE
  5
4A52
  8
0
  6
BYBLOCK
 62
     0
 10
-1.0
 20
0.1666666666666666
 30
0.0
 11
0.0
 21
0.0
 31
0.0
  0
LINE
  5
4A53
  8
0
  6
BYBLOCK
 62
     0
 10
-1.0
 20
-0.1666666666666666
 30
0.0
 11
0.0
 21
0.0
 31
0.0
  0
LINE
  5
4A54
  8
0
  6
BYBLOCK
 62
     0
 10
0.0
 20
0.0
 30
0.0
 11
-1.0
 21
0.0
 31
0.0
  0
ENDBLK
  5
4A55
  8
0
  0
BLOCK
  8
0
  2
GENAXEH
 70
     0
 10
0.0
 20
0.0
 30
0.0
  3
GENAXEH
  1

  0
LINE
  5
4A8D
  8
0
 10
-1.0
 20
0.0
 30
0.0
 11
1.0
 21
0.0
 31
0.0
  0
ENDBLK
  5
4A8E
  8
0
  0
BLOCK
  8
0
  2
_ACMFILLEDHALF
 70
     0
 10
0.0
 20
0.0
 30
0.0
  3
_ACMFILLEDHALF
  1

  0
TRACE
  5
4C87
  8
241
 62
     0
 10
-0.8
 20
0.0
 30
0.0
 11
-1.0
 21
0.166666666
 31
0.0
 12
0.0
 22
0.0
 32
0.0
 13
0.0
 23
0.0
 33
0.0
  0
LINE
  5
4C88
  8
241
 62
     0
 10
-1.0
 20
0.0
 30
0.0
 11
-0.8
 21
0.0
 31
0.0
  0
ENDBLK
  5
4C86
  8
0
  0
ENDSEC
  0
SECTION
  2
ENTITIES
  0
LINE
  5
43B8
  8
240
 10
40.500000000000611
 20
38.999999999999403
 30
0.0
 11
40.000000000000497
 21
39.499999999999531
 31
0.0
  0
LINE
  5
43B9
  8
240
 10
40.000000000000497
 20
39.499999999999531
 30
0.0
 11
39.000000000000853
 21
39.499999999999531
 31
0.0
  0
ARC
  5
43BA
  8
240
 10
39.000000000000853
 20
40.499999999999503
 30
0.0
 40
1.0
 50
180.0
 51
270.0
1001
GENIUS_GENODEF_13
1002
{
1000
HIER
1070
     0
1002
}
1002
{
1000
MANEDIT
1070
     0
1002
}
1002
{
1000
NOSEL
1070
     0
1002
}
1002
{
1000
BEHIND
1070
     0
1002
}
1002
{
1000
OTHER
1070
     0
1002
}
1002
{
1000
REACTOR
1002
}
1001
GENIUS_GENOBJ-N-FIL_13
1002
{
1000
OWNER
1000
GEN
1002
}
  0
LINE
  5
43C4
  8
240
 10
40.250000000000448
 20
-39.50000000000049
 30
0.0
 11
40.500000000000462
 21
-39.25000000000049
 31
0.0
1001
GENIUS_GENFIL_13
1070
     0
1040
0.25
1040
0.25
1040
0.7499999999999716
1040
45.000000000002181
1002
{
1002
}
1001
GENIUS_GENOBJ-N-CHA_13
1002
{
1000
OWNER
1000
GEN
1002
}
1001
GENIUS_GENODEF_13
1002
{
1000
HIER
1070
     0
1002
}
1002
{
1000
MANEDIT
1070
     0
1002
}
1002
{
1000
NOSEL
1070
     0
1002
}
1002
{
1000
BEHIND
1070
     0
1002
}
1002
{
1000
OTHER
1070
     0
1002
}
1002
{
1000
REACTOR
1002
}
  0
LINE
  5
43C5
  8
240
 10
40.250000000000448
 20
-39.50000000000049
 30
0.0
 11
39.000000000000853
 21
-39.50000000000049
 31
0.0
  0
ARC
  5
43C6
  8
240
 10
39.000000000000853
 20
-40.500000000000469
 30
0.0
 40
1.0
 50
90.0
 51
180.0
1001
GENIUS_GENODEF_13
1002
{
1000
HIER
1070
     0
1002
}
1002
{
1000
MANEDIT
1070
     0
1002
}
1002
{
1000
NOSEL
1070
     0
1002
}
1002
{
1000
BEHIND
1070
     0
1002
}
1002
{
1000
OTHER
1070
     0
1002
}
1002
{
1000
REACTOR
1002
}
1001
GENIUS_GENOBJ-N-FIL_13
1002
{
1000
OWNER
1000
GEN
1002
}
  0
LINE
  5
43C8
  8
250
 10
-50.782972670372892
 20
-43.570345964537736
 30
0.0
 11
-69.782972670372885
 21
-43.570345964537736
 31
0.0
1001
ITEMNAME
1000
LNSP2
  0
LINE
  5
43CE
  8
243
 10
34.0
 20
35.400000000000198
 30
0.0
 11
1.4999999999984071
 21
35.400000000000148
 31
0.0
  0
LINE
  5
43CF
  8
243
 10
34.0
 20
-35.399999999999821
 30
0.0
 11
1.4999999999984071
 21
-35.399999999999807
 31
0.0
  0
LINE
  5
43D0
  8
243
 10
34.0
 20
-35.399999999999821
 30
0.0
 11
33.999999999999773
 21
-50.0
 31
0.0
  0
LINE
  5
43E7
  8
241
 10
0.0
 20
34.925000000000068
 30
0.0
 11
0.0
 21
-34.92499999999994
 31
0.0
  0
LINE
  5
43E8
  8
241
 10
1.4999999999984071
 20
-34.92499999999994
 30
0.0
 11
1.4999999999906699
 21
34.925000000000068
 31
0.0
  0
ARC
  5
43E9
  8
240
 10
36.699999999999811
 20
-48.700000000000081
 30
0.0
 40
1.30000000000001
 50
270.0
 51
0.0
  0
LINE
  5
43EA
  8
240
 10
37.999999999999829
 20
-48.700000000000081
 30
0.0
 11
37.999999999999943
 21
-40.481472005085493
 31
0.0
  0
LINE
  5
43EB
  8
241
 10
37.999999999999972
 20
-40.500000000000462
 30
0.0
 11
38.000000000001279
 21
40.499999999999531
 31
0.0
  0
LINE
  5
43EC
  8
240
 10
0.0
 20
-34.92499999999994
 30
0.0
 11
-99.917475164758002
 21
-20.353701538472709
 31
0.0
  0
LINE
  5
43ED
  8
240
 10
0.0
 20
34.925000000000068
 30
0.0
 11
-99.917475164757761
 21
20.35370153847288
 31
0.0
  0
ARC
  5
43F2
  8
240
 10
2.4999999999984071
 20
-49.000000000000028
 30
0.0
 40
1.0
 50
179.99999999999659
 51
270.0
  0
LINE
  5
43F4
  8
240
 10
1.4999999999984071
 20
-48.999999999999979
 30
0.0
 11
1.4999999999984071
 21
-34.92499999999994
 31
0.0
  0
LINE
  5
43F7
  8
245
 10
134.2276954981547
 20
-0.0000000000013927
 30
0.0
 11
-104.3360820532293
 21
0.0000000000011053
 31
0.0
  0
LINE
  5
43F8
  8
240
 10
26.233975664591579
 20
42.499999999999361
 30
0.0
 11
20.166024335409471
 21
42.499999999999488
 31
0.0
  0
ARC
  5
43F9
  8
240
 10
26.233975664591579
 20
42.799999999999372
 30
0.0
 40
0.3
 50
270.0
 51
329.99999999999812
  0
ARC
  5
43FA
  8
240
 10
20.166024335409471
 20
42.7999999999995
 30
0.0
 40
0.3
 50
209.99999999999969
 51
270.0
  0
LINE
  5
43FB
  8
241
 10
26.407180745356399
 20
42.555051025721809
 30
0.0
 11
26.407180745348398
 21
-42.555051025720793
 31
0.0
  0
LINE
  5
43FC
  8
240
 10
26.23397566459187
 20
-42.499999999999268
 30
0.0
 11
20.166024335409759
 21
-42.499999999999417
 31
0.0
  0
LINE
  5
43FD
  8
240
 10
30.58730776427188
 20
-49.740192378865061
 30
0.0
 11
26.493783285727211
 21
-42.649999999999281
 31
0.0
  0
LINE
  5
43FE
  8
240
 10
31.037307764271869
 20
-50.000000000000341
 30
0.0
 11
30.58730776427188
 21
-49.740192378865061
 31
0.0
  0
ARC
  5
43FF
  8
240
 10
26.23397566459187
 20
-42.799999999999308
 30
0.0
 40
0.3
 50
30.00000000000195
 51
90.0
  0
LINE
  5
4400
  8
240
 10
36.699999999999811
 20
-49.999999999999929
 30
0.0
 11
31.03730776427102
 21
-49.999999999999829
 31
0.0
  0
LINE
  5
4401
  8
241
 10
19.992819254660581
 20
42.5550510257235
 30
0.0
 11
19.992819254652598
 21
-42.555051025721284
 31
0.0
  0
LINE
  5
4402
  8
240
 10
19.906216714274422
 20
-42.649999999999451
 30
0.0
 11
15.81269223573128
 21
-49.740192378863703
 31
0.0
  0
ARC
  5
4403
  8
240
 10
20.166024335409759
 20
-42.799999999999429
 30
0.0
 40
0.3
 50
90.0
 51
149.99999999999801
  0
LINE
  5
4404
  8
240
 10
15.362692235731281
 20
-49.999999999999041
 30
0.0
 11
15.81269223573128
 21
-49.740192378863703
 31
0.0
  0
LINE
  5
4405
  8
240
 10
2.4999999999984071
 20
-49.999999999999829
 30
0.0
 11
15.362692235729471
 21
-50.000000000000099
 31
0.0
  0
LINE
  5
4407
  8
240
 10
-101.8
 20
18.17672898013393
 30
0.0
 11
-101.8000000000001
 21
-18.176728980133131
 31
0.0
  0
ARC
  5
4409
  8
240
 10
-99.600000000000151
 20
-18.176728980133131
 30
0.0
 40
2.2000000000000002
 50
180.0
 51
261.70285503016129
1001
GENIUS_GENODEF_13
1002
{
1000
HIER
1070
     0
1002
}
1002
{
1000
MANEDIT
1070
     0
1002
}
1002
{
1000
NOSEL
1070
     0
1002
}
1002
{
1000
BEHIND
1070
     0
1002
}
1002
{
1000
OTHER
1070
     0
1002
}
1002
{
1000
REACTOR
1002
}
1001
GENIUS_GENOBJ-N-FIL_13
1002
{
1000
OWNER
1000
GEN
1002
}
  0
ARC
  5
440A
  8
240
 10
-99.600000000000023
 20
18.17672898013393
 30
0.0
 40
2.2000000000000002
 50
98.297144969835202
 51
180.0
1001
GENIUS_GENOBJ-N-FIL_13
1002
{
1000
OWNER
1000
GEN
1002
}
1001
GENIUS_GENODEF_13
1002
{
1000
HIER
1070
     0
1002
}
1002
{
1000
MANEDIT
1070
     0
1002
}
1002
{
1000
NOSEL
1070
     0
1002
}
1002
{
1000
BEHIND
1070
     0
1002
}
1002
{
1000
OTHER
1070
     0
1002
}
1002
{
1000
REACTOR
1002
}
  0
LINE
  5
440B
  8
240
  6
CONTINUOUS
 10
81.500000000002885
 20
-29.849999999999909
 30
0.0
 11
84.500000000002856
 21
-29.849999999999909
 31
0.0
  0
LINE
  5
440C
  8
240
  6
CONTINUOUS
 10
85.050000000002811
 20
-29.299999999999962
 30
0.0
 11
86.153589838489012
 21
-29.299999999999962
 31
0.0
  0
LINE
  5
440D
  8
240
  6
CONTINUOUS
 10
85.050000000002811
 20
-29.299999999999962
 30
0.0
 11
84.500000000002856
 21
-29.849999999999941
 31
0.0
  0
LINE
  5
440E
  8
240
  6
CONTINUOUS
 10
86.153589838489012
 20
-29.299999999999962
 30
0.0
 11
86.500000000002885
 21
-29.5
 31
0.0
  0
LINE
  5
440F
  8
240
  6
CONTINUOUS
 10
86.500000000002885
 20
-29.49999999999994
 30
0.0
 11
98.800000000002768
 21
-29.499999999999929
 31
0.0
  0
LINE
  5
4410
  8
240
  6
CONTINUOUS
 10
99.750000000002785
 20
-28.549999999999951
 30
0.0
 11
98.800000000002726
 21
-29.49999999999994
 31
0.0
  0
LINE
  5
4411
  8
240
  6
CONTINUOUS
 10
99.750000000002785
 20
-28.549999999999951
 30
0.0
 11
101.10000000000259
 21
-28.549999999999951
 31
0.0
  0
LINE
  5
4412
  8
240
  6
CONTINUOUS
 10
101.10000000000259
 20
-28.549999999999951
 30
0.0
 11
101.8000000000027
 21
-29.24999999999995
 31
0.0
  0
LINE
  5
4413
  8
240
  6
CONTINUOUS
 10
101.8000000000028
 20
-29.24999999999995
 30
0.0
 11
112.3000000000028
 21
-29.24999999999995
 31
0.0
  0
LINE
  5
4414
  8
240
  6
CONTINUOUS
 10
114.1660254037871
 20
-28.74999999999995
 30
0.0
 11
112.3000000000025
 21
-29.24999999999995
 31
0.0
  0
LINE
  5
4415
  8
240
  6
CONTINUOUS
 10
119.1976179419747
 20
-28.309792693426861
 30
0.0
 11
114.1660254037871
 21
-28.74999999999995
 31
0.0
  0
LINE
  5
4416
  8
241
  6
CONTINUOUS
 10
80.500000000002814
 20
27.000000000000028
 30
0.0
 11
80.500000000002814
 21
-26.99999999999989
 31
0.0
  0
LINE
  5
4417
  8
240
  6
CONTINUOUS
 10
80.500000000002842
 20
-26.99999999999989
 30
0.0
 11
80.500000000002842
 21
-28.849999999999909
 31
0.0
  0
ARC
  5
4418
  8
240
  6
CONTINUOUS
 10
81.500000000002885
 20
-28.849999999999909
 30
0.0
 40
1.0
 50
180.0
 51
270.0
1001
ASK_MEN_XD
1005
0
1070
     1
1005
0
1070
     1
  0
LINE
  5
4419
  8
241
  6
CONTINUOUS
 10
99.750000000002785
 20
-28.549999999999951
 30
0.0
 11
99.750000000002785
 21
28.54999999999999
 31
0.0
  0
LINE
  5
441A
  8
241
  6
CONTINUOUS
 10
98.800000000002811
 20
-29.499999999999829
 30
0.0
 11
98.800000000002811
 21
29.499999999999861
 31
0.0
  0
LINE
  5
441B
  8
241
  6
CONTINUOUS
 10
86.500000000002885
 20
-29.5
 30
0.0
 11
86.500000000002885
 21
29.500000000000028
 31
0.0
  0
LINE
  5
441C
  8
241
  6
CONTINUOUS
 10
86.153589838489054
 20
-29.299999999999962
 30
0.0
 11
86.153589838489125
 21
29.299999999999979
 31
0.0
  0
LINE
  5
441D
  8
241
  6
CONTINUOUS
 10
85.050000000002811
 20
-29.299999999999962
 30
0.0
 11
85.050000000002811
 21
29.299999999999979
 31
0.0
  0
LINE
  5
441E
  8
241
  6
CONTINUOUS
 10
84.500000000002856
 20
-29.849999999999909
 30
0.0
 11
84.500000000002856
 21
29.849999999999941
 31
0.0
  0
LINE
  5
441F
  8
241
  6
CONTINUOUS
 10
112.3000000000028
 20
-29.24999999999989
 30
0.0
 11
112.3000000000028
 21
-24.736650706091041
 31
0.0
  0
LINE
  5
4420
  8
241
  6
CONTINUOUS
 10
101.8000000000029
 20
-29.25000000000011
 30
0.0
 11
101.8000000000028
 21
-24.718866753011898
 31
0.0
  0
LINE
  5
4421
  8
241
  6
CONTINUOUS
 10
101.8000000000028
 20
-20.560747385748488
 30
0.0
 11
101.8000000000028
 21
-3.0331501776205401
 31
0.0
  0
LINE
  5
4422
  8
241
  6
CONTINUOUS
 10
101.10000000000259
 20
-28.549999999999951
 30
0.0
 11
101.10000000000259
 21
-24.44054044418024
 31
0.0
  0
LINE
  5
4423
  8
241
  6
CONTINUOUS
 10
101.1000000000025
 20
-20.839073694580168
 30
0.0
 11
101.10000000000259
 21
-2.6248809496811401
 31
0.0
  0
LINE
  5
4424
  8
241
  6
CONTINUOUS
 10
114.1660254037871
 20
-28.74999999999995
 30
0.0
 11
114.1660254037872
 21
-1.2204459116852591
 31
0.0
  0
LINE
  5
4425
  8
241
  6
CONTINUOUS
 10
112.3000000000028
 20
-20.54296343266935
 30
0.0
 11
112.3000000000028
 21
-3.0740852297878392
 31
0.0
  0
ARC
  5
4426
  8
241
  6
CONTINUOUS
 10
111.10000000000279
 20
0.0000000000000568
 30
0.0
 40
3.0
 50
270.0
 51
89.999963675937977
  0
LINE
  5
4427
  8
241
  6
CONTINUOUS
 10
103.1000001332828
 20
-3.2999999999999261
 30
0.0
 11
111.10000000000279
 21
-3.2999999999999541
 31
0.0
  0
ARC
  5
4428
  8
241
  6
CONTINUOUS
 10
111.10000000000279
 20
0.0000000000000568
 30
0.0
 40
3.30000000000001
 50
270.0
 51
89.999963675937977
  0
LINE
  5
4429
  8
241
  6
CONTINUOUS
 10
103.10000000000279
 20
-2.9999999999999432
 30
0.0
 11
111.10000000000279
 21
-2.9999999999999432
 31
0.0
  0
LINE
  5
4458
  8
241
 10
111.97867965644321
 20
-20.518486725820569
 30
0.0
 11
102.2213203435624
 21
-20.518486725820569
 31
0.0
  0
LINE
  5
4459
  8
241
 10
111.97867965644321
 20
-24.761127412939832
 30
0.0
 11
102.21228111114721
 21
-24.7611274129398
 31
0.0
  0
LINE
  5
445A
  8
241
 10
112.00804934055451
 20
-22.884954877723551
 30
0.0
 11
102.2213203435624
 21
-22.884954877723551
 31
0.0
  0
ARC
  5
445B
  8
241
 10
111.97867965644321
 20
-22.6398070693802
 30
0.0
 40
2.1213203435596411
 50
270.0
 51
90.0
  0
ARC
  5
445C
  8
241
 10
102.2213203435624
 20
-22.6398070693802
 30
0.0
 40
2.1213203435596211
 50
90.0
 51
270.0
  0
ARC
  5
445D
  8
241
 10
111.9786796564433
 20
-20.763634534163909
 30
0.0
 40
2.121320343559602
 50
270.0
 51
333.7545090195585
  0
ARC
  5
445E
  8
241
 10
102.2213203435624
 20
-20.763634534163909
 30
0.0
 40
2.1213203435596131
 50
206.2454909804415
 51
270.0
  0
LINE
  5
4465
  8
241
 10
120.28537359489221
 20
-28.000685715484739
 30
0.0
 11
120.28537359489221
 21
28.000685715484739
 31
0.0
  0
ARC
  5
4466
  8
240
 10
124.0000000000025
 20
-23.085786437626901
 30
0.0
 40
1.0
 50
315.0
 51
0.0000000000065138
1001
ASK_MEN_XD
1005
0
1070
     1
1005
0
1070
     1
  0
LINE
  5
4467
  8
240
 10
124.707106781189
 20
-23.79289321881345
 30
0.0
 11
121.0574710572912
 21
-27.442528942711249
 31
0.0
  0
ARC
  5
4468
  8
240
 10
118.93615071373161
 20
-25.321208599151621
 30
0.0
 40
3.0
 50
274.99999999999972
 51
315.0
1001
ASK_MEN_XD
1005
0
1070
     1
1005
0
1070
     1
  0
LINE
  5
4469
  8
240
 10
125.0000000000026
 20
-23.08578643762678
 30
0.0
 11
125.0000000000026
 21
23.085786437626808
 31
0.0
  0
LINE
  5
446C
  8
240
  6
CONTINUOUS
 10
81.500000000002885
 20
29.849999999999941
 30
0.0
 11
84.500000000002856
 21
29.849999999999941
 31
0.0
  0
LINE
  5
446D
  8
240
  6
CONTINUOUS
 10
85.050000000002811
 20
29.299999999999979
 30
0.0
 11
86.153589838489012
 21
29.299999999999979
 31
0.0
  0
LINE
  5
446E
  8
240
  6
CONTINUOUS
 10
85.050000000002811
 20
29.299999999999979
 30
0.0
 11
84.500000000002856
 21
29.849999999999969
 31
0.0
  0
LINE
  5
446F
  8
240
  6
CONTINUOUS
 10
86.153589838489012
 20
29.299999999999979
 30
0.0
 11
86.500000000002885
 21
29.500000000000028
 31
0.0
  0
LINE
  5
4470
  8
240
  6
CONTINUOUS
 10
86.500000000002885
 20
29.499999999999972
 30
0.0
 11
98.800000000002811
 21
29.49999999999994
 31
0.0
  0
LINE
  5
4471
  8
240
  6
CONTINUOUS
 10
99.750000000002785
 20
28.54999999999999
 30
0.0
 11
98.800000000002726
 21
29.499999999999972
 31
0.0
  0
LINE
  5
4472
  8
240
  6
CONTINUOUS
 10
99.750000000002785
 20
28.54999999999999
 30
0.0
 11
101.10000000000259
 21
28.549999999999951
 31
0.0
  0
LINE
  5
4473
  8
240
  6
CONTINUOUS
 10
101.10000000000259
 20
28.549999999999951
 30
0.0
 11
101.8000000000027
 21
29.24999999999995
 31
0.0
  0
LINE
  5
4474
  8
240
  6
CONTINUOUS
 10
101.8000000000028
 20
29.24999999999995
 30
0.0
 11
112.3000000000028
 21
29.24999999999995
 31
0.0
  0
LINE
  5
4475
  8
240
  6
CONTINUOUS
 10
114.1660254037871
 20
28.74999999999995
 30
0.0
 11
112.3000000000025
 21
29.24999999999995
 31
0.0
  0
LINE
  5
4476
  8
240
  6
CONTINUOUS
 10
119.1976179419747
 20
28.309792693426861
 30
0.0
 11
114.1660254037871
 21
28.74999999999995
 31
0.0
  0
LINE
  5
4477
  8
240
  6
CONTINUOUS
 10
80.500000000002842
 20
27.000000000000028
 30
0.0
 11
80.500000000002842
 21
28.849999999999941
 31
0.0
  0
ARC
  5
4478
  8
240
  6
CONTINUOUS
 10
81.500000000002885
 20
28.849999999999941
 30
0.0
 40
1.0
 50
90.0
 51
180.0
1001
ASK_MEN_XD
1005
0
1070
     1
1005
0
1070
     1
  0
LINE
  5
4479
  8
241
  6
CONTINUOUS
 10
112.3000000000028
 20
29.24999999999989
 30
0.0
 11
112.3000000000028
 21
24.736650706091069
 31
0.0
  0
LINE
  5
447A
  8
241
  6
CONTINUOUS
 10
101.8000000000029
 20
29.25000000000011
 30
0.0
 11
101.8000000000028
 21
24.71886675301192
 31
0.0
  0
LINE
  5
447B
  8
241
  6
CONTINUOUS
 10
101.8000000000028
 20
20.560747385748531
 30
0.0
 11
101.8000000000028
 21
3.033150177620568
 31
0.0
  0
LINE
  5
447C
  8
241
  6
CONTINUOUS
 10
101.10000000000259
 20
28.549999999999951
 30
0.0
 11
101.10000000000259
 21
24.440540444180272
 31
0.0
  0
LINE
  5
447D
  8
241
  6
CONTINUOUS
 10
101.1000000000025
 20
20.839073694580211
 30
0.0
 11
101.10000000000259
 21
2.6248809496811689
 31
0.0
  0
LINE
  5
447E
  8
241
  6
CONTINUOUS
 10
114.1660254037871
 20
28.74999999999995
 30
0.0
 11
114.1660254037872
 21
1.220445911685287
 31
0.0
  0
LINE
  5
447F
  8
241
  6
CONTINUOUS
 10
112.3000000000028
 20
20.542963432669389
 30
0.0
 11
112.3000000000028
 21
3.074085229787868
 31
0.0
  0
ARC
  5
4480
  8
241
  6
CONTINUOUS
 10
103.10000000000279
 20
-0.0000000000000284
 30
0.0
 40
3.2999999999999821
 50
89.999997685945246
 51
270.00000112387391
  0
LINE
  5
4481
  8
241
  6
CONTINUOUS
 10
103.1000001332828
 20
3.2999999999999541
 30
0.0
 11
111.10000000000279
 21
3.2999999999999821
 31
0.0
  0
ARC
  5
4482
  8
241
  6
CONTINUOUS
 10
103.10000000000279
 20
-0.0000000000000284
 30
0.0
 40
3.0
 50
90.0
 51
270.00000112387391
  0
LINE
  5
4483
  8
241
  6
CONTINUOUS
 10
103.10000000000279
 20
2.9999999999999711
 30
0.0
 11
111.10000000000279
 21
2.9999999999999711
 31
0.0
  0
LINE
  5
4484
  8
242
  6
CONTINUOUS
 10
110.1684877971894
 20
29.24999999999995
 30
0.0
 11
112.3000000000028
 21
27.118487704015219
 31
0.0
1001
GRPNAME
1000
0000000F
  0
LINE
  5
4485
  8
242
  6
CONTINUOUS
 10
109.0371169720177
 20
29.24999999999995
 30
0.0
 11
112.3000000000028
 21
25.987116829389819
 31
0.0
1001
GRPNAME
1000
0000000F
  0
LINE
  5
4486
  8
242
  6
CONTINUOUS
 10
107.9057461468463
 20
29.24999999999995
 30
0.0
 11
112.3000000000028
 21
24.855745954764469
 31
0.0
1001
GRPNAME
1000
0000000F
  0
LINE
  5
4487
  8
242
  6
CONTINUOUS
 10
106.7743753216746
 20
29.24999999999995
 30
0.0
 11
111.2632477125199
 21
24.76112741293986
 31
0.0
1001
GRPNAME
1000
0000000F
  0
LINE
  5
4488
  8
242
  6
CONTINUOUS
 10
105.6430044965032
 20
29.24999999999995
 30
0.0
 11
110.1318768873483
 21
24.76112741293986
 31
0.0
1001
GRPNAME
1000
0000000F
  0
LINE
  5
4489
  8
242
  6
CONTINUOUS
 10
104.5116336713315
 20
29.24999999999995
 30
0.0
 11
109.0005060621768
 21
24.761127412939832
 31
0.0
1001
GRPNAME
1000
0000000F
  0
LINE
  5
448A
  8
242
  6
CONTINUOUS
 10
103.38026284615999
 20
29.24999999999995
 30
0.0
 11
107.8691352370052
 21
24.76112741293986
 31
0.0
1001
GRPNAME
1000
0000000F
  0
LINE
  5
448B
  8
242
  6
CONTINUOUS
 10
102.24889202098829
 20
29.24999999999995
 30
0.0
 11
106.7377644118336
 21
24.76112741293986
 31
0.0
1001
GRPNAME
1000
0000000F
  0
LINE
  5
448C
  8
242
  6
CONTINUOUS
 10
101.8000000000029
 20
28.567521165981791
 30
0.0
 11
105.60639358666209
 21
24.761127412939832
 31
0.0
1001
GRPNAME
1000
0000000F
  0
LINE
  5
448D
  8
242
  6
CONTINUOUS
 10
101.8000000000028
 20
27.436150291356491
 30
0.0
 11
104.47502276149039
 21
24.76112741293986
 31
0.0
1001
GRPNAME
1000
0000000F
  0
LINE
  5
448E
  8
242
  6
CONTINUOUS
 10
101.8000000000028
 20
26.304779416731119
 30
0.0
 11
103.34365193631891
 21
24.76112741293986
 31
0.0
1001
GRPNAME
1000
0000000F
  0
LINE
  5
448F
  8
242
  6
CONTINUOUS
 10
101.8000000000028
 20
25.173408542105729
 30
0.0
 11
102.2123002882982
 21
24.76110823578799
 31
0.0
1001
GRPNAME
1000
0000000F
  0
LINE
  5
4490
  8
242
  6
CONTINUOUS
 10
107.6929646122469
 20
20.518486725820591
 30
0.0
 11
112.3000000000028
 21
15.91145113668472
 31
0.0
1001
GRPNAME
1000
0000000G
  0
LINE
  5
4491
  8
242
  6
CONTINUOUS
 10
106.5615937870751
 20
20.518486725820591
 30
0.0
 11
112.3000000000028
 21
14.780080262059361
 31
0.0
1001
GRPNAME
1000
0000000G
  0
LINE
  5
4492
  8
242
  6
CONTINUOUS
 10
105.4302229619036
 20
20.518486725820591
 30
0.0
 11
110.9487094465036
 21
14.99999999999997
 31
0.0
1001
GRPNAME
1000
0000000G
  0
LINE
  5
4493
  8
242
  6
CONTINUOUS
 10
104.29885213673209
 20
20.518486725820591
 30
0.0
 11
109.817338621332
 21
14.99999999999997
 31
0.0
1001
GRPNAME
1000
0000000G
  0
LINE
  5
4494
  8
242
  6
CONTINUOUS
 10
103.16748131156039
 20
20.518486725820591
 30
0.0
 11
108.6859677961604
 21
14.99999999999997
 31
0.0
1001
GRPNAME
1000
0000000G
  0
LINE
  5
4495
  8
242
  6
CONTINUOUS
 10
102.02721091830711
 20
20.527386294291372
 30
0.0
 11
107.5545969709889
 21
14.99999999999997
 31
0.0
1001
GRPNAME
1000
0000000G
  0
LINE
  5
4496
  8
242
  6
CONTINUOUS
 10
101.8000000000028
 20
19.623226347902062
 30
0.0
 11
106.4232261458172
 21
14.99999999999997
 31
0.0
1001
GRPNAME
1000
0000000G
  0
LINE
  5
4497
  8
242
  6
CONTINUOUS
 10
101.8000000000028
 20
18.49185547327669
 30
0.0
 11
105.29185532064569
 21
14.99999999999997
 31
0.0
1001
GRPNAME
1000
0000000G
  0
LINE
  5
4498
  8
242
  6
CONTINUOUS
 10
101.8000000000028
 20
17.360484598651279
 30
0.0
 11
104.16048449547399
 21
14.99999999999997
 31
0.0
1001
GRPNAME
1000
0000000G
  0
LINE
  5
4499
  8
242
  6
CONTINUOUS
 10
101.8000000000028
 20
16.22911372402595
 30
0.0
 11
103.02911367030249
 21
14.99999999999997
 31
0.0
1001
GRPNAME
1000
0000000G
  0
LINE
  5
449A
  8
242
  6
CONTINUOUS
 10
101.8000000000028
 20
15.097742849400561
 30
0.0
 11
101.89774284513091
 21
14.99999999999997
 31
0.0
1001
GRPNAME
1000
0000000G
  0
LINE
  5
449B
  8
242
  6
CONTINUOUS
 10
101.8000000000028
 20
27.118487704015202
 30
0.0
 11
103.93151220281619
 21
29.24999999999995
 31
0.0
1001
GRPNAME
1000
0000000H
  0
LINE
  5
449C
  8
242
  6
CONTINUOUS
 10
101.8000000000028
 20
25.987116829389819
 30
0.0
 11
105.06288302798779
 21
29.24999999999995
 31
0.0
1001
GRPNAME
1000
0000000H
  0
LINE
  5
449D
  8
242
  6
CONTINUOUS
 10
101.8000000000028
 20
24.855745954764469
 30
0.0
 11
106.1942538531592
 21
29.24999999999995
 31
0.0
1001
GRPNAME
1000
0000000H
  0
LINE
  5
449E
  8
242
  6
CONTINUOUS
 10
102.8367522874856
 20
24.761127412939832
 30
0.0
 11
107.325624678331
 21
29.24999999999995
 31
0.0
1001
GRPNAME
1000
0000000H
  0
LINE
  5
449F
  8
242
  6
CONTINUOUS
 10
103.9681231126573
 20
24.761127412939832
 30
0.0
 11
108.4569955035024
 21
29.24999999999995
 31
0.0
1001
GRPNAME
1000
0000000H
  0
LINE
  5
44A0
  8
242
  6
CONTINUOUS
 10
105.0994939378289
 20
24.76112741293986
 30
0.0
 11
109.5883663286741
 21
29.24999999999995
 31
0.0
1001
GRPNAME
1000
0000000H
  0
LINE
  5
44A1
  8
242
  6
CONTINUOUS
 10
106.2308647630004
 20
24.76112741293986
 30
0.0
 11
110.7197371538458
 21
29.24999999999995
 31
0.0
1001
GRPNAME
1000
0000000H
  0
LINE
  5
44A2
  8
242
  6
CONTINUOUS
 10
107.3622355881721
 20
24.76112741293986
 30
0.0
 11
111.8511079790174
 21
29.24999999999995
 31
0.0
1001
GRPNAME
1000
0000000H
  0
LINE
  5
44A3
  8
242
  6
CONTINUOUS
 10
108.4936064133436
 20
24.76112741293986
 30
0.0
 11
112.3000000000028
 21
28.567521165981681
 31
0.0
1001
GRPNAME
1000
0000000H
  0
LINE
  5
44A4
  8
242
  6
CONTINUOUS
 10
109.6249772385152
 20
24.76112741293986
 30
0.0
 11
112.3000000000028
 21
27.436150291356309
 31
0.0
1001
GRPNAME
1000
0000000H
  0
LINE
  5
44A5
  8
242
  6
CONTINUOUS
 10
110.7563480636868
 20
24.76112741293986
 30
0.0
 11
112.3000000000028
 21
26.30477941673092
 31
0.0
1001
GRPNAME
1000
0000000H
  0
LINE
  5
44A6
  8
242
  6
CONTINUOUS
 10
111.8877188888584
 20
24.76112741293986
 30
0.0
 11
112.3000000000028
 21
25.173408542105541
 31
0.0
1001
GRPNAME
1000
0000000H
  0
LINE
  5
44A7
  8
242
  6
CONTINUOUS
 10
101.8000000000028
 20
15.92923508976383
 30
0.0
 11
106.389251435457
 21
20.518486725820591
 31
0.0
1001
GRPNAME
1000
0000000I
  0
LINE
  5
44A8
  8
242
  6
CONTINUOUS
 10
102.00213577602869
 20
14.99999999999997
 30
0.0
 11
107.5206222606286
 21
20.518486725820591
 31
0.0
1001
GRPNAME
1000
0000000I
  0
LINE
  5
44A9
  8
242
  6
CONTINUOUS
 10
103.1335066012003
 20
14.99999999999997
 30
0.0
 11
108.6519930858002
 21
20.518486725820591
 31
0.0
1001
GRPNAME
1000
0000000I
  0
LINE
  5
44AA
  8
242
  6
CONTINUOUS
 10
104.264877426372
 20
14.99999999999997
 30
0.0
 11
109.7833639109718
 21
20.518486725820591
 31
0.0
1001
GRPNAME
1000
0000000I
  0
LINE
  5
44AB
  8
242
  6
CONTINUOUS
 10
105.3962482515435
 20
14.99999999999997
 30
0.0
 11
110.9147347361433
 21
20.518486725820591
 31
0.0
1001
GRPNAME
1000
0000000I
  0
LINE
  5
44AC
  8
242
  6
CONTINUOUS
 10
106.5276190767151
 20
14.99999999999997
 30
0.0
 11
112.04721289788139
 21
20.519594062435399
 31
0.0
1001
GRPNAME
1000
0000000I
  0
LINE
  5
44AD
  8
242
  6
CONTINUOUS
 10
107.6589899018867
 20
14.99999999999997
 30
0.0
 11
112.3000000000028
 21
19.641010300981051
 31
0.0
1001
GRPNAME
1000
0000000I
  0
LINE
  5
44AE
  8
242
  6
CONTINUOUS
 10
108.7903607270583
 20
14.99999999999997
 30
0.0
 11
112.3000000000028
 21
18.50963942635569
 31
0.0
1001
GRPNAME
1000
0000000I
  0
LINE
  5
44AF
  8
242
  6
CONTINUOUS
 10
109.9217315522299
 20
14.99999999999997
 30
0.0
 11
112.3000000000028
 21
17.37826855173028
 31
0.0
1001
GRPNAME
1000
0000000I
  0
LINE
  5
44B0
  8
242
  6
CONTINUOUS
 10
111.0531023774015
 20
14.99999999999997
 30
0.0
 11
112.3000000000028
 21
16.246897677104919
 31
0.0
1001
GRPNAME
1000
0000000I
  0
LINE
  5
44B1
  8
242
  6
CONTINUOUS
 10
112.1844732025731
 20
14.99999999999997
 30
0.0
 11
112.3000000000028
 21
15.11552680247951
 31
0.0
1001
GRPNAME
1000
0000000I
  0
LINE
  5
44B2
  8
241
 10
111.97867965644321
 20
20.518486725820591
 30
0.0
 11
102.2213203435624
 21
20.518486725820591
 31
0.0
  0
LINE
  5
44B3
  8
241
 10
111.97867965644321
 20
24.76112741293986
 30
0.0
 11
102.21228111114721
 21
24.761127412939832
 31
0.0
  0
LINE
  5
44B4
  8
241
 10
112.00804934055451
 20
22.884954877723569
 30
0.0
 11
102.2213203435624
 21
22.884954877723569
 31
0.0
  0
ARC
  5
44B5
  8
241
 10
111.97867965644321
 20
22.639807069380218
 30
0.0
 40
2.1213203435596411
 50
270.0
 51
90.0
  0
ARC
  5
44B6
  8
241
 10
102.2213203435624
 20
22.639807069380218
 30
0.0
 40
2.1213203435596211
 50
90.0
 51
270.0
  0
ARC
  5
44B7
  8
241
 10
111.9786796564433
 20
20.763634534163941
 30
0.0
 40
2.121320343559602
 50
26.245490980441492
 51
90.0
  0
ARC
  5
44B8
  8
241
 10
102.2213203435624
 20
20.763634534163941
 30
0.0
 40
2.1213203435596131
 50
90.0
 51
153.7545090195585
  0
LINE
  5
44B9
  8
242
  6
CONTINUOUS
 10
102.1562875272536
 20
17.416893507213931
 30
0.0
 11
105.2578806102854
 21
20.518486725820591
 31
0.0
1001
GRPNAME
1000
0000000H
  0
LINE
  5
44BA
  8
242
  6
CONTINUOUS
 10
101.8000000000028
 20
18.191976839014568
 30
0.0
 11
104.1265097851138
 21
20.518486725820591
 31
0.0
1001
GRPNAME
1000
0000000H
  0
LINE
  5
44BB
  8
242
  6
CONTINUOUS
 10
101.8000000000028
 20
19.323347713639969
 30
0.0
 11
102.9951389599422
 21
20.518486725820591
 31
0.0
1001
GRPNAME
1000
0000000H
  0
LINE
  5
44BC
  8
242
  6
CONTINUOUS
 10
108.8243354374185
 20
20.518486725820591
 30
0.0
 11
112.3000000000028
 21
17.042822011310161
 31
0.0
1001
GRPNAME
1000
0000000F
  0
LINE
  5
44BD
  8
242
  6
CONTINUOUS
 10
109.9557062625901
 20
20.518486725820591
 30
0.0
 11
112.3000000000028
 21
18.17419288593555
 31
0.0
1001
GRPNAME
1000
0000000F
  0
LINE
  5
44BE
  8
242
  6
CONTINUOUS
 10
111.0870770877617
 20
20.518486725820591
 30
0.0
 11
112.3000000000028
 21
19.305563760560968
 31
0.0
1001
GRPNAME
1000
0000000F
  0
ARC
  5
44BF
  8
240
 10
124.0000000000025
 20
23.085786437626918
 30
0.0
 40
1.0
 50
359.99999999999352
 51
45.0
1001
ASK_MEN_XD
1005
0
1070
     1
1005
0
1070
     1
  0
LINE
  5
44C0
  8
240
 10
124.707106781189
 20
23.792893218813479
 30
0.0
 11
121.0574710572912
 21
27.442528942711249
 31
0.0
  0
ARC
  5
44C1
  8
240
 10
118.93615071373161
 20
25.321208599151621
 30
0.0
 40
3.0
 50
45.0
 51
85.000000000000256
1001
ASK_MEN_XD
1005
0
1070
     1
1005
0
1070
     1
  0
LINE
  5
44C2
  8
242
 10
112.3000000000028
 20
28.249858578640591
 30
0.0
 11
111.299858622361
 21
29.24999999999995
 31
0.0
  0
LINE
  5
44C3
  8
242
 10
101.8000000000029
 20
28.249858578640559
 30
0.0
 11
102.80014137764459
 21
29.24999999999995
 31
0.0
  0
LINE
  5
44C6
  8
243
 10
80.366025403784903
 20
12.500000000000449
 30
0.0
 11
125.00000000000171
 21
12.500000000000201
 31
0.0
1001
GRPNAME
1000
PASTMD3T
  0
LINE
  5
44D2
  8
241
 10
40.500000000000597
 20
39.500000000000021
 30
0.0
 11
40.500000000000767
 21
-39.500000000000021
 31
0.0
  0
LINE
  5
44D3
  8
240
 10
54.000000000000583
 20
40.00000000000005
 30
0.0
 11
41.000000000000519
 21
40.0
 31
0.0
  0
LINE
  5
44D4
  8
240
 10
40.50000000000054
 20
39.5
 30
0.0
 11
41.000000000000519
 21
40.0
 31
0.0
1001
GENIUS_GENFIL_13
1070
     0
1040
0.5
1040
0.5
1040
0.4999999999999716
1040
45.000000000004889
1000
~T
  0
LINE
  5
44D5
  8
241
 10
54.50000000000059
 20
39.50000000000005
 30
0.0
 11
54.500000000000647
 21
-39.49999999999973
 31
0.0
  0
ARC
  5
44D6
  8
240
 10
54.000000000000583
 20
39.50000000000005
 30
0.0
 40
0.5
 50
0.0
 51
90.0
1001
GENIUS_GENODEF_13
1002
{
1000
HIER
1070
     0
1002
}
1002
{
1000
MANEDIT
1070
     0
1002
}
1002
{
1000
NOSEL
1070
     0
1002
}
1002
{
1000
BEHIND
1070
     0
1002
}
1002
{
1000
OTHER
1070
     0
1002
}
1002
{
1000
REACTOR
1002
}
1001
GENIUS_GENOBJ-N-FIL_13
1002
{
1000
OWNER
1000
GEN
1002
}
  0
ARC
  5
44D7
  8
240
 10
54.000000000000583
 20
-39.499999999999851
 30
0.0
 40
0.5
 50
270.0
 51
0.0
1001
GENIUS_GENODEF_13
1002
{
1000
HIER
1070
     0
1002
}
1002
{
1000
MANEDIT
1070
     0
1002
}
1002
{
1000
NOSEL
1070
     0
1002
}
1002
{
1000
BEHIND
1070
     0
1002
}
1002
{
1000
OTHER
1070
     0
1002
}
1002
{
1000
REACTOR
1002
}
1001
GENIUS_GENOBJ-N-FIL_13
1002
{
1000
OWNER
1000
GEN
1002
}
  0
LINE
  5
44D8
  8
240
 10
54.000000000000583
 20
-39.999999999999837
 30
0.0
 11
41.000000000000519
 21
-39.99999999999978
 31
0.0
  0
LINE
  5
44D9
  8
240
 10
40.50000000000054
 20
-39.49999999999978
 30
0.0
 11
41.000000000000519
 21
-39.99999999999978
 31
0.0
1001
GENIUS_GENFIL_13
1070
     0
1040
0.4999999999997585
1040
0.4999999999997442
1040
0.4999999999997585
1040
44.999999999996739
1002
{
1002
}
1001
GENIUS_GENOREF_13
1005
0
  0
LINE
  5
44DA
  8
241
 10
54.500000000000647
 20
-15.08021395095281
 30
0.0
 11
40.500000000000703
 21
-15.08021395095281
 31
0.0
  0
LINE
  5
44DB
  8
241
 10
54.500000000000647
 20
-24.54478604904585
 30
0.0
 11
40.500000000000703
 21
-24.54478604904585
 31
0.0
  0
LINE
  5
44DC
  8
241
 10
54.500000000000647
 20
-31.58407000065861
 30
0.0
 11
40.500000000000767
 21
-31.58407000065861
 31
0.0
  0
LINE
  5
44DD
  8
241
 10
54.500000000000647
 20
-37.0484432492579
 30
0.0
 11
40.500000000000767
 21
-37.0484432492579
 31
0.0
  0
POLYLINE
  5
44DE
  8
241
 66
     1
 10
0.0
 20
0.0
 30
0.0
 70
     1
  0
VERTEX
  5
4B47
  8
241
 10
45.000000000000639
 20
33.905084652874891
 30
0.0
  0
VERTEX
  5
4B48
  8
241
 10
45.000000000000639
 20
31.595683576116389
 30
0.0
  0
VERTEX
  5
4B49
  8
241
 10
47.000000000000647
 20
30.440983037737201
 30
0.0
  0
VERTEX
  5
4B4A
  8
241
 10
49.000000000000661
 20
31.595683576116389
 30
0.0
  0
VERTEX
  5
4B4B
  8
241
 10
49.000000000000661
 20
33.905084652874891
 30
0.0
  0
VERTEX
  5
4B4C
  8
241
 10
47.000000000000647
 20
35.059785191254178
 30
0.0
  0
SEQEND
  5
4B4D
  8
241
  0
LINE
  5
44DF
  8
240
 10
78.50000000000162
 20
-33.671572875253361
 30
0.0
 11
78.500000000001492
 21
-27.99999999999994
 31
0.0
  0
LINE
  5
44E0
  8
240
 10
78.500000000000199
 20
28.000000000000089
 30
0.0
 11
78.500000000000028
 21
33.671572875253531
 31
0.0
  0
LINE
  5
44E1
  8
240
 10
72.671572875253815
 20
39.499999999999851
 30
0.0
 11
54.750000000000647
 21
39.500000000000021
 31
0.0
  0
ARC
  5
44E2
  8
240
 10
72.671572875253815
 20
37.499999999999851
 30
0.0
 40
2.0
 50
45.0
 51
90.0
1001
GENIUS_GENODEF_13
1002
{
1000
HIER
1070
     0
1002
}
1002
{
1000
MANEDIT
1070
     0
1002
}
1002
{
1000
NOSEL
1070
     0
1002
}
1002
{
1000
BEHIND
1070
     0
1002
}
1002
{
1000
OTHER
1070
     0
1002
}
1002
{
1000
REACTOR
1002
}
1001
GENIUS_GENOBJ-N-FIL_13
1002
{
1000
OWNER
1000
GEN
1002
}
  0
LINE
  5
44E3
  8
240
 10
77.914213562373135
 20
35.085786437626567
 30
0.0
 11
74.085786437626908
 21
38.914213562372971
 31
0.0
1001
GENIUS_GENFIL_13
1070
     0
1040
5.0
1040
5.0
1040
0.2500000000000284
1040
45.00000000000162
1002
{
1002
}
1001
GENIUS_GENOBJ-N-CHA_13
1002
{
1000
OWNER
1000
GEN
1002
}
1001
GENIUS_GENODEF_13
1002
{
1000
HIER
1070
     0
1002
}
1002
{
1000
MANEDIT
1070
     0
1002
}
1002
{
1000
NOSEL
1070
     0
1002
}
1002
{
1000
BEHIND
1070
     0
1002
}
1002
{
1000
OTHER
1070
     0
1002
}
1002
{
1000
REACTOR
1002
}
  0
ARC
  5
44E4
  8
240
 10
76.500000000000028
 20
33.671572875253482
 30
0.0
 40
2.0
 50
0.0
 51
45.0
1001
GENIUS_GENFIL_13
1070
     0
1040
5.0
1040
5.0
1040
0.2500000000000284
1040
45.00000000000162
1002
{
1002
}
1001
GENIUS_GENOBJ-N-CHA_13
1002
{
1000
OWNER
1000
GEN
1002
}
1001
GENIUS_GENODEF_13
1002
{
1000
HIER
1070
     0
1002
}
1002
{
1000
MANEDIT
1070
     0
1002
}
1002
{
1000
NOSEL
1070
     0
1002
}
1002
{
1000
BEHIND
1070
     0
1002
}
1002
{
1000
OTHER
1070
     0
1002
}
1002
{
1000
REACTOR
1002
}
1001
GENIUS_GENOBJ-N-FIL_13
1002
{
1000
OWNER
1000
GEN
1002
}
  0
LINE
  5
44E5
  8
241
  6
CONTINUOUS
 10
54.500000000000647
 20
39.250000000000021
 30
0.0
 11
54.500000000000647
 21
-39.249999999999972
 31
0.0
  0
LINE
  5
44E6
  8
240
 10
54.750000000000647
 20
39.500000000000021
 30
0.0
 11
54.500000000000647
 21
39.250000000000021
 31
0.0
1001
GENIUS_GENFIL_13
1070
     0
1040
0.25
1040
0.25
1040
0.2500000000000284
1040
45.00000000000162
1002
{
1002
}
1001
GENIUS_GENOBJ-N-CHA_13
1002
{
1000
OWNER
1000
GEN
1002
}
1001
GENIUS_GENODEF_13
1002
{
1000
HIER
1070
     0
1002
}
1002
{
1000
MANEDIT
1070
     0
1002
}
1002
{
1000
NOSEL
1070
     0
1002
}
1002
{
1000
BEHIND
1070
     0
1002
}
1002
{
1000
OTHER
1070
     0
1002
}
1002
{
1000
REACTOR
1002
}
  0
LINE
  5
44E7
  8
240
 10
72.671572875253815
 20
-39.49999999999978
 30
0.0
 11
54.750000000000647
 21
-39.499999999999972
 31
0.0
  0
ARC
  5
44E8
  8
240
 10
72.671572875253815
 20
-37.49999999999978
 30
0.0
 40
2.0
 50
270.0
 51
315.0
1001
GENIUS_GENODEF_13
1002
{
1000
HIER
1070
     0
1002
}
1002
{
1000
MANEDIT
1070
     0
1002
}
1002
{
1000
NOSEL
1070
     0
1002
}
1002
{
1000
BEHIND
1070
     0
1002
}
1002
{
1000
OTHER
1070
     0
1002
}
1002
{
1000
REACTOR
1002
}
1001
GENIUS_GENOBJ-N-FIL_13
1002
{
1000
OWNER
1000
GEN
1002
}
  0
LINE
  5
44E9
  8
240
 10
77.914213562373135
 20
-35.08578643762651
 30
0.0
 11
74.085786437626908
 21
-38.9142135623729
 31
0.0
1001
GENIUS_GENFIL_13
1070
     0
1040
5.0
1040
5.0
1040
0.2500000000000284
1040
45.00000000000162
1002
{
1002
}
1001
GENIUS_GENOBJ-N-CHA_13
1002
{
1000
OWNER
1000
GEN
1002
}
1001
GENIUS_GENODEF_13
1002
{
1000
HIER
1070
     0
1002
}
1002
{
1000
MANEDIT
1070
     0
1002
}
1002
{
1000
NOSEL
1070
     0
1002
}
1002
{
1000
BEHIND
1070
     0
1002
}
1002
{
1000
OTHER
1070
     0
1002
}
1002
{
1000
REACTOR
1002
}
  0
ARC
  5
44EA
  8
240
 10
76.500000000000028
 20
-33.67157287525341
 30
0.0
 40
2.0
 50
315.0
 51
0.0
1001
GENIUS_GENFIL_13
1070
     0
1040
5.0
1040
5.0
1040
0.2500000000000284
1040
45.00000000000162
1002
{
1002
}
1001
GENIUS_GENOBJ-N-CHA_13
1002
{
1000
OWNER
1000
GEN
1002
}
1001
GENIUS_GENODEF_13
1002
{
1000
HIER
1070
     0
1002
}
1002
{
1000
MANEDIT
1070
     0
1002
}
1002
{
1000
NOSEL
1070
     0
1002
}
1002
{
1000
BEHIND
1070
     0
1002
}
1002
{
1000
OTHER
1070
     0
1002
}
1002
{
1000
REACTOR
1002
}
1001
GENIUS_GENOBJ-N-FIL_13
1002
{
1000
OWNER
1000
GEN
1002
}
  0
LINE
  5
44EB
  8
240
 10
54.750000000000647
 20
-39.499999999999972
 30
0.0
 11
54.500000000000647
 21
-39.249999999999972
 31
0.0
1001
GENIUS_GENFIL_13
1070
     0
1040
0.25
1040
0.25
1040
0.2500000000000284
1040
45.00000000000162
1002
{
1002
}
1001
GENIUS_GENOBJ-N-CHA_13
1002
{
1000
OWNER
1000
GEN
1002
}
1001
GENIUS_GENODEF_13
1002
{
1000
HIER
1070
     0
1002
}
1002
{
1000
MANEDIT
1070
     0
1002
}
1002
{
1000
NOSEL
1070
     0
1002
}
1002
{
1000
BEHIND
1070
     0
1002
}
1002
{
1000
OTHER
1070
     0
1002
}
1002
{
1000
REACTOR
1002
}
  0
LINE
  5
44EC
  8
241
 10
73.500000000000028
 20
-39.320359442248687
 30
0.0
 11
73.500000000000028
 21
39.320359442248758
 31
0.0
  0
LINE
  5
44ED
  8
241
 10
55.000000000000639
 20
-3.4426518385323841
 30
0.0
 11
57.000000000000718
 21
-3.4426518385323841
 31
0.0
  0
LINE
  5
44EE
  8
241
 10
55.000000000000639
 20
-6.8591030178436361
 30
0.0
 11
58.000000000000711
 21
-6.8591030178436361
 31
0.0
  0
LINE
  5
44EF
  8
241
 10
55.000000000000639
 20
-10.22335228154944
 30
0.0
 11
57.000000000000718
 21
-10.22335228154944
 31
0.0
  0
LINE
  5
44F0
  8
241
 10
55.000000000000639
 20
-13.509795661363819
 30
0.0
 11
58.000000000000711
 21
-13.509795661363819
 31
0.0
  0
LINE
  5
44F1
  8
241
 10
55.000000000000639
 20
-16.693421338757471
 30
0.0
 11
57.000000000000718
 21
-16.693421338757471
 31
0.0
  0
LINE
  5
44F2
  8
241
 10
55.000000000000639
 20
-19.749999999999801
 30
0.0
 11
58.000000000000711
 21
-19.749999999999801
 31
0.0
  0
LINE
  5
44F3
  8
241
 10
55.000000000000639
 20
-22.656269235866169
 30
0.0
 11
57.000000000000718
 21
-22.656269235866169
 31
0.0
  0
LINE
  5
44F4
  8
241
 10
55.000000000000639
 20
-25.390110582618181
 30
0.0
 11
58.000000000000711
 21
-25.390110582618181
 31
0.0
  0
LINE
  5
44F5
  8
241
 10
55.000000000000639
 20
-27.93071785686843
 30
0.0
 11
57.000000000000718
 21
-27.93071785686843
 31
0.0
  0
LINE
  5
44F6
  8
241
 10
55.000000000000639
 20
-30.25875550319941
 30
0.0
 11
58.000000000000711
 21
-30.25875550319941
 31
0.0
  0
LINE
  5
44F7
  8
241
 10
55.000000000000639
 20
-32.356505749415
 30
0.0
 11
57.000000000000718
 21
-32.356505749415
 31
0.0
  0
LINE
  5
44F8
  8
241
 10
55.000000000000639
 20
-34.208003449485119
 30
0.0
 11
58.000000000000711
 21
-34.208003449485119
 31
0.0
  0
LINE
  5
44F9
  8
241
 10
55.000000000000639
 20
-35.799157587947469
 30
0.0
 11
57.000000000000718
 21
-35.799157587947469
 31
0.0
  0
LINE
  5
44FA
  8
241
 10
55.000000000000639
 20
-37.117858521043132
 30
0.0
 11
58.000000000000711
 21
-37.117858521043132
 31
0.0
  0
LINE
  5
44FB
  8
241
 10
55.000000000000639
 20
-38.154070138418007
 30
0.0
 11
57.000000000000718
 21
-38.154070138418007
 31
0.0
  0
LINE
  5
44FC
  8
241
 10
55.000000000000639
 20
-38.899906243981988
 30
0.0
 11
58.000000000000711
 21
-38.899906243981988
 31
0.0
  0
CIRCLE
  5
44FE
  8
241
 10
47.000000000000647
 20
32.750384114495702
 30
0.0
 40
3.9999999999999871
  0
ARC
  5
44FF
  8
241
 10
47.000000000000647
 20
32.750384114495702
 30
0.0
 40
4.25
 50
180.0
 51
0.0
1001
GENIUS_GENOBJ-N-FIL_13
1002
{
1000
OWNER
1000
GEN
1002
}
1001
GENIUS_GENODEF_13
1002
{
1000
HIER
1070
     0
1002
}
1002
{
1000
MANEDIT
1070
     0
1002
}
1002
{
1000
NOSEL
1070
     0
1002
}
1002
{
1000
BEHIND
1070
     0
1002
}
1002
{
1000
OTHER
1070
     0
1002
}
1002
{
1000
REACTOR
1002
}
  0
LINE
  5
4500
  8
241
 10
42.750000000000647
 20
37.500384114495688
 30
0.0
 11
51.250000000000639
 21
37.500384114495688
 31
0.0
  0
LINE
  5
4501
  8
241
 10
42.750000000000647
 20
37.500384114495688
 30
0.0
 11
42.750000000000647
 21
32.750384114495702
 31
0.0
  0
LINE
  5
4502
  8
241
 10
51.250000000000639
 20
37.500384114495688
 30
0.0
 11
51.250000000000639
 21
32.750384114495702
 31
0.0
  0
LINE
  5
4503
  8
241
 10
54.500000000000647
 20
-5.4643732485986893
 30
0.0
 11
40.500000000000703
 21
-5.4643732485986893
 31
0.0
  0
LINE
  5
4504
  8
241
 10
55.000000000000639
 20
-0.0000000000000284
 30
0.0
 11
58.000000000000711
 21
-0.0000000000000284
 31
0.0
  0
LINE
  5
4505
  8
241
 10
55.000000000000639
 20
3.4426518385323259
 30
0.0
 11
57.000000000000718
 21
3.4426518385323259
 31
0.0
  0
LINE
  5
4506
  8
241
 10
55.000000000000639
 20
6.8591030178435801
 30
0.0
 11
58.000000000000711
 21
6.8591030178435801
 31
0.0
  0
LINE
  5
4507
  8
241
 10
55.000000000000639
 20
10.22335228154938
 30
0.0
 11
57.000000000000718
 21
10.22335228154938
 31
0.0
  0
LINE
  5
4508
  8
241
 10
55.000000000000639
 20
13.50979566136377
 30
0.0
 11
58.000000000000711
 21
13.50979566136377
 31
0.0
  0
LINE
  5
4509
  8
241
 10
55.000000000000639
 20
16.693421338757421
 30
0.0
 11
57.000000000000718
 21
16.693421338757421
 31
0.0
  0
LINE
  5
450A
  8
241
 10
55.000000000000639
 20
19.749999999999741
 30
0.0
 11
58.000000000000711
 21
19.749999999999741
 31
0.0
  0
LINE
  5
450B
  8
241
 10
55.000000000000639
 20
22.65626923586612
 30
0.0
 11
57.000000000000718
 21
22.65626923586612
 31
0.0
  0
LINE
  5
450C
  8
241
 10
55.000000000000639
 20
25.390110582618121
 30
0.0
 11
58.000000000000711
 21
25.390110582618121
 31
0.0
  0
LINE
  5
450D
  8
241
 10
55.000000000000639
 20
27.93071785686838
 30
0.0
 11
57.000000000000718
 21
27.93071785686838
 31
0.0
  0
LINE
  5
450E
  8
241
 10
55.000000000000639
 20
30.25875550319935
 30
0.0
 11
58.000000000000711
 21
30.25875550319935
 31
0.0
  0
LINE
  5
450F
  8
241
 10
55.000000000000639
 20
32.356505749414943
 30
0.0
 11
57.000000000000718
 21
32.356505749414943
 31
0.0
  0
LINE
  5
4510
  8
241
 10
55.000000000000639
 20
34.208003449485069
 30
0.0
 11
58.000000000000711
 21
34.208003449485069
 31
0.0
  0
LINE
  5
4511
  8
241
 10
55.000000000000639
 20
35.799157587947398
 30
0.0
 11
57.000000000000718
 21
35.799157587947398
 31
0.0
  0
LINE
  5
4512
  8
241
 10
55.000000000000639
 20
37.117858521043082
 30
0.0
 11
58.000000000000711
 21
37.117858521043082
 31
0.0
  0
LINE
  5
4513
  8
241
 10
55.000000000000639
 20
38.154070138417957
 30
0.0
 11
57.000000000000718
 21
38.154070138417957
 31
0.0
  0
LINE
  5
4514
  8
241
 10
55.000000000000639
 20
38.899906243981931
 30
0.0
 11
58.000000000000711
 21
38.899906243981931
 31
0.0
  0
LINE
  5
4516
  8
243
 10
80.366025403784903
 20
-12.500000000000229
 30
0.0
 11
125.00000000000171
 21
-12.49999999999997
 31
0.0
1001
GRPNAME
1000
PASTMD3T
  0
LINE
  5
4536
  8
240
  6
CONTINUOUS
 10
78.50000000000081
 20
-27.99999999999994
 30
0.0
 11
79.50000000000081
 21
-27.99999999999989
 31
0.0
  0
ARC
  5
4537
  8
240
  6
CONTINUOUS
 10
79.50000000000081
 20
-26.99999999999989
 30
0.0
 40
1.0
 50
270.0
 51
0.0
  0
LINE
  5
4538
  8
241
 10
78.50000000000081
 20
-27.99999999999994
 30
0.0
 11
78.50000000000081
 21
28.000000000000089
 31
0.0
  0
ARC
  5
4539
  8
240
  6
CONTINUOUS
 10
79.50000000000081
 20
27.000000000000028
 30
0.0
 40
1.0
 50
0.0
 51
90.0
  0
LINE
  5
453A
  8
240
  6
CONTINUOUS
 10
78.50000000000081
 20
28.000000000000089
 30
0.0
 11
79.50000000000081
 21
28.000000000000028
 31
0.0
  0
LINE
  5
453E
  8
241
 10
54.500000000000647
 20
5.4643732485986893
 30
0.0
 11
40.500000000000703
 21
5.4643732485986893
 31
0.0
  0
ARC
  5
4600
  8
240
 10
36.699999999989032
 20
48.700000000003392
 30
0.0
 40
1.30000000000001
 50
0.0000000000126937
 51
90.000000000012705
  0
LINE
  5
4601
  8
240
 10
37.999999999989051
 20
48.700000000003683
 30
0.0
 11
37.999999999990983
 21
40.481472005089103
 31
0.0
  0
ARC
  5
4602
  8
240
 10
2.4999999999875522
 20
48.999999999995772
 30
0.0
 40
1.0
 50
90.000000000012705
 51
180.0000000000158
  0
LINE
  5
4603
  8
240
 10
1.499999999987552
 20
48.999999999995502
 30
0.0
 11
1.4999999999906699
 21
34.925000000000068
 31
0.0
  0
LINE
  5
4604
  8
240
 10
30.587307764260871
 20
49.740192378867
 30
0.0
 11
26.493783285717761
 21
42.650000000000347
 31
0.0
  0
LINE
  5
4605
  8
240
 10
31.037307764260792
 20
50.000000000002387
 30
0.0
 11
30.587307764260871
 21
49.740192378867
 31
0.0
  0
LINE
  5
4606
  8
240
 10
36.699999999988741
 20
50.000000000003247
 30
0.0
 11
31.037307764259939
 21
50.000000000001883
 31
0.0
  0
LINE
  5
4607
  8
240
 10
19.906216714264971
 20
42.649999999999039
 30
0.0
 11
15.812692235720251
 21
49.740192378862382
 31
0.0
  0
LINE
  5
4608
  8
240
 10
2.499999999987331
 20
49.999999999995552
 30
0.0
 11
15.36269223571839
 21
49.999999999998678
 31
0.0
  0
LINE
  5
4609
  8
240
 10
31.037307764272871
 20
49.999999999999723
 30
0.0
 11
30.587307764272872
 21
49.740192378864442
 31
0.0
  0
LINE
  5
460A
  8
240
 10
15.362692235732281
 20
49.999999999998721
 30
0.0
 11
15.812692235732269
 21
49.740192378863377
 31
0.0
  0
TEXT
  5
465D
  8
241
 10
-85.745533141678592
 20
84.000000000000028
 30
0.0
 40
5.0
  1
BBT50-HMC25S-125NRA
  7
YOKO
  0
LINE
  5
465E
  8
241
 10
15.700000000000729
 20
-49.999999999999929
 30
0.0
 11
15.700000000000729
 21
50.000000000000071
 31
0.0
  0
LINE
  5
465F
  8
241
 10
30.700000000000731
 20
-49.999999999999929
 30
0.0
 11
30.700000000000731
 21
50.000000000000071
 31
0.0
  0
LINE
  5
46C1
  8
250
 10
-0.0000000000213165
 20
35.424999999990312
 30
0.0
 11
-0.0000000000213143
 21
71.0
 31
0.0
  0
LINE
  5
46C2
  8
250
 10
124.9999999999891
 20
23.58578643769053
 30
0.0
 11
124.9999999999891
 21
71.0
 31
0.0
  0
LINE
  5
46C3
  8
250
 10
2.229999999978685
 20
70.0
 30
0.0
 11
122.769999999989
 21
70.0
 31
0.0
  0
LINE
  5
46C8
  8
250
 10
125.0000000000026
 20
23.585786437626808
 30
0.0
 11
125.0000000000026
 21
57.0
 31
0.0
  0
LINE
  5
46C9
  8
250
 10
80.366025403784704
 20
13.000000000000449
 30
0.0
 11
80.366025403784704
 21
57.0
 31
0.0
  0
LINE
  5
46CA
  8
250
 10
122.7700000000026
 20
56.0
 30
0.0
 11
82.596025403784708
 21
56.0
 31
0.0
  0
LINE
  5
46CE
  8
250
 10
125.0000000000026
 20
23.585786437626808
 30
0.0
 11
125.0000000000026
 21
64.0
 31
0.0
  0
LINE
  5
46CF
  8
250
 10
35.000000000000597
 20
13.50000000000011
 30
0.0
 11
35.000000000000597
 21
64.0
 31
0.0
  0
LINE
  5
46D0
  8
250
 10
122.7700000000026
 20
63.0
 30
0.0
 11
37.230000000000587
 21
63.0
 31
0.0
  0
LINE
  5
46D4
  8
250
 10
85.000000000002856
 20
29.849999999999969
 30
0.0
 11
148.08826215206321
 21
29.849999999999952
 31
0.0
  0
LINE
  5
46D5
  8
250
 10
85.000000000002842
 20
-29.849999999999909
 30
0.0
 11
148.08826215206321
 21
-29.84999999999993
 31
0.0
  0
LINE
  5
46D6
  8
250
 10
147.08826215206321
 20
27.619999999999951
 30
0.0
 11
147.08826215206321
 21
-27.61999999999993
 31
0.0
  0
LINE
  5
46DA
  8
250
 10
125.50000000000161
 20
12.500000000000201
 30
0.0
 11
141.0
 21
12.50000000000019
 31
0.0
  0
LINE
  5
46DB
  8
250
 10
125.50000000000161
 20
-12.49999999999997
 30
0.0
 11
141.0
 21
-12.49999999999998
 31
0.0
  0
LINE
  5
46DC
  8
250
 10
140.0
 20
10.27000000000019
 30
0.0
 11
140.0
 21
-10.26999999999996
 31
0.0
  0
TEXT
  5
46E2
  8
250
 10
-67.354401241801469
 20
-42.570345964537722
 30
0.0
 40
3.0
  1
BBT50
  7
YOKO
1001
ITEMNAME
1000
LNSP3
  0
LINE
  5
46E3
  8
250
 10
-43.350482547834112
 20
-30.696895445546769
 30
0.0
 11
-50.782972670372892
 21
-43.570345964537736
 31
0.0
1001
ACAD
1000
DSTYLE
1002
{
1070
    78
1070
     8
1070
   140
1040
3.0
1002
}
  0
LINE
  5
46E4
  8
250
 10
-43.672355322907322
 20
-30.51106211221343
 30
0.0
 11
-42.23548254783411
 21
-28.76565879510747
 31
0.0
  0
LINE
  5
46E5
  8
250
 10
-43.028609772760888
 20
-30.8827287788801
 30
0.0
 11
-42.23548254783411
 21
-28.76565879510747
 31
0.0
  0
LINE
  5
46E6
  8
250
 10
-42.23548254783411
 20
-28.76565879510747
 30
0.0
 11
-43.350482547834112
 21
-30.696895445546769
 31
0.0
  0
TEXT
  5
46E7
  8
250
 10
58.299999999983882
 20
71.000000000000014
 30
0.0
 40
2.799999999999998
  1
125
  0
LINE
  5
46E8
  8
250
 10
122.769999999989
 20
70.37166666666667
 30
0.0
 11
124.9999999999891
 21
70.0
 31
0.0
  0
LINE
  5
46E9
  8
250
 10
122.769999999989
 20
69.62833333333333
 30
0.0
 11
124.9999999999891
 21
70.0
 31
0.0
  0
LINE
  5
46EA
  8
250
 10
124.9999999999891
 20
70.0
 30
0.0
 11
122.769999999989
 21
70.0
 31
0.0
  0
LINE
  5
46EB
  8
250
 10
2.229999999978685
 20
69.62833333333333
 30
0.0
 11
-0.0000000000213144
 21
70.0
 31
0.0
  0
LINE
  5
46EC
  8
250
 10
2.229999999978685
 20
70.37166666666667
 30
0.0
 11
-0.0000000000213144
 21
70.0
 31
0.0
  0
LINE
  5
46ED
  8
250
 10
-0.0000000000213144
 20
70.0
 30
0.0
 11
2.229999999978685
 21
70.0
 31
0.0
  0
TEXT
  5
46EE
  8
250
 10
91.816346035226999
 20
57.0
 30
0.0
 40
2.799999999999998
  1
最低把握長45
  0
LINE
  5
46EF
  8
250
 10
82.596025403784708
 20
55.62833333333333
 30
0.0
 11
80.366025403784704
 21
56.0
 31
0.0
  0
LINE
  5
46F0
  8
250
 10
82.596025403784708
 20
56.37166666666667
 30
0.0
 11
80.366025403784704
 21
56.0
 31
0.0
  0
LINE
  5
46F1
  8
250
 10
80.366025403784704
 20
56.0
 30
0.0
 11
82.596025403784708
 21
56.0
 31
0.0
  0
LINE
  5
46F2
  8
250
 10
122.7700000000026
 20
56.37166666666667
 30
0.0
 11
125.0000000000026
 21
56.0
 31
0.0
  0
LINE
  5
46F3
  8
250
 10
122.7700000000026
 20
55.62833333333333
 30
0.0
 11
125.0000000000026
 21
56.0
 31
0.0
  0
LINE
  5
46F4
  8
250
 10
125.0000000000026
 20
56.0
 30
0.0
 11
122.7700000000026
 21
56.0
 31
0.0
  0
TEXT
  5
46F5
  8
250
 10
69.133333333334946
 20
64.000000000000014
 30
0.0
 40
2.799999999999998
  1
最大挿入量90
  0
LINE
  5
46F6
  8
250
 10
37.230000000000587
 20
62.62833333333333
 30
0.0
 11
35.000000000000597
 21
63.0
 31
0.0
  0
LINE
  5
46F7
  8
250
 10
37.230000000000587
 20
63.37166666666667
 30
0.0
 11
35.000000000000597
 21
63.0
 31
0.0
  0
LINE
  5
46F8
  8
250
 10
35.000000000000597
 20
63.0
 30
0.0
 11
37.230000000000587
 21
63.0
 31
0.0
  0
LINE
  5
46F9
  8
250
 10
122.7700000000026
 20
63.37166666666667
 30
0.0
 11
125.0000000000026
 21
63.0
 31
0.0
  0
LINE
  5
46FA
  8
250
 10
122.7700000000026
 20
62.62833333333333
 30
0.0
 11
125.0000000000026
 21
63.0
 31
0.0
  0
LINE
  5
46FB
  8
250
 10
125.0000000000026
 20
63.0
 30
0.0
 11
122.7700000000026
 21
63.0
 31
0.0
  0
LINE
  5
46FC
  8
250
 10
147.45992881872979
 20
-27.61999999999993
 30
0.0
 11
147.08826215206321
 21
-29.84999999999993
 31
0.0
  0
LINE
  5
46FD
  8
250
 10
146.71659548539651
 20
-27.61999999999993
 30
0.0
 11
147.08826215206321
 21
-29.84999999999993
 31
0.0
  0
LINE
  5
46FE
  8
250
 10
147.08826215206321
 20
-29.84999999999993
 30
0.0
 11
147.08826215206321
 21
-27.61999999999993
 31
0.0
  0
LINE
  5
46FF
  8
250
 10
146.71659548539651
 20
27.619999999999951
 30
0.0
 11
147.08826215206321
 21
29.849999999999952
 31
0.0
  0
LINE
  5
4700
  8
250
 10
147.45992881872979
 20
27.619999999999951
 30
0.0
 11
147.08826215206321
 21
29.849999999999952
 31
0.0
  0
LINE
  5
4701
  8
250
 10
147.08826215206321
 20
29.849999999999952
 30
0.0
 11
147.08826215206321
 21
27.619999999999951
 31
0.0
  0
TEXT
  5
4702
  8
250
 10
145.58215111893699
 20
-6.5560311354253091
 30
0.0
 40
2.799999999999998
  1
\U+220559.7
 50
90.0
  0
LINE
  5
4703
  8
250
 10
140.3716666666667
 20
-10.26999999999996
 30
0.0
 11
140.0
 21
-12.49999999999998
 31
0.0
  0
LINE
  5
4704
  8
250
 10
139.62833333333339
 20
-10.26999999999996
 30
0.0
 11
140.0
 21
-12.49999999999998
 31
0.0
  0
LINE
  5
4705
  8
250
 10
140.0
 20
-12.49999999999998
 30
0.0
 11
140.0
 21
-10.26999999999996
 31
0.0
  0
LINE
  5
4706
  8
250
 10
139.62833333333339
 20
10.27000000000019
 30
0.0
 11
140.0
 21
12.50000000000019
 31
0.0
  0
LINE
  5
4707
  8
250
 10
140.3716666666667
 20
10.27000000000019
 30
0.0
 11
140.0
 21
12.50000000000019
 31
0.0
  0
LINE
  5
4708
  8
250
 10
140.0
 20
12.50000000000019
 30
0.0
 11
140.0
 21
10.27000000000019
 31
0.0
  0
TEXT
  5
4709
  8
250
 10
138.66104765402031
 20
-4.1490435226006603
 30
0.0
 40
2.799999999999998
  1
\U+220525
 50
90.0
  0
LINE
  5
4CAB
  8
240
 10
0.0
 20
34.925000000000068
 30
0.0
 11
1.4999999999906699
 21
34.925000000000068
 31
0.0
  0
LINE
  5
4CAC
  8
240
 10
0.0
 20
-34.92499999999994
 30
0.0
 11
1.4999999999984071
 21
-34.92499999999994
 31
0.0
  0
LINE
  5
4CAD
  8
243
 10
34.0
 20
35.399999999999949
 30
0.0
 11
33.999999999999773
 21
50.000000000000121
 31
0.0
  0
VIEWPORT
  5
22
 67
     1
  8
0
 10
261.51769911504419
 20
148.5
 30
0.0
 40
523.0353982300885
 41
297.0
 68
     1
 69
     1
1001
ACAD
1000
MVIEW
1002
{
1070
    16
1010
0.0
1020
0.0
1030
0.0
1010
0.0
1020
0.0
1030
1.0
1040
0.0
1040
297.0
1040
261.51769911504419
1040
148.5
1040
50.0
1040
0.0
1040
0.0
1070
     0
1070
   100
1070
     1
1070
     1
1070
     0
1070
     0
1070
     0
1070
     0
1040
0.0
1040
0.0
1040
0.0
1040
1.0
1040
1.0
1040
10.0
1040
10.0
1070
     0
1002
{
1002
}
1002
}
1001
GENIUS_GENODEF_13
1002
{
1000
HIER
1070
     0
1002
}
1002
{
1000
MANEDIT
1070
     0
1002
}
1002
{
1000
NOSEL
1070
     0
1002
}
1002
{
1000
BEHIND
1070
     0
1002
}
1002
{
1000
OTHER
1070
     0
1002
}
1002
{
1000
REACTOR
1002
}
1001
GENIUS_GENOBJ-N-SDF_13
1002
{
1000
OWNER
1000
GEN
1002
}
1001
GENIUS_GENSCREG_15
1000
PF
1040
1.0
1000
DF
1040
1.0
1000
MIN
1011
0.0
1021
0.0
1031
0.0
1021
0.0
1031
0.0
1000
MAX
1011
523.0353982300885
1021
0.0
1031
0.0
1021
297.0
1031
0.0
1000
FLAGS
1070
     4
  0
ENDSEC
  0
EOF
