  0
SECTION
  2
HEADER
  9
$ACADVER
  1
AC1009
  9
$INSBASE
 10
0.0
 20
0.0
 30
0.0
  9
$EXTMIN
 10
-103.8113245025874
 20
-59.511107978773168
 30
-0.0015258207003583
  9
$EXTMAX
 10
318.50020253999998
 20
104.0256643977731
 30
0.0000000349246037
  9
$LIMMIN
 10
0.0
 20
0.0
  9
$LIMMAX
 10
297.0
 20
210.0
  9
$ORTHOMODE
 70
     0
  9
$REGENMODE
 70
     1
  9
$FILLMODE
 70
     1
  9
$QTEXTMODE
 70
     0
  9
$MIRRTEXT
 70
     1
  9
$DRAGMODE
 70
     2
  9
$LTSCALE
 40
10.0
  9
$OSMODE
 70
  3071
  9
$ATTMODE
 70
     1
  9
$TEXTSIZE
 40
5.0
  9
$TRACEWID
 40
1.0
  9
$TEXTSTYLE
  7
YOKO
  9
$CLAYER
  8
240
  9
$CELTYPE
  6
BYLAYER
  9
$CECOLOR
 62
   256
  9
$DIMSCALE
 40
1.0
  9
$DIMASZ
 40
2.2299999999999991
  9
$DIMEXO
 40
0.5
  9
$DIMDLI
 40
7.0
  9
$DIMRND
 40
0.0
  9
$DIMDLE
 40
0.0
  9
$DIMEXE
 40
1.0
  9
$DIMTP
 40
0.0
  9
$DIMTM
 40
0.01
  9
$DIMTXT
 40
2.7999999999999989
  9
$DIMCEN
 40
0.0
  9
$DIMTSZ
 40
0.0
  9
$DIMTOL
 70
     0
  9
$DIMLIM
 70
     0
  9
$DIMTIH
 70
     0
  9
$DIMTOH
 70
     0
  9
$DIMSE1
 70
     0
  9
$DIMSE2
 70
     0
  9
$DIMTAD
 70
     3
  9
$DIMZIN
 70
     9
  9
$DIMBLK
  1
OPEN
  9
$DIMASO
 70
     1
  9
$DIMSHO
 70
     1
  9
$DIMPOST
  1

  9
$DIMAPOST
  1

  9
$DIMALT
 70
     0
  9
$DIMALTD
 70
     2
  9
$DIMALTF
 40
25.399999999999999
  9
$DIMLFAC
 40
1.0
  9
$DIMTOFL
 70
     1
  9
$DIMTVP
 40
0.0
  9
$DIMTIX
 70
     1
  9
$DIMSOXD
 70
     0
  9
$DIMSAH
 70
     0
  9
$DIMBLK1
  1

  9
$DIMBLK2
  1

  9
$DIMSTYLE
  2
BIGT
  9
$DIMCLRD
 70
   256
  9
$DIMCLRE
 70
   256
  9
$DIMCLRT
 70
    40
  9
$DIMTFAC
 40
1.0
  9
$DIMGAP
 40
1.0
  9
$LUNITS
 70
     2
  9
$LUPREC
 70
     3
  9
$SKETCHINC
 40
1.0
  9
$FILLETRAD
 40
0.0
  9
$AUNITS
 70
     0
  9
$AUPREC
 70
     3
  9
$MENU
  1
.
  9
$ELEVATION
 40
0.0
  9
$PELEVATION
 40
0.0
  9
$THICKNESS
 40
0.0
  9
$LIMCHECK
 70
     0
  9
$BLIPMODE
 70
     0
  9
$CHAMFERA
 40
0.25
  9
$CHAMFERB
 40
0.25
  9
$SKPOLY
 70
     0
  9
$TDCREATE
 40
2455796.5876406129
  9
$TDUPDATE
 40
2455796.5972443642
  9
$TDINDWG
 40
0.0096050116
  9
$TDUSRTIMER
 40
0.0096050116
  9
$USRTIMER
 70
     1
  9
$ANGBASE
 50
0.0
  9
$ANGDIR
 70
     0
  9
$PDMODE
 70
     1
  9
$PDSIZE
 40
0.0
  9
$PLINEWID
 40
0.0
  9
$COORDS
 70
     0
  9
$SPLFRAME
 70
     0
  9
$SPLINETYPE
 70
     6
  9
$SPLINESEGS
 70
     4
  9
$ATTDIA
 70
     1
  9
$ATTREQ
 70
     1
  9
$HANDLING
 70
     1
  9
$HANDSEED
  5
1C85
  9
$SURFTAB1
 70
     6
  9
$SURFTAB2
 70
     6
  9
$SURFTYPE
 70
     6
  9
$SURFU
 70
     6
  9
$SURFV
 70
     6
  9
$UCSNAME
  2

  9
$UCSORG
 10
0.0
 20
0.0
 30
0.0
  9
$UCSXDIR
 10
1.0
 20
0.0
 30
0.0
  9
$UCSYDIR
 10
0.0
 20
1.0
 30
0.0
  9
$PUCSNAME
  2

  9
$PUCSORG
 10
0.0
 20
0.0
 30
0.0
  9
$PUCSXDIR
 10
1.0
 20
0.0
 30
0.0
  9
$PUCSYDIR
 10
0.0
 20
1.0
 30
0.0
  9
$USERI1
 70
     1
  9
$USERI2
 70
     0
  9
$USERI3
 70
     0
  9
$USERI4
 70
     0
  9
$USERI5
 70
     0
  9
$USERR1
 40
0.0
  9
$USERR2
 40
0.0
  9
$USERR3
 40
0.0
  9
$USERR4
 40
0.0
  9
$USERR5
 40
0.0
  9
$WORLDVIEW
 70
     1
  9
$SHADEDGE
 70
     3
  9
$SHADEDIF
 70
    70
  9
$TILEMODE
 70
     1
  9
$MAXACTVP
 70
    16
  9
$PLIMCHECK
 70
     0
  9
$PEXTMIN
 10
1.0000000000000000E+020
 20
1.0000000000000000E+020
 30
1.0000000000000000E+020
  9
$PEXTMAX
 10
-1.0000000000000000E+020
 20
-1.0000000000000000E+020
 30
-1.0000000000000000E+020
  9
$PLIMMIN
 10
0.0
 20
0.0
  9
$PLIMMAX
 10
420.0
 20
297.0
  9
$UNITMODE
 70
     0
  9
$VISRETAIN
 70
     1
  9
$PLINEGEN
 70
     0
  9
$PSLTSCALE
 70
     1
  0
ENDSEC
  0
SECTION
  2
TABLES
  0
TABLE
  2
VPORT
 70
    88
  0
VPORT
  2
*ACTIVE
 70
     0
 10
0.0
 20
0.0
 11
1.0
 21
1.0
 12
103.87999630004551
 22
1.857147965627149
 13
0.0
 23
0.0
 14
7.0
 24
7.0
 15
7.0
 25
7.0
 16
0.0
 26
0.0
 36
1.0
 17
0.0
 27
0.0
 37
0.0
 40
325.915371515971
 41
1.477321814254859
 42
50.0
 43
0.0
 44
0.0
 50
0.0
 51
0.0
 71
     0
 72
  2000
 73
     1
 74
     0
 75
     0
 76
     0
 77
     0
 78
     0
  0
ENDTAB
  0
TABLE
  2
LTYPE
 70
    14
  0
LTYPE
  2
CONTINUOUS
 70
     0
  3
Solid line
 72
    65
 73
     0
 40
0.0
  0
LTYPE
  2
CENTER2
 70
     0
  3
___ _ ___ _ ___ _ ___ _ ___ _ ___ _ ___ _ ___ _
 72
    65
 73
     4
 40
1.125
 49
0.75
 49
-0.125
 49
0.125
 49
-0.125
  0
LTYPE
  2
HIDDEN2
 70
     0
  3
_ _ _ _ _ _ _ _ _ _ _ _ _ _ _ _ _ _ _ _ _ _ _ _
 72
    65
 73
     2
 40
0.1875
 49
0.125
 49
-0.0625
  0
LTYPE
  2
PHANTOM2
 70
     0
  3
___ _ _ ___ _ _ ___ _ _ ___ _ _ ___ _ _ ___ _ _
 72
    65
 73
     6
 40
1.25
 49
0.625
 49
-0.125
 49
0.125
 49
-0.125
 49
0.125
 49
-0.125
  0
LTYPE
  2
CENTER
 70
     0
  3
____ _ ____ _ ____ _ ____ _ ____ _ ____ _ ____ 
 72
    65
 73
     4
 40
2.0
 49
1.25
 49
-0.25
 49
0.25
 49
-0.25
  0
LTYPE
  2
AM_ISO02W050
 70
     0
  3
__ __ __ __ __ __ __ __ __ __ __ __ __ __ __
 72
    65
 73
     2
 40
7.5
 49
6.0
 49
-1.5
  0
LTYPE
  2
AMCONSTR
 70
     0
  3
_______________________
 72
    65
 73
     2
 40
9999.0
 49
9999.0
 49
0.0
  0
LTYPE
  2
ACISOWELD
 70
     0
  3
_ _ _ _ _
 72
    65
 73
     2
 40
2.0
 49
2.0
 49
-1.0
  0
LTYPE
  2
ACISOTGB
 70
     0
  3
__ . . __ . .
 72
    65
 73
     6
 40
9.0
 49
4.0
 49
-1.0
 49
1.0
 49
-1.0
 49
1.0
 49
-1.0
  0
LTYPE
  2
ACISOTGL
 70
     0
  3
_ _ _ _ _
 72
    65
 73
     2
 40
3.0
 49
2.0
 49
-1.0
  0
LTYPE
  2
ACJISTGB
 70
     0
  3
__ . . __ . .
 72
    65
 73
     6
 40
9.0
 49
4.0
 49
-1.0
 49
1.0
 49
-1.0
 49
1.0
 49
-1.0
  0
LTYPE
  2
ACJISTGL
 70
     0
  3
_ _ _ _ _
 72
    65
 73
     2
 40
3.0
 49
2.0
 49
-1.0
  0
LTYPE
  2
HIDDEN
 70
     0
  3
Hidden __ __ __ __ __ __ __ __ __ __ __ __ __ _
 72
    65
 73
     2
 40
9.5249999999999986
 49
6.3499999999999988
 49
-3.1749999999999989
  0
ENDTAB
  0
TABLE
  2
LAYER
 70
    15
  0
LAYER
  2
0
 70
     0
 62
     7
  6
CONTINUOUS
  0
LAYER
  2
DEFPOINTS
 70
     0
 62
     7
  6
CONTINUOUS
  0
LAYER
  2
245
 70
     0
 62
     2
  6
CENTER2
  0
LAYER
  2
240
 70
     0
 62
     4
  6
CONTINUOUS
  0
LAYER
  2
241
 70
     0
 62
   211
  6
CONTINUOUS
  0
LAYER
  2
242
 70
     0
 62
     3
  6
CONTINUOUS
  0
LAYER
  2
243
 70
     0
 62
   211
  6
HIDDEN2
  0
LAYER
  2
250
 70
     0
 62
     3
  6
CONTINUOUS
  0
ENDTAB
  0
TABLE
  2
STYLE
 70
     6
  0
STYLE
  2
STANDARD
 70
     0
 40
0.0
 41
1.0
 50
0.0
 71
     0
 42
3.0
  3
romans.shx
  4
extfont.shx
  0
STYLE
  2
ACISOTS
 70
     0
 40
1.0
 41
1.0
 50
0.0
 71
     0
 42
3.0
  3
amgdt.shx
  4
extfont.shx
  0
STYLE
  2
ACISOGDT
 70
     0
 40
0.0
 41
1.0
 50
0.0
 71
     0
 42
3.0
  3
amgdt.shx
  4
extfont.shx
  0
STYLE
  2
ACJISTS
 70
     0
 40
1.0
 41
1.0
 50
0.0
 71
     0
 42
3.0
  3
amgdt.shx
  4
extfont.shx
  0
STYLE
  2
ACJISGDT
 70
     0
 40
0.0
 41
1.0
 50
0.0
 71
     0
 42
3.0
  3
amgdt.shx
  4
extfont.shx
  0
STYLE
  2
YOKO
 70
     0
 40
0.0
 41
1.0
 50
0.0
 71
     0
 42
5.0
  3
romans.shx
  4
extfont.shx
  0
ENDTAB
  0
TABLE
  2
VIEW
 70
     0
  0
ENDTAB
  0
TABLE
  2
UCS
 70
     0
  0
ENDTAB
  0
TABLE
  2
APPID
 70
    30
  0
APPID
  2
ACAD
 70
     0
  0
APPID
  2
GLOBAL
 70
     0
  0
APPID
  2
DETAIL
 70
     0
  0
APPID
  2
GRPNAME
 70
     0
  0
APPID
  2
GPARA
 70
     0
  0
APPID
  2
MCAD_NO_VIS
 70
     0
  0
APPID
  2
ACAD_TEMP_GRAPHIC
 70
     0
  0
APPID
  2
ACATTRIBSERVICES
 70
     0
  0
APPID
  2
GENIUS_GENSCREG_15
 70
     0
  0
APPID
  2
GENIUS_GENODEF_13
 70
     0
  0
APPID
  2
GENIUS_GENOBJ-N-SDF_13
 70
     0
  0
APPID
  2
GENIUS_GENREC_14
 70
     0
  0
APPID
  2
GENIUS_GENOBJ-N-REC_13
 70
     0
  0
APPID
  2
GENIUS_GENDIMSH_14
 70
     0
  0
APPID
  2
GENIUS_GENOBJ-N-DIM_13
 70
     0
  0
APPID
  2
GENIUS_GENDIM_13
 70
     0
  0
APPID
  2
GENIUS_GENDTOL_13
 70
     0
  0
APPID
  2
GENIUS_GENOLIS_13
 70
     0
  0
APPID
  2
GENIUS_GENOENT_13
 70
     0
  0
APPID
  2
GENIUS_GENOBJ-F-FEM_13
 70
     0
  0
APPID
  2
GENIUS_GENOREF_13
 70
     0
  0
APPID
  2
GENIUS_GEFFEM_13
 70
     0
  0
APPID
  2
GENIUS_GEFFEMP_13
 70
     0
  0
APPID
  2
AD_DRAW
 70
     0
  0
APPID
  2
DESIGNERASSEMBLIES
 70
     0
  0
APPID
  2
ACADM_DIM_EDIT
 70
     0
  0
APPID
  2
AMDT_DM_ADJ
 70
     0
  0
APPID
  2
ASK_MEN_XD
 70
     0
  0
APPID
  2
ACAD_PSEXT
 70
     0
  0
APPID
  2
ITEMNAME
 70
     0
  0
ENDTAB
  0
TABLE
  2
DIMSTYLE
 70
    26
  0
DIMSTYLE
  2
BIGT
 70
     0
  3

  4

  5
OPEN
  6

  7

 40
1.0
 41
2.2299999999999991
 42
0.5
 43
7.0
 44
1.0
 45
0.0
 46
0.0
 47
0.0
 48
0.01
140
2.7999999999999989
141
0.0
142
0.0
143
25.399999999999999
144
1.0
145
0.0
146
1.0
147
1.0
 71
     0
 72
     0
 73
     0
 74
     0
 75
     0
 76
     0
 77
     3
 78
     9
170
     0
171
     2
172
     1
173
     0
174
     1
175
     0
176
   256
177
   256
178
    40
  0
DIMSTYLE
  2
AM_ISO
 70
     0
  3

  4
"
  5

  6

  7

 40
1.0
 41
2.5
 42
1.0
 43
10.0
 44
1.0
 45
0.0
 46
0.0
 47
0.1
 48
0.1
140
3.5
141
0.0
142
0.0
143
0.0393701
144
1.0
145
0.0
146
0.71
147
1.5
 71
     0
 72
     0
 73
     0
 74
     0
 75
     0
 76
     0
 77
     1
 78
     8
170
     0
171
     2
172
     1
173
     0
174
     0
175
     0
176
   256
177
   256
178
     2
  0
DIMSTYLE
  2
AM_ISO$3
 70
     0
  3

  4
"
  5

  6

  7

 40
1.0
 41
2.5
 42
1.0
 43
10.0
 44
1.0
 45
0.0
 46
0.0
 47
0.1
 48
0.1
140
3.5
141
0.0
142
0.0
143
0.0393701
144
1.0
145
0.0
146
0.71
147
1.5
 71
     0
 72
     0
 73
     0
 74
     1
 75
     0
 76
     0
 77
     1
 78
     8
170
     0
171
     2
172
     0
173
     0
174
     0
175
     0
176
   256
177
   256
178
     2
  0
DIMSTYLE
  2
AM_ISO$4
 70
     0
  3

  4
"
  5

  6

  7

 40
1.0
 41
2.5
 42
1.0
 43
10.0
 44
1.0
 45
0.0
 46
0.0
 47
0.1
 48
0.1
140
3.5
141
0.0
142
0.0
143
0.0393701
144
1.0
145
0.0
146
0.71
147
1.5
 71
     0
 72
     0
 73
     0
 74
     1
 75
     0
 76
     0
 77
     1
 78
     8
170
     0
171
     2
172
     0
173
     0
174
     0
175
     0
176
   256
177
   256
178
     2
  0
DIMSTYLE
  2
AM_ISO$6
 70
     0
  3

  4
"
  5

  6

  7

 40
1.0
 41
2.5
 42
1.0
 43
10.0
 44
1.0
 45
0.0
 46
0.0
 47
0.1
 48
0.1
140
3.5
141
0.0
142
0.0
143
0.0393701
144
1.0
145
0.0
146
0.71
147
1.5
 71
     0
 72
     0
 73
     0
 74
     0
 75
     0
 76
     0
 77
     0
 78
     8
170
     0
171
     2
172
     1
173
     0
174
     0
175
     0
176
   256
177
   256
178
     2
  0
DIMSTYLE
  2
AM_ISO$7
 70
     0
  3

  4
"
  5

  6

  7

 40
1.0
 41
2.5
 42
1.0
 43
10.0
 44
1.0
 45
0.0
 46
0.0
 47
0.1
 48
0.1
140
5.0
141
0.0
142
0.0
143
0.0393701
144
1.0
145
0.0
146
0.71
147
1.5
 71
     0
 72
     0
 73
     0
 74
     0
 75
     0
 76
     0
 77
     1
 78
     8
170
     0
171
     2
172
     1
173
     0
174
     0
175
     0
176
   256
177
   256
178
     2
  0
DIMSTYLE
  2
AM_ISO$SF
 70
     0
  3

  4
"
  5

  6

  7

 40
1.0
 41
2.5
 42
1.0
 43
10.0
 44
1.0
 45
0.0
 46
0.0
 47
0.1
 48
0.1
140
3.5
141
0.0
142
0.0
143
0.0393701
144
1.0
145
0.0
146
0.71
147
1.5
 71
     0
 72
     0
 73
     0
 74
     0
 75
     1
 76
     1
 77
     1
 78
     8
170
     0
171
     2
172
     1
173
     0
174
     0
175
     0
176
   256
177
   256
178
     2
  0
DIMSTYLE
  2
AM_ISO$SH
 70
     0
  3

  4
"
  5

  6
GENAXEH
  7

 40
1.0
 41
2.5
 42
1.0
 43
10.0
 44
1.0
 45
0.0
 46
0.0
 47
0.1
 48
0.1
140
3.5
141
0.0
142
0.0
143
0.0393701
144
2.0
145
0.0
146
0.71
147
1.5
 71
     0
 72
     0
 73
     0
 74
     0
 75
     1
 76
     1
 77
     1
 78
     8
170
     0
171
     2
172
     1
173
     1
174
     0
175
     0
176
   256
177
   256
178
     2
  0
DIMSTYLE
  2
BIGT$2
 70
     0
  3

  4

  5
OPEN
  6

  7

 40
1.0
 41
2.2299999999999991
 42
0.5
 43
7.0
 44
1.0
 45
0.0
 46
0.0
 47
0.0
 48
0.01
140
2.7999999999999989
141
0.0
142
0.0
143
25.399999999999999
144
1.0
145
0.0
146
1.0
147
1.0
 71
     0
 72
     0
 73
     0
 74
     0
 75
     0
 76
     0
 77
     3
 78
     9
170
     0
171
     2
172
     1
173
     0
174
     0
175
     0
176
   256
177
   256
178
    40
  0
DIMSTYLE
  2
BIGT$3
 70
     0
  3

  4

  5
OPEN
  6

  7

 40
1.0
 41
2.2299999999999991
 42
0.5
 43
2.5
 44
1.0
 45
0.0
 46
0.0
 47
0.0
 48
0.01
140
2.7999999999999989
141
0.0
142
0.0
143
25.399999999999999
144
1.0
145
0.0
146
1.0
147
1.0
 71
     0
 72
     0
 73
     0
 74
     0
 75
     0
 76
     0
 77
     3
 78
     9
170
     0
171
     2
172
     1
173
     0
174
     0
175
     0
176
   256
177
   256
178
    40
  0
DIMSTYLE
  2
BIGT$7
 70
     0
  3

  4

  5
OPEN
  6

  7

 40
0.0
 41
2.2299999999999991
 42
0.5
 43
7.0
 44
1.0
 45
0.0
 46
0.0
 47
0.0
 48
0.01
140
2.7999999999999989
141
0.0
142
0.0
143
25.399999999999999
144
1.0
145
0.0
146
1.0
147
1.0
 71
     0
 72
     0
 73
     0
 74
     0
 75
     0
 76
     0
 77
     3
 78
     9
170
     0
171
     2
172
     0
173
     0
174
     0
175
     0
176
   256
177
   256
178
    40
  0
DIMSTYLE
  2
BIGT$6
 70
     0
  3

  4

  5
OPEN
  6

  7

 40
1.0
 41
2.2299999999999991
 42
0.5
 43
2.5
 44
1.0
 45
0.0
 46
0.0
 47
0.0
 48
0.01
140
2.7999999999999989
141
0.0
142
0.0
143
25.399999999999999
144
1.0
145
0.0
146
1.0
147
1.0
 71
     0
 72
     0
 73
     0
 74
     0
 75
     0
 76
     0
 77
     3
 78
     9
170
     0
171
     2
172
     1
173
     0
174
     0
175
     0
176
   256
177
   256
178
    40
  0
DIMSTYLE
  2
BIGT$0
 70
     0
  3

  4

  5
OPEN
  6

  7

 40
1.0
 41
2.2299999999999991
 42
0.5
 43
7.0
 44
1.0
 45
0.0
 46
0.0
 47
0.0
 48
0.01
140
2.7999999999999989
141
0.0
142
0.0
143
25.399999999999999
144
1.0
145
0.0
146
1.0
147
1.0
 71
     0
 72
     0
 73
     0
 74
     0
 75
     0
 76
     0
 77
     3
 78
     9
170
     0
171
     2
172
     1
173
     0
174
     0
175
     0
176
   256
177
   256
178
    40
  0
DIMSTYLE
  2
BIGT$4
 70
     0
  3

  4

  5
OPEN
  6

  7

 40
1.0
 41
2.2299999999999991
 42
0.5
 43
2.5
 44
1.0
 45
0.0
 46
0.0
 47
0.0
 48
0.01
140
2.7999999999999989
141
0.0
142
0.0
143
25.399999999999999
144
1.0
145
0.0
146
1.0
147
1.0
 71
     0
 72
     0
 73
     0
 74
     0
 75
     0
 76
     0
 77
     3
 78
     9
170
     0
171
     2
172
     1
173
     0
174
     0
175
     0
176
   256
177
   256
178
    40
  0
DIMSTYLE
  2
BIGT$SH
 70
     0
  3

  4

  5
OPEN
  6

  7

 40
1.0
 41
2.2299999999999991
 42
0.5
 43
7.0
 44
1.0
 45
0.0
 46
0.0
 47
0.0
 48
0.0
140
2.7999999999999989
141
0.0
142
0.0
143
25.399999999999999
144
1.0
145
0.0
146
1.0
147
1.0
 71
     0
 72
     0
 73
     0
 74
     0
 75
     0
 76
     0
 77
     3
 78
     9
170
     0
171
     2
172
     1
173
     0
174
     0
175
     0
176
   256
177
   256
178
    40
  0
DIMSTYLE
  2
BIGT$SF
 70
     0
  3

  4

  5
OPEN
  6

  7

 40
1.0
 41
2.2299999999999991
 42
0.5
 43
7.0
 44
1.0
 45
0.0
 46
0.0
 47
0.0
 48
0.0
140
2.7999999999999989
141
0.0
142
0.0
143
25.399999999999999
144
1.0
145
0.0
146
1.0
147
1.0
 71
     0
 72
     0
 73
     0
 74
     0
 75
     0
 76
     0
 77
     3
 78
     9
170
     0
171
     2
172
     1
173
     0
174
     0
175
     0
176
   256
177
   256
178
    40
  0
DIMSTYLE
  2
TECHNICAL_OSAKA
 70
     0
  3

  4
"
  5
OPEN30
  6

  7

 40
1.0
 41
2.5
 42
1.0
 43
10.0
 44
1.0
 45
0.0
 46
0.0
 47
0.1
 48
0.1
140
2.7999999999999989
141
0.0
142
0.0
143
0.0393701
144
1.0
145
0.0
146
0.71
147
1.5
 71
     0
 72
     0
 73
     0
 74
     0
 75
     0
 76
     0
 77
     3
 78
     8
170
     0
171
     2
172
     1
173
     0
174
     0
175
     0
176
   256
177
   256
178
    40
  0
DIMSTYLE
  2
TECHNICAL_OSAKA$3
 70
     0
  3

  4
"
  5
OPEN30
  6

  7

 40
1.0
 41
2.5
 42
1.0
 43
10.0
 44
1.0
 45
0.0
 46
0.0
 47
0.1
 48
0.1
140
2.7999999999999989
141
0.0
142
0.0
143
0.0393701
144
1.0
145
0.0
146
0.71
147
1.5
 71
     0
 72
     0
 73
     0
 74
     1
 75
     0
 76
     0
 77
     3
 78
     8
170
     0
171
     2
172
     0
173
     0
174
     0
175
     0
176
   256
177
   256
178
    40
  0
DIMSTYLE
  2
TECHNICAL_OSAKA$4
 70
     0
  3

  4
"
  5
OPEN30
  6

  7

 40
1.0
 41
2.5
 42
1.0
 43
10.0
 44
1.0
 45
0.0
 46
0.0
 47
0.1
 48
0.1
140
2.7999999999999989
141
0.0
142
0.0
143
0.0393701
144
1.0
145
0.0
146
0.71
147
1.5
 71
     0
 72
     0
 73
     0
 74
     1
 75
     0
 76
     0
 77
     3
 78
     8
170
     0
171
     2
172
     0
173
     0
174
     0
175
     0
176
   256
177
   256
178
    40
  0
DIMSTYLE
  2
TECHNICAL_OSAKA$6
 70
     0
  3

  4
"
  5
OPEN30
  6

  7

 40
1.0
 41
2.5
 42
1.0
 43
10.0
 44
1.0
 45
0.0
 46
0.0
 47
0.1
 48
0.1
140
2.7999999999999989
141
0.0
142
0.0
143
0.0393701
144
1.0
145
0.0
146
0.71
147
1.5
 71
     0
 72
     0
 73
     0
 74
     0
 75
     0
 76
     0
 77
     0
 78
     8
170
     0
171
     2
172
     1
173
     0
174
     0
175
     0
176
   256
177
   256
178
    40
  0
DIMSTYLE
  2
TECHNICAL_OSAKA$7
 70
     0
  3

  4
"
  5
OPEN30
  6

  7

 40
1.0
 41
2.5
 42
1.0
 43
10.0
 44
1.0
 45
0.0
 46
0.0
 47
0.1
 48
0.1
140
2.7999999999999989
141
0.0
142
0.0
143
0.0393701
144
1.0
145
0.0
146
0.71
147
1.5
 71
     0
 72
     0
 73
     0
 74
     0
 75
     0
 76
     0
 77
     3
 78
     8
170
     0
171
     2
172
     1
173
     0
174
     0
175
     0
176
   256
177
   256
178
    40
  0
DIMSTYLE
  2
TECHNICAL_OSAKA$SF
 70
     0
  3

  4
"
  5
OPEN30
  6
OPEN30
  7
OPEN30
 40
1.0
 41
2.5
 42
1.0
 43
10.0
 44
1.0
 45
0.0
 46
0.0
 47
0.1
 48
0.1
140
3.5
141
0.0
142
0.0
143
0.0393701
144
1.0
145
0.0
146
0.71
147
1.5
 71
     0
 72
     0
 73
     0
 74
     0
 75
     1
 76
     1
 77
     3
 78
     8
170
     0
171
     2
172
     1
173
     0
174
     0
175
     0
176
   256
177
   256
178
    40
  0
DIMSTYLE
  2
TECHNICAL_OSAKA$SH
 70
     0
  3

  4
"
  5
OPEN30
  6
GENAXEH
  7
OPEN30
 40
1.0
 41
2.5
 42
1.0
 43
10.0
 44
1.0
 45
0.0
 46
0.0
 47
0.1
 48
0.1
140
3.5
141
0.0
142
0.0
143
0.0393701
144
2.0
145
0.0
146
0.71
147
1.5
 71
     0
 72
     0
 73
     0
 74
     0
 75
     1
 76
     1
 77
     3
 78
     8
170
     0
171
     2
172
     1
173
     1
174
     0
175
     0
176
   256
177
   256
178
    40
  0
ENDTAB
  0
ENDSEC
  0
SECTION
  2
BLOCKS
  0
BLOCK
  8
0
  2
$MODEL_SPACE
 70
     0
 10
0.0
 20
0.0
 30
0.0
  3
$MODEL_SPACE
  1

  0
ENDBLK
  5
1C
  8
0
  0
BLOCK
 67
     1
  8
0
  2
$PAPER_SPACE
 70
     0
 10
0.0
 20
0.0
 30
0.0
  3
$PAPER_SPACE
  1

  0
ENDBLK
  5
19
 67
     1
  8
0
  0
BLOCK
  8
0
  2
_OPEN
 70
     0
 10
0.0
 20
0.0
 30
0.0
  3
_OPEN
  1

  0
LINE
  5
595
  8
0
  6
BYBLOCK
 62
     0
 10
-1.0
 20
0.1666666666666666
 30
0.0
 11
0.0
 21
0.0
 31
0.0
  0
LINE
  5
596
  8
0
  6
BYBLOCK
 62
     0
 10
-1.0
 20
-0.1666666666666666
 30
0.0
 11
0.0
 21
0.0
 31
0.0
  0
LINE
  5
597
  8
0
  6
BYBLOCK
 62
     0
 10
0.0
 20
0.0
 30
0.0
 11
-1.0
 21
0.0
 31
0.0
  0
ENDBLK
  5
599
  8
0
  0
BLOCK
  8
0
  2
GENAXEH
 70
     0
 10
0.0
 20
0.0
 30
0.0
  3
GENAXEH
  1

  0
LINE
  5
6E8
  8
0
 10
-1.0
 20
0.0
 30
0.0
 11
1.0
 21
0.0
 31
0.0
  0
ENDBLK
  5
6EA
  8
0
  0
BLOCK
  8
0
  2
_OPEN30
 70
     0
 10
0.0
 20
0.0
 30
0.0
  3
_OPEN30
  1

  0
LINE
  5
E8F
  8
0
  6
BYBLOCK
 62
     0
 10
-1.0
 20
0.26794919
 30
0.0
 11
0.0
 21
0.0
 31
0.0
  0
LINE
  5
E90
  8
0
  6
BYBLOCK
 62
     0
 10
0.0
 20
0.0
 30
0.0
 11
-1.0
 21
-0.26794919
 31
0.0
  0
LINE
  5
E91
  8
0
  6
BYBLOCK
 62
     0
 10
0.0
 20
0.0
 30
0.0
 11
-1.0
 21
0.0
 31
0.0
  0
ENDBLK
  5
E93
  8
0
  0
BLOCK
  8
0
  2
A$C66170E33
 70
     0
 10
0.0
 20
0.0
 30
0.0
  3
A$C66170E33
  1

  0
ARC
  5
1719
  8
240
  6
CONTINUOUS
 10
36.699999999999989
 20
-48.70000000000001
 30
0.0
 40
1.3000000000000109
 50
270.0
 51
0.0
  0
ARC
  5
171A
  8
240
  6
CONTINUOUS
 10
36.699999999999989
 20
48.699999999999989
 30
0.0
 40
1.3000000000000109
 50
0.0
 51
90.0
  0
LINE
  5
171B
  8
245
  6
CENTER2
 10
-103.8
 20
-0.0000000000000284
 30
0.0
 11
301.17758080004171
 21
0.0000000000001137
 31
0.0
  0
LINE
  5
171C
  8
240
  6
CONTINUOUS
 10
-101.8
 20
18.68438641296364
 30
0.0
 11
-101.8
 21
-18.695575621915371
 31
0.0
  0
LINE
  5
171D
  8
240
  6
CONTINUOUS
 10
-0.0000000000003898
 20
-34.924999999999983
 30
0.0
 11
-100.4308910289169
 21
-20.278828391616319
 31
0.0
  0
ARC
  5
171E
  8
240
  6
CONTINUOUS
 10
-100.2
 20
-18.695575621915371
 30
0.0
 40
1.6000000000000001
 50
180.0
 51
238.2971273697099
  0
LINE
  5
171F
  8
240
 10
-101.0408224737005
 20
-20.056831500771381
 30
0.0
 11
-100.4308910289169
 21
-20.278828391616319
 31
0.0
  0
LINE
  5
1720
  8
240
  6
CONTINUOUS
 10
38.0
 20
-48.70000000000001
 30
0.0
 11
38.0
 21
-47.824648750456817
 31
0.0
  0
ARC
  5
1721
  8
240
 10
41.000000000000028
 20
-47.824648750456817
 30
0.0
 40
3.0
 50
108.0000000000005
 51
180.0
  0
LINE
  5
1722
  8
240
  6
CONTINUOUS
 10
19.943524478543729
 20
-42.649999999999999
 30
0.0
 11
15.849999999999961
 21
-49.74019237886472
 31
0.0
  0
LINE
  5
1723
  8
240
  6
CONTINUOUS
 10
26.456475521456181
 20
-42.650000000000027
 30
0.0
 11
30.549999999999979
 21
-49.740192378864663
 31
0.0
  0
LINE
  5
1724
  8
241
  6
CONTINUOUS
 10
30.699999999999928
 20
-49.826794919242758
 30
0.0
 11
30.700000000000159
 21
49.826794919242673
 31
0.0
  0
LINE
  5
1725
  8
241
  6
HIDDEN2
 10
33.99999999999995
 20
-35.400000000000041
 30
0.0
 11
33.99999999999995
 21
-50.000000000000028
 31
0.0
  0
LINE
  5
1726
  8
240
  6
CONTINUOUS
 10
15.39999999999992
 20
-50.000000000000028
 30
0.0
 11
2.8000000000000109
 21
-50.000000000000028
 31
0.0
  0
LINE
  5
1727
  8
240
  6
CONTINUOUS
 10
15.849999999999961
 20
-49.74019237886472
 30
0.0
 11
15.39999999999992
 21
-50.000000000000028
 31
0.0
  0
LINE
  5
1728
  8
240
  6
CONTINUOUS
 10
36.699999999999989
 20
-50.000000000000028
 30
0.0
 11
30.999999999999918
 21
-50.000000000000028
 31
0.0
  0
LINE
  5
1729
  8
240
  6
CONTINUOUS
 10
30.999999999999918
 20
-50.000000000000028
 30
0.0
 11
30.549999999999979
 21
-49.740192378864663
 31
0.0
  0
LINE
  5
172A
  8
241
  6
HIDDEN2
 10
33.99999999999995
 20
-35.400000000000041
 30
0.0
 11
1.500000000000056
 21
-35.400000000000091
 31
0.0
  0
LINE
  5
172B
  8
241
  6
CONTINUOUS
 10
26.369872981077719
 20
-42.555051025721717
 30
0.0
 11
26.36987298107892
 21
42.555051025721639
 31
0.0
  0
LINE
  5
172C
  8
240
  6
CONTINUOUS
 10
26.1966679003209
 20
-42.500000000000021
 30
0.0
 11
20.20333209967907
 21
-42.500000000000021
 31
0.0
  0
ARC
  5
172D
  8
240
  6
CONTINUOUS
 10
20.20333209967902
 20
-42.799999999999983
 30
0.0
 40
0.2999999999999545
 50
90.0
 51
149.99999999999659
  0
ARC
  5
172E
  8
240
  6
CONTINUOUS
 10
26.19666790032085
 20
-42.800000000000033
 30
0.0
 40
0.3000000000000007
 50
29.999999999996088
 51
90.0
  0
LINE
  5
172F
  8
240
  6
CONTINUOUS
 10
0.0
 20
34.924999999999962
 30
0.0
 11
-100.4308910289169
 21
20.27882839161623
 31
0.0
  0
ARC
  5
1730
  8
240
  6
CONTINUOUS
 10
-100.2
 20
18.69557562191531
 30
0.0
 40
1.6000000000000001
 50
121.7028726302901
 51
180.0
  0
LINE
  5
1731
  8
240
 10
-101.0408224737005
 20
20.05683150077132
 30
0.0
 11
-100.4308910289169
 21
20.27882839161623
 31
0.0
  0
LINE
  5
1732
  8
240
  6
CONTINUOUS
 10
19.943524478543729
 20
42.64999999999992
 30
0.0
 11
15.849999999999961
 21
49.74019237886494
 31
0.0
  0
LINE
  5
1733
  8
240
  6
CONTINUOUS
 10
26.456475521456241
 20
42.64999999999992
 30
0.0
 11
30.549999999999979
 21
49.740192378864599
 31
0.0
  0
LINE
  5
1734
  8
243
 10
33.99999999999995
 20
35.399999999999977
 30
0.0
 11
33.99999999999995
 21
49.999999999999943
 31
0.0
  0
LINE
  5
1735
  8
243
 10
33.99999999999995
 20
35.399999999999977
 30
0.0
 11
1.4999999999999429
 21
35.400000000000091
 31
0.0
  0
LINE
  5
1736
  8
240
  6
CONTINUOUS
 10
26.1966679003209
 20
42.499999999999943
 30
0.0
 11
20.20333209967907
 21
42.499999999999943
 31
0.0
  0
ARC
  5
1737
  8
240
  6
CONTINUOUS
 10
20.20333209967907
 20
42.799999999999891
 30
0.0
 40
0.3000000000000078
 50
209.99999999999969
 51
270.0
  0
ARC
  5
1738
  8
240
  6
CONTINUOUS
 10
26.1966679003209
 20
42.799999999999891
 30
0.0
 40
0.2999999999999829
 50
270.0
 51
330.00000000000028
  0
LINE
  5
1739
  8
240
  6
CONTINUOUS
 10
15.399999999999411
 20
49.999999999999943
 30
0.0
 11
2.7999999999999261
 21
49.999999999999943
 31
0.0
  0
LINE
  5
173A
  8
240
  6
CONTINUOUS
 10
15.399999999999411
 20
49.999999999999943
 30
0.0
 11
15.849999999999961
 21
49.74019237886494
 31
0.0
  0
LINE
  5
173B
  8
240
  6
CONTINUOUS
 10
30.999999999999918
 20
49.999999999999943
 30
0.0
 11
36.699999999999989
 21
49.999999999999943
 31
0.0
  0
LINE
  5
173C
  8
240
  6
CONTINUOUS
 10
30.999999999999918
 20
49.999999999999943
 30
0.0
 11
30.549999999999979
 21
49.740192378864599
 31
0.0
  0
ARC
  5
173D
  8
240
  6
CONTINUOUS
 10
2.8000000000000109
 20
-48.699999999999903
 30
0.0
 40
1.3
 50
180.0
 51
269.99999999999841
  0
LINE
  5
173E
  8
240
  6
CONTINUOUS
 10
1.5
 20
-34.924999999999983
 30
0.0
 11
1.5
 21
-48.699999999999903
 31
0.0
  0
LINE
  5
173F
  8
240
  6
CONTINUOUS
 10
1.4999999999999429
 20
34.925000000000011
 30
0.0
 11
1.4999999999999429
 21
48.700000000000102
 31
0.0
  0
ARC
  5
1740
  8
240
  6
CONTINUOUS
 10
2.7999999999999541
 20
48.700000000000102
 30
0.0
 40
1.3
 50
89.999999999998366
 51
180.0
  0
LINE
  5
1741
  8
240
 10
227.70000000000039
 20
25.49999999999994
 30
0.0
 11
100.3167688806496
 21
25.499999999999432
 31
0.0
  0
LINE
  5
1742
  8
240
 10
100.3167688806497
 20
-25.500000000000309
 30
0.0
 11
227.70000000000269
 21
-25.500000000000199
 31
0.0
  0
ARC
  5
1743
  8
240
 10
100.3167688806497
 20
-27.500000000000309
 30
0.0
 40
2.0
 50
90.0
 51
108.0000000000005
  0
LINE
  5
1744
  8
240
 10
259.35000000000019
 20
-25.49999999999978
 30
0.0
 11
241.7000000000032
 21
-25.500000000000711
 31
0.0
  0
LINE
  5
1745
  8
240
 10
259.35000000000008
 20
25.49999999999994
 30
0.0
 11
241.7000000000034
 21
25.500000000000341
 31
0.0
  0
LINE
  5
1746
  8
240
  6
CONTINUOUS
 10
38.0
 20
48.699999999999989
 30
0.0
 11
38.0
 21
47.824648750456902
 31
0.0
  0
LINE
  5
1747
  8
241
 10
235.70000000000289
 20
25.500000000000188
 30
0.0
 11
235.70000000000289
 21
-25.49999999999994
 31
0.0
  0
LINE
  5
1748
  8
241
 10
227.70000000000269
 20
25.50000000000038
 30
0.0
 11
227.70000000000269
 21
-25.500000000000199
 31
0.0
  0
LINE
  5
1749
  8
240
 10
236.6142135623746
 20
-25.000000000001279
 30
0.0
 11
240.7857864376312
 21
-25.00000000000108
 31
0.0
  0
ARC
  5
174A
  8
240
 10
236.61421356237469
 20
-26.000000000001279
 30
0.0
 40
1.0
 50
90.000000000003226
 51
135.0
  0
LINE
  5
174B
  8
240
 10
241.49289321881781
 20
-25.29289321881453
 30
0.0
 11
241.70000000000439
 21
-25.50000000000114
 31
0.0
  0
ARC
  5
174C
  8
240
 10
240.78578643763129
 20
-26.00000000000108
 30
0.0
 40
1.0
 50
45.0
 51
90.000000000003226
  0
LINE
  5
174D
  8
240
 10
235.90710678118819
 20
-25.292893218814729
 30
0.0
 11
235.70000000000169
 21
-25.50000000000151
 31
0.0
  0
LINE
  5
174E
  8
240
 10
228.6142135623729
 20
-25.00000000000011
 30
0.0
 11
232.78578643762941
 21
-24.999999999999918
 31
0.0
  0
ARC
  5
174F
  8
240
 10
228.6142135623729
 20
-26.000000000000121
 30
0.0
 40
1.0
 50
90.000000000003226
 51
135.0
  0
LINE
  5
1750
  8
240
 10
233.49289321881599
 20
-25.292893218813361
 30
0.0
 11
233.7000000000026
 21
-25.499999999999972
 31
0.0
  0
ARC
  5
1751
  8
240
 10
232.7857864376295
 20
-25.999999999999918
 30
0.0
 40
1.0
 50
45.0
 51
90.000000000003226
  0
LINE
  5
1752
  8
240
 10
227.9071067811864
 20
-25.29289321881356
 30
0.0
 11
227.6999999999999
 21
-25.500000000000341
 31
0.0
  0
LINE
  5
1753
  8
240
 10
233.7000000000026
 20
-25.49999999999994
 30
0.0
 11
235.7000000000026
 21
-25.49999999999994
 31
0.0
  0
LINE
  5
1754
  8
240
 10
236.6142135623746
 20
25.000000000001421
 30
0.0
 11
240.7857864376312
 21
25.000000000001229
 31
0.0
  0
ARC
  5
1755
  8
240
 10
236.61421356237469
 20
26.000000000001421
 30
0.0
 40
1.0
 50
225.0
 51
269.99999999999682
  0
LINE
  5
1756
  8
240
 10
241.49289321881781
 20
25.292893218814669
 30
0.0
 11
241.70000000000439
 21
25.500000000001279
 31
0.0
  0
ARC
  5
1757
  8
240
 10
240.78578643763129
 20
26.000000000001219
 30
0.0
 40
1.0
 50
269.99999999999682
 51
315.0
  0
LINE
  5
1758
  8
240
 10
235.90710678118819
 20
25.292893218814871
 30
0.0
 11
235.70000000000169
 21
25.500000000001648
 31
0.0
  0
LINE
  5
1759
  8
240
 10
228.6142135623729
 20
25.000000000000259
 30
0.0
 11
232.78578643762941
 21
25.00000000000006
 31
0.0
  0
ARC
  5
175A
  8
240
 10
228.6142135623729
 20
26.000000000000259
 30
0.0
 40
1.0
 50
225.0
 51
269.99999999999682
  0
LINE
  5
175B
  8
240
 10
233.49289321881599
 20
25.2928932188135
 30
0.0
 11
233.7000000000026
 21
25.50000000000011
 31
0.0
  0
ARC
  5
175C
  8
240
 10
232.7857864376295
 20
26.00000000000006
 30
0.0
 40
1.0
 50
269.99999999999682
 51
315.0
  0
LINE
  5
175D
  8
240
 10
227.9071067811864
 20
25.292893218813699
 30
0.0
 11
227.70000000000039
 21
25.49999999999994
 31
0.0
  0
LINE
  5
175E
  8
240
 10
233.7000000000026
 20
25.500000000000089
 30
0.0
 11
235.7000000000026
 21
25.500000000000089
 31
0.0
  0
LINE
  5
175F
  8
240
 10
99.698734891899775
 20
-25.597886967410009
 30
0.0
 11
40.072949016875178
 21
-44.971479201571348
 31
0.0
  0
ARC
  5
1760
  8
240
 10
40.999999999999957
 20
47.824648750456902
 30
0.0
 40
3.0
 50
180.0
 51
252.00000000000099
  0
ARC
  5
1761
  8
240
 10
100.3167688806496
 20
27.500000000000401
 30
0.0
 40
2.0
 50
252.00000000000099
 51
270.0
  0
LINE
  5
1762
  8
240
 10
99.698734891899733
 20
25.597886967410091
 30
0.0
 11
40.072949016875128
 21
44.971479201571412
 31
0.0
  0
LINE
  5
1763
  8
241
  6
HIDDEN2
 10
235.86602540000001
 20
10.000000000000011
 30
0.0
 11
297.5
 21
10.000000000000011
 31
0.0
1001
GRPNAME
1000
PASTMD1D
  0
LINE
  5
1764
  8
240
 10
-0.0000000000003898
 20
-34.924999999999983
 30
0.0
 11
1.5
 21
-34.924999999999983
 31
0.0
  0
LINE
  5
1765
  8
241
 10
255.5
 20
25.500000000000011
 30
0.0
 11
255.5
 21
-25.499999999999989
 31
0.0
  0
LINE
  5
1766
  8
240
 10
0.0
 20
34.925000000000011
 30
0.0
 11
1.4999999999999429
 21
34.925000000000011
 31
0.0
  0
INSERT
  5
1767
  8
242
  6
CONTINUOUS
  2
*X27
 10
0.0
 20
0.0
 30
0.0
1001
ACAD
1000
HATCH
1002
{
1070
    19
1000
ANSI37
1040
0.5
1040
0.0
1000
R14_HATCH_DATA
1000
1767
1011
1.0
1021
-0.0
1031
-1.1035893731849492E+012
1021
0.0
1031
0.0
1011
0.0
1021
-0.0
1031
-1.1035893731849492E+012
1021
1.0
1031
0.0
1011
0.0
1021
-0.0
1031
-1.1035893731849492E+012
1021
0.0
1031
1.0
1040
0.0
1010
0.0
1020
0.0
1030
1.0
1000
ANSI37
1070
     0
1070
     0
1071
        5
1071
        5
1071
        6
1070
     3
1040
283.60000000000002
1040
-12.30611007376066
1040
2.499999999999857
1040
0.0
1040
0.8660254037843325
1040
1.3284304757560259
1040
1.5707963267948959
1070
     0
1070
     1
1040
283.59999999998291
1040
-14.47117358322182
1040
277.60000000003652
1040
-14.47117358322182
1070
     3
1040
277.59999999999951
1040
-12.306110073760321
1040
-2.5000000000011631
1040
0.0
1040
0.8660254037838566
1040
-1.5707963267948959
1040
-1.4101056738430231
1070
     0
1070
     1
1040
277.19999999999948
1040
-14.44328110107614
1040
277.19999999999948
1040
-24.74999999999962
1070
     1
1040
277.19999999999948
1040
-24.74999999999962
1040
284.19999999999982
1040
-24.74999999999962
1070
     1
1040
284.19999999999982
1040
-24.74999999999962
1040
284.19999999999982
1040
-14.40789502945869
1071
        0
1071
        5
1071
        6
1070
     1
1040
284.19999999999982
1040
0.0
1040
277.19999999999948
1040
0.0
1070
     1
1040
277.19999999999948
1040
0.0
1040
277.19999999999948
1040
-10.1689390464445
1070
     3
1040
277.59999999999951
1040
-12.306110073760321
1040
-2.5000000000011631
1040
0.0
1040
0.8660254037838566
1040
1.410105673843034
1040
1.5707963267948959
1070
     0
1070
     1
1040
277.5999999999994
1040
-10.141046564299669
1040
283.59999999998797
1040
-10.141046564299669
1070
     3
1040
283.60000000000002
1040
-12.30611007376066
1040
2.499999999999857
1040
0.0
1040
0.8660254037843325
1040
-1.5707963267948959
1040
-1.3284304757560841
1070
     0
1070
     1
1040
284.19999999999948
1040
-10.204325118062579
1040
284.19999999999982
1040
0.0
1071
        0
1071
        7
1070
     0
1070
     1
1071
        4
1040
284.19999999999982
1040
10.00000000000033
1040
277.19999999999948
1040
10.00000000000027
1040
277.19999999999948
1040
0.0
1040
284.19999999999982
1040
0.0
1071
        0
1071
        5
1071
        6
1070
     3
1040
283.60000000000002
1040
12.30611007376066
1040
2.499999999999857
1040
0.0
1040
0.8660254037843325
1040
7.6116157829356661
1040
7.8539816339744819
1070
     0
1070
     1
1040
283.599999999989
1040
10.141046564299669
1040
277.59999999999877
1040
10.141046564299669
1070
     3
1040
277.59999999999951
1040
12.306110073760321
1040
-2.5000000000011631
1040
0.0
1040
0.8660254037838566
1040
4.7123889803846888
1040
4.8730796333365447
1070
     0
1070
     1
1040
277.1999999999997
1040
10.1689390464445
1040
277.1999999999997
1040
10.00000000000027
1070
     1
1040
277.1999999999997
1040
10.00000000000027
1040
284.19999999999948
1040
10.000000000000369
1070
     1
1040
284.19999999999948
1040
10.000000000000369
1040
284.19999999999948
1040
10.2043251180626
1071
        0
1071
        5
1071
        6
1070
     1
1040
284.19999999999982
1040
24.75000000000005
1040
277.1999999999997
1040
24.750000000000309
1070
     1
1040
277.1999999999997
1040
24.750000000000309
1040
277.19999999999948
1040
14.44328110107611
1070
     3
1040
277.59999999999951
1040
12.306110073760321
1040
-2.5000000000011631
1040
0.0
1040
0.8660254037838566
1040
7.6932909810226038
1040
7.8539816339744819
1070
     0
1070
     1
1040
277.60000000003652
1040
14.47117358322182
1040
283.59999999998342
1040
14.47117358322175
1070
     3
1040
283.60000000000002
1040
12.30611007376066
1040
2.499999999999857
1040
0.0
1040
0.8660254037843325
1040
4.7123889803846888
1040
4.9547548314235588
1070
     0
1070
     1
1040
284.19999999999982
1040
14.40789502945867
1040
284.19999999999982
1040
24.75000000000005
1071
        0
1070
     0
1070
     1
1040
0.0
1040
0.5
1070
     0
1070
     2
1040
0.7853981633974483
1040
57.0
1040
-154.0
1040
-1.1225320151336431
1040
1.1225320151336431
1070
     0
1040
2.3561944901923439
1040
57.0
1040
-154.0
1040
-1.1225320151336431
1040
-1.1225320151336431
1070
     0
1040
0.07994478
1071
        5
1040
281.35621237881378
1040
-20.004704255139121
1040
0.0
1040
281.13660973057301
1040
-5.2973203601789001
1040
0.0
1040
280.69740531939328
1040
3.7027198138074482
1040
0.0
1040
281.19429333878497
1040
10.0781844226268
1040
0.0
1040
282.30215467701242
1040
20.19004996651039
1040
0.0
1002
}
  0
LINE
  5
1768
  8
240
 10
300.0
 20
16.800000000000011
 30
0.0
 11
300.0
 21
-16.79999999999999
 31
0.0
  0
LINE
  5
1769
  8
241
 10
293.69754490999998
 20
23.761031110000008
 30
0.0
 11
293.69754490999998
 21
-23.76103110999999
 31
0.0
  0
LINE
  5
176A
  8
241
 10
259.35000000000002
 20
25.500000000000011
 30
0.0
 11
259.35000000000002
 21
-25.499999999999989
 31
0.0
  0
LINE
  5
176B
  8
241
 10
286.0660254
 20
24.250000000000011
 30
0.0
 11
286.0660254
 21
12.66183332000001
 31
0.0
  0
LINE
  5
176C
  8
241
 10
284.19999999999999
 20
24.750000000000011
 30
0.0
 11
284.19999999999999
 21
14.407895030000009
 31
0.0
  0
LINE
  5
176D
  8
241
 10
277.19999999999999
 20
24.750000000000011
 30
0.0
 11
277.19999999999999
 21
14.4432811
 31
0.0
  0
LINE
  5
176E
  8
241
 10
274.19999999999999
 20
25.000000000000011
 30
0.0
 11
274.19999999999999
 21
-25.0
 31
0.0
  0
LINE
  5
176F
  8
241
  6
HIDDEN2
 10
297.5
 20
10.05000000000001
 30
0.0
 11
300.0
 21
10.05000000000001
 31
0.0
  0
ARC
  5
1770
  8
240
 10
298.5
 20
-19.922649729999989
 30
0.0
 40
1.0
 50
300.0
 51
0.0
1001
ASK_MEN_XD
1005
1798
1070
     1
1005
0
1070
     1
  0
POLYLINE
  5
1771
  8
241
 10
277.60000000000002
 20
-10.141046569998982
 30
0.0
 66
     1
 70
     8
  0
VERTEX
  8
241
  5
1875
 10
277.600
 20
-10.1410
 30
0.000000
  70
    32
  0
VERTEX
  8
241
  5
1876
 10
277.539
 20
-10.1417
 30
0.000000
  70
    32
  0
VERTEX
  8
241
  5
1877
 10
277.477
 20
-10.1437
 30
0.000000
  70
    32
  0
VERTEX
  8
241
  5
1878
 10
277.416
 20
-10.1469
 30
0.000000
  70
    32
  0
VERTEX
  8
241
  5
1879
 10
277.355
 20
-10.1515
 30
0.000000
  70
    32
  0
VERTEX
  8
241
  5
187A
 10
277.294
 20
-10.1573
 30
0.000000
  70
    32
  0
VERTEX
  8
241
  5
187B
 10
277.233
 20
-10.1645
 30
0.000000
  70
    32
  0
VERTEX
  8
241
  5
187C
 10
277.173
 20
-10.1729
 30
0.000000
  70
    32
  0
VERTEX
  8
241
  5
187D
 10
277.112
 20
-10.1826
 30
0.000000
  70
    32
  0
VERTEX
  8
241
  5
187E
 10
277.052
 20
-10.1937
 30
0.000000
  70
    32
  0
VERTEX
  8
241
  5
187F
 10
276.993
 20
-10.2059
 30
0.000000
  70
    32
  0
VERTEX
  8
241
  5
1880
 10
276.933
 20
-10.2195
 30
0.000000
  70
    32
  0
VERTEX
  8
241
  5
1881
 10
276.874
 20
-10.2343
 30
0.000000
  70
    32
  0
VERTEX
  8
241
  5
1882
 10
276.816
 20
-10.2503
 30
0.000000
  70
    32
  0
VERTEX
  8
241
  5
1883
 10
276.758
 20
-10.2676
 30
0.000000
  70
    32
  0
VERTEX
  8
241
  5
1884
 10
276.700
 20
-10.2861
 30
0.000000
  70
    32
  0
VERTEX
  8
241
  5
1885
 10
276.643
 20
-10.3059
 30
0.000000
  70
    32
  0
VERTEX
  8
241
  5
1886
 10
276.587
 20
-10.3268
 30
0.000000
  70
    32
  0
VERTEX
  8
241
  5
1887
 10
276.531
 20
-10.3489
 30
0.000000
  70
    32
  0
VERTEX
  8
241
  5
1888
 10
276.476
 20
-10.3722
 30
0.000000
  70
    32
  0
VERTEX
  8
241
  5
1889
 10
276.422
 20
-10.3967
 30
0.000000
  70
    32
  0
VERTEX
  8
241
  5
188A
 10
276.368
 20
-10.4223
 30
0.000000
  70
    32
  0
VERTEX
  8
241
  5
188B
 10
276.315
 20
-10.4491
 30
0.000000
  70
    32
  0
VERTEX
  8
241
  5
188C
 10
276.263
 20
-10.4769
 30
0.000000
  70
    32
  0
VERTEX
  8
241
  5
188D
 10
276.211
 20
-10.5059
 30
0.000000
  70
    32
  0
VERTEX
  8
241
  5
188E
 10
276.160
 20
-10.5360
 30
0.000000
  70
    32
  0
VERTEX
  8
241
  5
188F
 10
276.111
 20
-10.5671
 30
0.000000
  70
    32
  0
VERTEX
  8
241
  5
1890
 10
276.062
 20
-10.5993
 30
0.000000
  70
    32
  0
VERTEX
  8
241
  5
1891
 10
276.014
 20
-10.6325
 30
0.000000
  70
    32
  0
VERTEX
  8
241
  5
1892
 10
275.967
 20
-10.6667
 30
0.000000
  70
    32
  0
VERTEX
  8
241
  5
1893
 10
275.921
 20
-10.7019
 30
0.000000
  70
    32
  0
VERTEX
  8
241
  5
1894
 10
275.876
 20
-10.7381
 30
0.000000
  70
    32
  0
VERTEX
  8
241
  5
1895
 10
275.832
 20
-10.7752
 30
0.000000
  70
    32
  0
VERTEX
  8
241
  5
1896
 10
275.789
 20
-10.8132
 30
0.000000
  70
    32
  0
VERTEX
  8
241
  5
1897
 10
275.748
 20
-10.8521
 30
0.000000
  70
    32
  0
VERTEX
  8
241
  5
1898
 10
275.707
 20
-10.8919
 30
0.000000
  70
    32
  0
VERTEX
  8
241
  5
1899
 10
275.667
 20
-10.9326
 30
0.000000
  70
    32
  0
VERTEX
  8
241
  5
189A
 10
275.629
 20
-10.9741
 30
0.000000
  70
    32
  0
VERTEX
  8
241
  5
189B
 10
275.592
 20
-11.0164
 30
0.000000
  70
    32
  0
VERTEX
  8
241
  5
189C
 10
275.556
 20
-11.0594
 30
0.000000
  70
    32
  0
VERTEX
  8
241
  5
189D
 10
275.521
 20
-11.1033
 30
0.000000
  70
    32
  0
VERTEX
  8
241
  5
189E
 10
275.488
 20
-11.1478
 30
0.000000
  70
    32
  0
VERTEX
  8
241
  5
189F
 10
275.456
 20
-11.1930
 30
0.000000
  70
    32
  0
VERTEX
  8
241
  5
18A0
 10
275.425
 20
-11.2390
 30
0.000000
  70
    32
  0
VERTEX
  8
241
  5
18A1
 10
275.395
 20
-11.2855
 30
0.000000
  70
    32
  0
VERTEX
  8
241
  5
18A2
 10
275.367
 20
-11.3327
 30
0.000000
  70
    32
  0
VERTEX
  8
241
  5
18A3
 10
275.340
 20
-11.3804
 30
0.000000
  70
    32
  0
VERTEX
  8
241
  5
18A4
 10
275.314
 20
-11.4287
 30
0.000000
  70
    32
  0
VERTEX
  8
241
  5
18A5
 10
275.290
 20
-11.4776
 30
0.000000
  70
    32
  0
VERTEX
  8
241
  5
18A6
 10
275.268
 20
-11.5269
 30
0.000000
  70
    32
  0
VERTEX
  8
241
  5
18A7
 10
275.246
 20
-11.5767
 30
0.000000
  70
    32
  0
VERTEX
  8
241
  5
18A8
 10
275.226
 20
-11.6270
 30
0.000000
  70
    32
  0
VERTEX
  8
241
  5
18A9
 10
275.208
 20
-11.6776
 30
0.000000
  70
    32
  0
VERTEX
  8
241
  5
18AA
 10
275.191
 20
-11.7287
 30
0.000000
  70
    32
  0
VERTEX
  8
241
  5
18AB
 10
275.175
 20
-11.7800
 30
0.000000
  70
    32
  0
VERTEX
  8
241
  5
18AC
 10
275.161
 20
-11.8317
 30
0.000000
  70
    32
  0
VERTEX
  8
241
  5
18AD
 10
275.148
 20
-11.8837
 30
0.000000
  70
    32
  0
VERTEX
  8
241
  5
18AE
 10
275.137
 20
-11.9360
 30
0.000000
  70
    32
  0
VERTEX
  8
241
  5
18AF
 10
275.127
 20
-11.9884
 30
0.000000
  70
    32
  0
VERTEX
  8
241
  5
18B0
 10
275.119
 20
-12.0411
 30
0.000000
  70
    32
  0
VERTEX
  8
241
  5
18B1
 10
275.112
 20
-12.0939
 30
0.000000
  70
    32
  0
VERTEX
  8
241
  5
18B2
 10
275.107
 20
-12.1468
 30
0.000000
  70
    32
  0
VERTEX
  8
241
  5
18B3
 10
275.103
 20
-12.1999
 30
0.000000
  70
    32
  0
VERTEX
  8
241
  5
18B4
 10
275.101
 20
-12.2530
 30
0.000000
  70
    32
  0
VERTEX
  8
241
  5
18B5
 10
275.100
 20
-12.3061
 30
0.000000
  70
    32
  0
VERTEX
  8
241
  5
18B6
 10
275.101
 20
-12.3592
 30
0.000000
  70
    32
  0
VERTEX
  8
241
  5
18B7
 10
275.103
 20
-12.4123
 30
0.000000
  70
    32
  0
VERTEX
  8
241
  5
18B8
 10
275.107
 20
-12.4654
 30
0.000000
  70
    32
  0
VERTEX
  8
241
  5
18B9
 10
275.112
 20
-12.5183
 30
0.000000
  70
    32
  0
VERTEX
  8
241
  5
18BA
 10
275.119
 20
-12.5711
 30
0.000000
  70
    32
  0
VERTEX
  8
241
  5
18BB
 10
275.127
 20
-12.6238
 30
0.000000
  70
    32
  0
VERTEX
  8
241
  5
18BC
 10
275.137
 20
-12.6763
 30
0.000000
  70
    32
  0
VERTEX
  8
241
  5
18BD
 10
275.148
 20
-12.7285
 30
0.000000
  70
    32
  0
VERTEX
  8
241
  5
18BE
 10
275.161
 20
-12.7805
 30
0.000000
  70
    32
  0
VERTEX
  8
241
  5
18BF
 10
275.175
 20
-12.8322
 30
0.000000
  70
    32
  0
VERTEX
  8
241
  5
18C0
 10
275.191
 20
-12.8836
 30
0.000000
  70
    32
  0
VERTEX
  8
241
  5
18C1
 10
275.208
 20
-12.9346
 30
0.000000
  70
    32
  0
VERTEX
  8
241
  5
18C2
 10
275.226
 20
-12.9853
 30
0.000000
  70
    32
  0
VERTEX
  8
241
  5
18C3
 10
275.246
 20
-13.0355
 30
0.000000
  70
    32
  0
VERTEX
  8
241
  5
18C4
 10
275.268
 20
-13.0853
 30
0.000000
  70
    32
  0
VERTEX
  8
241
  5
18C5
 10
275.290
 20
-13.1346
 30
0.000000
  70
    32
  0
VERTEX
  8
241
  5
18C6
 10
275.314
 20
-13.1835
 30
0.000000
  70
    32
  0
VERTEX
  8
241
  5
18C7
 10
275.340
 20
-13.2318
 30
0.000000
  70
    32
  0
VERTEX
  8
241
  5
18C8
 10
275.367
 20
-13.2795
 30
0.000000
  70
    32
  0
VERTEX
  8
241
  5
18C9
 10
275.395
 20
-13.3267
 30
0.000000
  70
    32
  0
VERTEX
  8
241
  5
18CA
 10
275.425
 20
-13.3733
 30
0.000000
  70
    32
  0
VERTEX
  8
241
  5
18CB
 10
275.456
 20
-13.4192
 30
0.000000
  70
    32
  0
VERTEX
  8
241
  5
18CC
 10
275.488
 20
-13.4644
 30
0.000000
  70
    32
  0
VERTEX
  8
241
  5
18CD
 10
275.521
 20
-13.5090
 30
0.000000
  70
    32
  0
VERTEX
  8
241
  5
18CE
 10
275.556
 20
-13.5528
 30
0.000000
  70
    32
  0
VERTEX
  8
241
  5
18CF
 10
275.592
 20
-13.5958
 30
0.000000
  70
    32
  0
VERTEX
  8
241
  5
18D0
 10
275.629
 20
-13.6381
 30
0.000000
  70
    32
  0
VERTEX
  8
241
  5
18D1
 10
275.667
 20
-13.6796
 30
0.000000
  70
    32
  0
VERTEX
  8
241
  5
18D2
 10
275.707
 20
-13.7203
 30
0.000000
  70
    32
  0
VERTEX
  8
241
  5
18D3
 10
275.748
 20
-13.7601
 30
0.000000
  70
    32
  0
VERTEX
  8
241
  5
18D4
 10
275.789
 20
-13.7990
 30
0.000000
  70
    32
  0
VERTEX
  8
241
  5
18D5
 10
275.832
 20
-13.8370
 30
0.000000
  70
    32
  0
VERTEX
  8
241
  5
18D6
 10
275.876
 20
-13.8742
 30
0.000000
  70
    32
  0
VERTEX
  8
241
  5
18D7
 10
275.921
 20
-13.9103
 30
0.000000
  70
    32
  0
VERTEX
  8
241
  5
18D8
 10
275.967
 20
-13.9455
 30
0.000000
  70
    32
  0
VERTEX
  8
241
  5
18D9
 10
276.014
 20
-13.9797
 30
0.000000
  70
    32
  0
VERTEX
  8
241
  5
18DA
 10
276.062
 20
-14.0129
 30
0.000000
  70
    32
  0
VERTEX
  8
241
  5
18DB
 10
276.111
 20
-14.0451
 30
0.000000
  70
    32
  0
VERTEX
  8
241
  5
18DC
 10
276.160
 20
-14.0762
 30
0.000000
  70
    32
  0
VERTEX
  8
241
  5
18DD
 10
276.211
 20
-14.1063
 30
0.000000
  70
    32
  0
VERTEX
  8
241
  5
18DE
 10
276.263
 20
-14.1353
 30
0.000000
  70
    32
  0
VERTEX
  8
241
  5
18DF
 10
276.315
 20
-14.1631
 30
0.000000
  70
    32
  0
VERTEX
  8
241
  5
18E0
 10
276.368
 20
-14.1899
 30
0.000000
  70
    32
  0
VERTEX
  8
241
  5
18E1
 10
276.422
 20
-14.2155
 30
0.000000
  70
    32
  0
VERTEX
  8
241
  5
18E2
 10
276.476
 20
-14.2400
 30
0.000000
  70
    32
  0
VERTEX
  8
241
  5
18E3
 10
276.531
 20
-14.2633
 30
0.000000
  70
    32
  0
VERTEX
  8
241
  5
18E4
 10
276.587
 20
-14.2854
 30
0.000000
  70
    32
  0
VERTEX
  8
241
  5
18E5
 10
276.643
 20
-14.3064
 30
0.000000
  70
    32
  0
VERTEX
  8
241
  5
18E6
 10
276.700
 20
-14.3261
 30
0.000000
  70
    32
  0
VERTEX
  8
241
  5
18E7
 10
276.758
 20
-14.3446
 30
0.000000
  70
    32
  0
VERTEX
  8
241
  5
18E8
 10
276.816
 20
-14.3619
 30
0.000000
  70
    32
  0
VERTEX
  8
241
  5
18E9
 10
276.874
 20
-14.3779
 30
0.000000
  70
    32
  0
VERTEX
  8
241
  5
18EA
 10
276.933
 20
-14.3927
 30
0.000000
  70
    32
  0
VERTEX
  8
241
  5
18EB
 10
276.993
 20
-14.4063
 30
0.000000
  70
    32
  0
VERTEX
  8
241
  5
18EC
 10
277.052
 20
-14.4186
 30
0.000000
  70
    32
  0
VERTEX
  8
241
  5
18ED
 10
277.112
 20
-14.4296
 30
0.000000
  70
    32
  0
VERTEX
  8
241
  5
18EE
 10
277.173
 20
-14.4393
 30
0.000000
  70
    32
  0
VERTEX
  8
241
  5
18EF
 10
277.233
 20
-14.4477
 30
0.000000
  70
    32
  0
VERTEX
  8
241
  5
18F0
 10
277.294
 20
-14.4549
 30
0.000000
  70
    32
  0
VERTEX
  8
241
  5
18F1
 10
277.355
 20
-14.4607
 30
0.000000
  70
    32
  0
VERTEX
  8
241
  5
18F2
 10
277.416
 20
-14.4653
 30
0.000000
  70
    32
  0
VERTEX
  8
241
  5
18F3
 10
277.477
 20
-14.4686
 30
0.000000
  70
    32
  0
VERTEX
  8
241
  5
18F4
 10
277.539
 20
-14.4705
 30
0.000000
  70
    32
  0
VERTEX
  8
241
  5
18F5
 10
277.600
 20
-14.4712
 30
0.000000
  70
    32
  0
SEQEND
  8
241
  5
18F6
  0
POLYLINE
  5
1772
  8
241
 10
275.19479931431817
 20
-11.715556723060924
 30
0.0
 66
     1
 70
     8
  0
VERTEX
  8
241
  5
18F7
 10
275.195
 20
-11.7156
 30
0.000000
  70
    32
  0
VERTEX
  8
241
  5
18F8
 10
275.202
 20
-11.7366
 30
0.000000
  70
    32
  0
VERTEX
  8
241
  5
18F9
 10
275.209
 20
-11.7576
 30
0.000000
  70
    32
  0
VERTEX
  8
241
  5
18FA
 10
275.217
 20
-11.7785
 30
0.000000
  70
    32
  0
VERTEX
  8
241
  5
18FB
 10
275.224
 20
-11.7993
 30
0.000000
  70
    32
  0
VERTEX
  8
241
  5
18FC
 10
275.232
 20
-11.8201
 30
0.000000
  70
    32
  0
VERTEX
  8
241
  5
18FD
 10
275.241
 20
-11.8408
 30
0.000000
  70
    32
  0
VERTEX
  8
241
  5
18FE
 10
275.249
 20
-11.8614
 30
0.000000
  70
    32
  0
VERTEX
  8
241
  5
18FF
 10
275.258
 20
-11.8820
 30
0.000000
  70
    32
  0
VERTEX
  8
241
  5
1900
 10
275.267
 20
-11.9024
 30
0.000000
  70
    32
  0
VERTEX
  8
241
  5
1901
 10
275.276
 20
-11.9228
 30
0.000000
  70
    32
  0
VERTEX
  8
241
  5
1902
 10
275.285
 20
-11.9432
 30
0.000000
  70
    32
  0
VERTEX
  8
241
  5
1903
 10
275.295
 20
-11.9634
 30
0.000000
  70
    32
  0
VERTEX
  8
241
  5
1904
 10
275.305
 20
-11.9835
 30
0.000000
  70
    32
  0
VERTEX
  8
241
  5
1905
 10
275.315
 20
-12.0036
 30
0.000000
  70
    32
  0
VERTEX
  8
241
  5
1906
 10
275.325
 20
-12.0236
 30
0.000000
  70
    32
  0
VERTEX
  8
241
  5
1907
 10
275.336
 20
-12.0434
 30
0.000000
  70
    32
  0
VERTEX
  8
241
  5
1908
 10
275.347
 20
-12.0632
 30
0.000000
  70
    32
  0
VERTEX
  8
241
  5
1909
 10
275.358
 20
-12.0829
 30
0.000000
  70
    32
  0
VERTEX
  8
241
  5
190A
 10
275.369
 20
-12.1025
 30
0.000000
  70
    32
  0
VERTEX
  8
241
  5
190B
 10
275.381
 20
-12.1220
 30
0.000000
  70
    32
  0
VERTEX
  8
241
  5
190C
 10
275.393
 20
-12.1414
 30
0.000000
  70
    32
  0
VERTEX
  8
241
  5
190D
 10
275.405
 20
-12.1606
 30
0.000000
  70
    32
  0
VERTEX
  8
241
  5
190E
 10
275.417
 20
-12.1798
 30
0.000000
  70
    32
  0
VERTEX
  8
241
  5
190F
 10
275.429
 20
-12.1989
 30
0.000000
  70
    32
  0
VERTEX
  8
241
  5
1910
 10
275.442
 20
-12.2178
 30
0.000000
  70
    32
  0
VERTEX
  8
241
  5
1911
 10
275.455
 20
-12.2367
 30
0.000000
  70
    32
  0
VERTEX
  8
241
  5
1912
 10
275.468
 20
-12.2554
 30
0.000000
  70
    32
  0
VERTEX
  8
241
  5
1913
 10
275.481
 20
-12.2740
 30
0.000000
  70
    32
  0
VERTEX
  8
241
  5
1914
 10
275.495
 20
-12.2925
 30
0.000000
  70
    32
  0
VERTEX
  8
241
  5
1915
 10
275.508
 20
-12.3109
 30
0.000000
  70
    32
  0
VERTEX
  8
241
  5
1916
 10
275.522
 20
-12.3292
 30
0.000000
  70
    32
  0
VERTEX
  8
241
  5
1917
 10
275.537
 20
-12.3473
 30
0.000000
  70
    32
  0
VERTEX
  8
241
  5
1918
 10
275.551
 20
-12.3653
 30
0.000000
  70
    32
  0
VERTEX
  8
241
  5
1919
 10
275.565
 20
-12.3832
 30
0.000000
  70
    32
  0
VERTEX
  8
241
  5
191A
 10
275.580
 20
-12.4010
 30
0.000000
  70
    32
  0
VERTEX
  8
241
  5
191B
 10
275.595
 20
-12.4186
 30
0.000000
  70
    32
  0
VERTEX
  8
241
  5
191C
 10
275.610
 20
-12.4361
 30
0.000000
  70
    32
  0
VERTEX
  8
241
  5
191D
 10
275.626
 20
-12.4534
 30
0.000000
  70
    32
  0
VERTEX
  8
241
  5
191E
 10
275.642
 20
-12.4707
 30
0.000000
  70
    32
  0
VERTEX
  8
241
  5
191F
 10
275.657
 20
-12.4877
 30
0.000000
  70
    32
  0
VERTEX
  8
241
  5
1920
 10
275.673
 20
-12.5047
 30
0.000000
  70
    32
  0
VERTEX
  8
241
  5
1921
 10
275.690
 20
-12.5215
 30
0.000000
  70
    32
  0
VERTEX
  8
241
  5
1922
 10
275.706
 20
-12.5381
 30
0.000000
  70
    32
  0
VERTEX
  8
241
  5
1923
 10
275.723
 20
-12.5547
 30
0.000000
  70
    32
  0
VERTEX
  8
241
  5
1924
 10
275.739
 20
-12.5710
 30
0.000000
  70
    32
  0
VERTEX
  8
241
  5
1925
 10
275.756
 20
-12.5873
 30
0.000000
  70
    32
  0
VERTEX
  8
241
  5
1926
 10
275.774
 20
-12.6033
 30
0.000000
  70
    32
  0
VERTEX
  8
241
  5
1927
 10
275.791
 20
-12.6192
 30
0.000000
  70
    32
  0
VERTEX
  8
241
  5
1928
 10
275.808
 20
-12.6350
 30
0.000000
  70
    32
  0
VERTEX
  8
241
  5
1929
 10
275.826
 20
-12.6506
 30
0.000000
  70
    32
  0
VERTEX
  8
241
  5
192A
 10
275.844
 20
-12.6661
 30
0.000000
  70
    32
  0
VERTEX
  8
241
  5
192B
 10
275.862
 20
-12.6814
 30
0.000000
  70
    32
  0
VERTEX
  8
241
  5
192C
 10
275.880
 20
-12.6965
 30
0.000000
  70
    32
  0
VERTEX
  8
241
  5
192D
 10
275.899
 20
-12.7115
 30
0.000000
  70
    32
  0
VERTEX
  8
241
  5
192E
 10
275.917
 20
-12.7263
 30
0.000000
  70
    32
  0
VERTEX
  8
241
  5
192F
 10
275.936
 20
-12.7410
 30
0.000000
  70
    32
  0
VERTEX
  8
241
  5
1930
 10
275.955
 20
-12.7555
 30
0.000000
  70
    32
  0
VERTEX
  8
241
  5
1931
 10
275.974
 20
-12.7698
 30
0.000000
  70
    32
  0
VERTEX
  8
241
  5
1932
 10
275.994
 20
-12.7840
 30
0.000000
  70
    32
  0
VERTEX
  8
241
  5
1933
 10
276.013
 20
-12.7979
 30
0.000000
  70
    32
  0
VERTEX
  8
241
  5
1934
 10
276.033
 20
-12.8117
 30
0.000000
  70
    32
  0
VERTEX
  8
241
  5
1935
 10
276.052
 20
-12.8254
 30
0.000000
  70
    32
  0
VERTEX
  8
241
  5
1936
 10
276.072
 20
-12.8389
 30
0.000000
  70
    32
  0
VERTEX
  8
241
  5
1937
 10
276.092
 20
-12.8521
 30
0.000000
  70
    32
  0
VERTEX
  8
241
  5
1938
 10
276.113
 20
-12.8653
 30
0.000000
  70
    32
  0
VERTEX
  8
241
  5
1939
 10
276.133
 20
-12.8782
 30
0.000000
  70
    32
  0
VERTEX
  8
241
  5
193A
 10
276.154
 20
-12.8910
 30
0.000000
  70
    32
  0
VERTEX
  8
241
  5
193B
 10
276.174
 20
-12.9035
 30
0.000000
  70
    32
  0
VERTEX
  8
241
  5
193C
 10
276.195
 20
-12.9159
 30
0.000000
  70
    32
  0
VERTEX
  8
241
  5
193D
 10
276.216
 20
-12.9281
 30
0.000000
  70
    32
  0
VERTEX
  8
241
  5
193E
 10
276.237
 20
-12.9402
 30
0.000000
  70
    32
  0
VERTEX
  8
241
  5
193F
 10
276.259
 20
-12.9520
 30
0.000000
  70
    32
  0
VERTEX
  8
241
  5
1940
 10
276.280
 20
-12.9637
 30
0.000000
  70
    32
  0
VERTEX
  8
241
  5
1941
 10
276.302
 20
-12.9751
 30
0.000000
  70
    32
  0
VERTEX
  8
241
  5
1942
 10
276.323
 20
-12.9864
 30
0.000000
  70
    32
  0
VERTEX
  8
241
  5
1943
 10
276.345
 20
-12.9975
 30
0.000000
  70
    32
  0
VERTEX
  8
241
  5
1944
 10
276.367
 20
-13.0084
 30
0.000000
  70
    32
  0
VERTEX
  8
241
  5
1945
 10
276.389
 20
-13.0191
 30
0.000000
  70
    32
  0
VERTEX
  8
241
  5
1946
 10
276.411
 20
-13.0296
 30
0.000000
  70
    32
  0
VERTEX
  8
241
  5
1947
 10
276.433
 20
-13.0399
 30
0.000000
  70
    32
  0
VERTEX
  8
241
  5
1948
 10
276.456
 20
-13.0500
 30
0.000000
  70
    32
  0
VERTEX
  8
241
  5
1949
 10
276.478
 20
-13.0600
 30
0.000000
  70
    32
  0
VERTEX
  8
241
  5
194A
 10
276.501
 20
-13.0697
 30
0.000000
  70
    32
  0
VERTEX
  8
241
  5
194B
 10
276.524
 20
-13.0792
 30
0.000000
  70
    32
  0
VERTEX
  8
241
  5
194C
 10
276.547
 20
-13.0885
 30
0.000000
  70
    32
  0
VERTEX
  8
241
  5
194D
 10
276.570
 20
-13.0977
 30
0.000000
  70
    32
  0
VERTEX
  8
241
  5
194E
 10
276.593
 20
-13.1066
 30
0.000000
  70
    32
  0
VERTEX
  8
241
  5
194F
 10
276.616
 20
-13.1153
 30
0.000000
  70
    32
  0
VERTEX
  8
241
  5
1950
 10
276.639
 20
-13.1238
 30
0.000000
  70
    32
  0
VERTEX
  8
241
  5
1951
 10
276.663
 20
-13.1321
 30
0.000000
  70
    32
  0
VERTEX
  8
241
  5
1952
 10
276.686
 20
-13.1402
 30
0.000000
  70
    32
  0
VERTEX
  8
241
  5
1953
 10
276.710
 20
-13.1481
 30
0.000000
  70
    32
  0
VERTEX
  8
241
  5
1954
 10
276.733
 20
-13.1558
 30
0.000000
  70
    32
  0
VERTEX
  8
241
  5
1955
 10
276.757
 20
-13.1633
 30
0.000000
  70
    32
  0
VERTEX
  8
241
  5
1956
 10
276.781
 20
-13.1706
 30
0.000000
  70
    32
  0
VERTEX
  8
241
  5
1957
 10
276.805
 20
-13.1777
 30
0.000000
  70
    32
  0
VERTEX
  8
241
  5
1958
 10
276.829
 20
-13.1845
 30
0.000000
  70
    32
  0
VERTEX
  8
241
  5
1959
 10
276.853
 20
-13.1912
 30
0.000000
  70
    32
  0
VERTEX
  8
241
  5
195A
 10
276.877
 20
-13.1976
 30
0.000000
  70
    32
  0
VERTEX
  8
241
  5
195B
 10
276.901
 20
-13.2038
 30
0.000000
  70
    32
  0
VERTEX
  8
241
  5
195C
 10
276.926
 20
-13.2098
 30
0.000000
  70
    32
  0
VERTEX
  8
241
  5
195D
 10
276.950
 20
-13.2156
 30
0.000000
  70
    32
  0
VERTEX
  8
241
  5
195E
 10
276.975
 20
-13.2212
 30
0.000000
  70
    32
  0
VERTEX
  8
241
  5
195F
 10
276.999
 20
-13.2266
 30
0.000000
  70
    32
  0
VERTEX
  8
241
  5
1960
 10
277.024
 20
-13.2318
 30
0.000000
  70
    32
  0
VERTEX
  8
241
  5
1961
 10
277.048
 20
-13.2367
 30
0.000000
  70
    32
  0
VERTEX
  8
241
  5
1962
 10
277.073
 20
-13.2414
 30
0.000000
  70
    32
  0
VERTEX
  8
241
  5
1963
 10
277.098
 20
-13.2459
 30
0.000000
  70
    32
  0
VERTEX
  8
241
  5
1964
 10
277.123
 20
-13.2502
 30
0.000000
  70
    32
  0
VERTEX
  8
241
  5
1965
 10
277.147
 20
-13.2543
 30
0.000000
  70
    32
  0
VERTEX
  8
241
  5
1966
 10
277.172
 20
-13.2581
 30
0.000000
  70
    32
  0
VERTEX
  8
241
  5
1967
 10
277.197
 20
-13.2618
 30
0.000000
  70
    32
  0
VERTEX
  8
241
  5
1968
 10
277.222
 20
-13.2652
 30
0.000000
  70
    32
  0
VERTEX
  8
241
  5
1969
 10
277.247
 20
-13.2684
 30
0.000000
  70
    32
  0
VERTEX
  8
241
  5
196A
 10
277.272
 20
-13.2714
 30
0.000000
  70
    32
  0
VERTEX
  8
241
  5
196B
 10
277.297
 20
-13.2741
 30
0.000000
  70
    32
  0
VERTEX
  8
241
  5
196C
 10
277.322
 20
-13.2767
 30
0.000000
  70
    32
  0
VERTEX
  8
241
  5
196D
 10
277.348
 20
-13.2790
 30
0.000000
  70
    32
  0
VERTEX
  8
241
  5
196E
 10
277.373
 20
-13.2811
 30
0.000000
  70
    32
  0
VERTEX
  8
241
  5
196F
 10
277.398
 20
-13.2830
 30
0.000000
  70
    32
  0
VERTEX
  8
241
  5
1970
 10
277.423
 20
-13.2846
 30
0.000000
  70
    32
  0
VERTEX
  8
241
  5
1971
 10
277.448
 20
-13.2861
 30
0.000000
  70
    32
  0
VERTEX
  8
241
  5
1972
 10
277.474
 20
-13.2873
 30
0.000000
  70
    32
  0
VERTEX
  8
241
  5
1973
 10
277.499
 20
-13.2883
 30
0.000000
  70
    32
  0
VERTEX
  8
241
  5
1974
 10
277.524
 20
-13.2891
 30
0.000000
  70
    32
  0
VERTEX
  8
241
  5
1975
 10
277.549
 20
-13.2896
 30
0.000000
  70
    32
  0
VERTEX
  8
241
  5
1976
 10
277.575
 20
-13.2900
 30
0.000000
  70
    32
  0
VERTEX
  8
241
  5
1977
 10
277.600
 20
-13.2901
 30
0.000000
  70
    32
  0
SEQEND
  8
241
  5
1978
  0
POLYLINE
  5
1773
  8
241
 10
283.60000000000002
 20
-14.471173569999866
 30
0.0
 66
     1
 70
     8
  0
VERTEX
  8
241
  5
1979
 10
283.600
 20
-14.4712
 30
0.000000
  70
    32
  0
VERTEX
  8
241
  5
197A
 10
283.661
 20
-14.4705
 30
0.000000
  70
    32
  0
VERTEX
  8
241
  5
197B
 10
283.723
 20
-14.4686
 30
0.000000
  70
    32
  0
VERTEX
  8
241
  5
197C
 10
283.784
 20
-14.4653
 30
0.000000
  70
    32
  0
VERTEX
  8
241
  5
197D
 10
283.845
 20
-14.4607
 30
0.000000
  70
    32
  0
VERTEX
  8
241
  5
197E
 10
283.906
 20
-14.4549
 30
0.000000
  70
    32
  0
VERTEX
  8
241
  5
197F
 10
283.967
 20
-14.4477
 30
0.000000
  70
    32
  0
VERTEX
  8
241
  5
1980
 10
284.027
 20
-14.4393
 30
0.000000
  70
    32
  0
VERTEX
  8
241
  5
1981
 10
284.088
 20
-14.4296
 30
0.000000
  70
    32
  0
VERTEX
  8
241
  5
1982
 10
284.148
 20
-14.4186
 30
0.000000
  70
    32
  0
VERTEX
  8
241
  5
1983
 10
284.207
 20
-14.4063
 30
0.000000
  70
    32
  0
VERTEX
  8
241
  5
1984
 10
284.267
 20
-14.3927
 30
0.000000
  70
    32
  0
VERTEX
  8
241
  5
1985
 10
284.326
 20
-14.3779
 30
0.000000
  70
    32
  0
VERTEX
  8
241
  5
1986
 10
284.384
 20
-14.3619
 30
0.000000
  70
    32
  0
VERTEX
  8
241
  5
1987
 10
284.442
 20
-14.3446
 30
0.000000
  70
    32
  0
VERTEX
  8
241
  5
1988
 10
284.500
 20
-14.3261
 30
0.000000
  70
    32
  0
VERTEX
  8
241
  5
1989
 10
284.557
 20
-14.3064
 30
0.000000
  70
    32
  0
VERTEX
  8
241
  5
198A
 10
284.613
 20
-14.2854
 30
0.000000
  70
    32
  0
VERTEX
  8
241
  5
198B
 10
284.669
 20
-14.2633
 30
0.000000
  70
    32
  0
VERTEX
  8
241
  5
198C
 10
284.724
 20
-14.2400
 30
0.000000
  70
    32
  0
VERTEX
  8
241
  5
198D
 10
284.778
 20
-14.2155
 30
0.000000
  70
    32
  0
VERTEX
  8
241
  5
198E
 10
284.832
 20
-14.1899
 30
0.000000
  70
    32
  0
VERTEX
  8
241
  5
198F
 10
284.885
 20
-14.1631
 30
0.000000
  70
    32
  0
VERTEX
  8
241
  5
1990
 10
284.937
 20
-14.1353
 30
0.000000
  70
    32
  0
VERTEX
  8
241
  5
1991
 10
284.989
 20
-14.1063
 30
0.000000
  70
    32
  0
VERTEX
  8
241
  5
1992
 10
285.040
 20
-14.0762
 30
0.000000
  70
    32
  0
VERTEX
  8
241
  5
1993
 10
285.089
 20
-14.0451
 30
0.000000
  70
    32
  0
VERTEX
  8
241
  5
1994
 10
285.138
 20
-14.0129
 30
0.000000
  70
    32
  0
VERTEX
  8
241
  5
1995
 10
285.186
 20
-13.9797
 30
0.000000
  70
    32
  0
VERTEX
  8
241
  5
1996
 10
285.233
 20
-13.9455
 30
0.000000
  70
    32
  0
VERTEX
  8
241
  5
1997
 10
285.279
 20
-13.9103
 30
0.000000
  70
    32
  0
VERTEX
  8
241
  5
1998
 10
285.324
 20
-13.8742
 30
0.000000
  70
    32
  0
VERTEX
  8
241
  5
1999
 10
285.368
 20
-13.8370
 30
0.000000
  70
    32
  0
VERTEX
  8
241
  5
199A
 10
285.411
 20
-13.7990
 30
0.000000
  70
    32
  0
VERTEX
  8
241
  5
199B
 10
285.452
 20
-13.7601
 30
0.000000
  70
    32
  0
VERTEX
  8
241
  5
199C
 10
285.493
 20
-13.7203
 30
0.000000
  70
    32
  0
VERTEX
  8
241
  5
199D
 10
285.533
 20
-13.6796
 30
0.000000
  70
    32
  0
VERTEX
  8
241
  5
199E
 10
285.571
 20
-13.6381
 30
0.000000
  70
    32
  0
VERTEX
  8
241
  5
199F
 10
285.608
 20
-13.5958
 30
0.000000
  70
    32
  0
VERTEX
  8
241
  5
19A0
 10
285.644
 20
-13.5528
 30
0.000000
  70
    32
  0
VERTEX
  8
241
  5
19A1
 10
285.679
 20
-13.5090
 30
0.000000
  70
    32
  0
VERTEX
  8
241
  5
19A2
 10
285.712
 20
-13.4644
 30
0.000000
  70
    32
  0
VERTEX
  8
241
  5
19A3
 10
285.744
 20
-13.4192
 30
0.000000
  70
    32
  0
VERTEX
  8
241
  5
19A4
 10
285.775
 20
-13.3733
 30
0.000000
  70
    32
  0
VERTEX
  8
241
  5
19A5
 10
285.805
 20
-13.3267
 30
0.000000
  70
    32
  0
VERTEX
  8
241
  5
19A6
 10
285.833
 20
-13.2795
 30
0.000000
  70
    32
  0
VERTEX
  8
241
  5
19A7
 10
285.860
 20
-13.2318
 30
0.000000
  70
    32
  0
VERTEX
  8
241
  5
19A8
 10
285.886
 20
-13.1835
 30
0.000000
  70
    32
  0
VERTEX
  8
241
  5
19A9
 10
285.910
 20
-13.1346
 30
0.000000
  70
    32
  0
VERTEX
  8
241
  5
19AA
 10
285.932
 20
-13.0853
 30
0.000000
  70
    32
  0
VERTEX
  8
241
  5
19AB
 10
285.954
 20
-13.0355
 30
0.000000
  70
    32
  0
VERTEX
  8
241
  5
19AC
 10
285.974
 20
-12.9853
 30
0.000000
  70
    32
  0
VERTEX
  8
241
  5
19AD
 10
285.992
 20
-12.9346
 30
0.000000
  70
    32
  0
VERTEX
  8
241
  5
19AE
 10
286.009
 20
-12.8836
 30
0.000000
  70
    32
  0
VERTEX
  8
241
  5
19AF
 10
286.025
 20
-12.8322
 30
0.000000
  70
    32
  0
VERTEX
  8
241
  5
19B0
 10
286.039
 20
-12.7805
 30
0.000000
  70
    32
  0
VERTEX
  8
241
  5
19B1
 10
286.052
 20
-12.7285
 30
0.000000
  70
    32
  0
VERTEX
  8
241
  5
19B2
 10
286.063
 20
-12.6763
 30
0.000000
  70
    32
  0
VERTEX
  8
241
  5
19B3
 10
286.073
 20
-12.6238
 30
0.000000
  70
    32
  0
VERTEX
  8
241
  5
19B4
 10
286.081
 20
-12.5711
 30
0.000000
  70
    32
  0
VERTEX
  8
241
  5
19B5
 10
286.088
 20
-12.5183
 30
0.000000
  70
    32
  0
VERTEX
  8
241
  5
19B6
 10
286.093
 20
-12.4654
 30
0.000000
  70
    32
  0
VERTEX
  8
241
  5
19B7
 10
286.097
 20
-12.4123
 30
0.000000
  70
    32
  0
VERTEX
  8
241
  5
19B8
 10
286.099
 20
-12.3592
 30
0.000000
  70
    32
  0
VERTEX
  8
241
  5
19B9
 10
286.100
 20
-12.3061
 30
0.000000
  70
    32
  0
VERTEX
  8
241
  5
19BA
 10
286.099
 20
-12.2530
 30
0.000000
  70
    32
  0
VERTEX
  8
241
  5
19BB
 10
286.097
 20
-12.1999
 30
0.000000
  70
    32
  0
VERTEX
  8
241
  5
19BC
 10
286.093
 20
-12.1468
 30
0.000000
  70
    32
  0
VERTEX
  8
241
  5
19BD
 10
286.088
 20
-12.0939
 30
0.000000
  70
    32
  0
VERTEX
  8
241
  5
19BE
 10
286.081
 20
-12.0411
 30
0.000000
  70
    32
  0
VERTEX
  8
241
  5
19BF
 10
286.073
 20
-11.9884
 30
0.000000
  70
    32
  0
VERTEX
  8
241
  5
19C0
 10
286.063
 20
-11.9360
 30
0.000000
  70
    32
  0
VERTEX
  8
241
  5
19C1
 10
286.052
 20
-11.8837
 30
0.000000
  70
    32
  0
VERTEX
  8
241
  5
19C2
 10
286.039
 20
-11.8317
 30
0.000000
  70
    32
  0
VERTEX
  8
241
  5
19C3
 10
286.025
 20
-11.7800
 30
0.000000
  70
    32
  0
VERTEX
  8
241
  5
19C4
 10
286.009
 20
-11.7287
 30
0.000000
  70
    32
  0
VERTEX
  8
241
  5
19C5
 10
285.992
 20
-11.6776
 30
0.000000
  70
    32
  0
VERTEX
  8
241
  5
19C6
 10
285.974
 20
-11.6270
 30
0.000000
  70
    32
  0
VERTEX
  8
241
  5
19C7
 10
285.954
 20
-11.5767
 30
0.000000
  70
    32
  0
VERTEX
  8
241
  5
19C8
 10
285.932
 20
-11.5269
 30
0.000000
  70
    32
  0
VERTEX
  8
241
  5
19C9
 10
285.910
 20
-11.4776
 30
0.000000
  70
    32
  0
VERTEX
  8
241
  5
19CA
 10
285.886
 20
-11.4287
 30
0.000000
  70
    32
  0
VERTEX
  8
241
  5
19CB
 10
285.860
 20
-11.3804
 30
0.000000
  70
    32
  0
VERTEX
  8
241
  5
19CC
 10
285.833
 20
-11.3327
 30
0.000000
  70
    32
  0
VERTEX
  8
241
  5
19CD
 10
285.805
 20
-11.2855
 30
0.000000
  70
    32
  0
VERTEX
  8
241
  5
19CE
 10
285.775
 20
-11.2390
 30
0.000000
  70
    32
  0
VERTEX
  8
241
  5
19CF
 10
285.744
 20
-11.1930
 30
0.000000
  70
    32
  0
VERTEX
  8
241
  5
19D0
 10
285.712
 20
-11.1478
 30
0.000000
  70
    32
  0
VERTEX
  8
241
  5
19D1
 10
285.679
 20
-11.1033
 30
0.000000
  70
    32
  0
VERTEX
  8
241
  5
19D2
 10
285.644
 20
-11.0594
 30
0.000000
  70
    32
  0
VERTEX
  8
241
  5
19D3
 10
285.608
 20
-11.0164
 30
0.000000
  70
    32
  0
VERTEX
  8
241
  5
19D4
 10
285.571
 20
-10.9741
 30
0.000000
  70
    32
  0
VERTEX
  8
241
  5
19D5
 10
285.533
 20
-10.9326
 30
0.000000
  70
    32
  0
VERTEX
  8
241
  5
19D6
 10
285.493
 20
-10.8919
 30
0.000000
  70
    32
  0
VERTEX
  8
241
  5
19D7
 10
285.452
 20
-10.8521
 30
0.000000
  70
    32
  0
VERTEX
  8
241
  5
19D8
 10
285.411
 20
-10.8132
 30
0.000000
  70
    32
  0
VERTEX
  8
241
  5
19D9
 10
285.368
 20
-10.7752
 30
0.000000
  70
    32
  0
VERTEX
  8
241
  5
19DA
 10
285.324
 20
-10.7381
 30
0.000000
  70
    32
  0
VERTEX
  8
241
  5
19DB
 10
285.279
 20
-10.7019
 30
0.000000
  70
    32
  0
VERTEX
  8
241
  5
19DC
 10
285.233
 20
-10.6667
 30
0.000000
  70
    32
  0
VERTEX
  8
241
  5
19DD
 10
285.186
 20
-10.6325
 30
0.000000
  70
    32
  0
VERTEX
  8
241
  5
19DE
 10
285.138
 20
-10.5993
 30
0.000000
  70
    32
  0
VERTEX
  8
241
  5
19DF
 10
285.089
 20
-10.5671
 30
0.000000
  70
    32
  0
VERTEX
  8
241
  5
19E0
 10
285.040
 20
-10.5360
 30
0.000000
  70
    32
  0
VERTEX
  8
241
  5
19E1
 10
284.989
 20
-10.5059
 30
0.000000
  70
    32
  0
VERTEX
  8
241
  5
19E2
 10
284.937
 20
-10.4769
 30
0.000000
  70
    32
  0
VERTEX
  8
241
  5
19E3
 10
284.885
 20
-10.4491
 30
0.000000
  70
    32
  0
VERTEX
  8
241
  5
19E4
 10
284.832
 20
-10.4223
 30
0.000000
  70
    32
  0
VERTEX
  8
241
  5
19E5
 10
284.778
 20
-10.3967
 30
0.000000
  70
    32
  0
VERTEX
  8
241
  5
19E6
 10
284.724
 20
-10.3722
 30
0.000000
  70
    32
  0
VERTEX
  8
241
  5
19E7
 10
284.669
 20
-10.3489
 30
0.000000
  70
    32
  0
VERTEX
  8
241
  5
19E8
 10
284.613
 20
-10.3268
 30
0.000000
  70
    32
  0
VERTEX
  8
241
  5
19E9
 10
284.557
 20
-10.3059
 30
0.000000
  70
    32
  0
VERTEX
  8
241
  5
19EA
 10
284.500
 20
-10.2861
 30
0.000000
  70
    32
  0
VERTEX
  8
241
  5
19EB
 10
284.442
 20
-10.2676
 30
0.000000
  70
    32
  0
VERTEX
  8
241
  5
19EC
 10
284.384
 20
-10.2503
 30
0.000000
  70
    32
  0
VERTEX
  8
241
  5
19ED
 10
284.326
 20
-10.2343
 30
0.000000
  70
    32
  0
VERTEX
  8
241
  5
19EE
 10
284.267
 20
-10.2195
 30
0.000000
  70
    32
  0
VERTEX
  8
241
  5
19EF
 10
284.207
 20
-10.2059
 30
0.000000
  70
    32
  0
VERTEX
  8
241
  5
19F0
 10
284.148
 20
-10.1937
 30
0.000000
  70
    32
  0
VERTEX
  8
241
  5
19F1
 10
284.088
 20
-10.1826
 30
0.000000
  70
    32
  0
VERTEX
  8
241
  5
19F2
 10
284.027
 20
-10.1729
 30
0.000000
  70
    32
  0
VERTEX
  8
241
  5
19F3
 10
283.967
 20
-10.1645
 30
0.000000
  70
    32
  0
VERTEX
  8
241
  5
19F4
 10
283.906
 20
-10.1573
 30
0.000000
  70
    32
  0
VERTEX
  8
241
  5
19F5
 10
283.845
 20
-10.1515
 30
0.000000
  70
    32
  0
VERTEX
  8
241
  5
19F6
 10
283.784
 20
-10.1469
 30
0.000000
  70
    32
  0
VERTEX
  8
241
  5
19F7
 10
283.723
 20
-10.1437
 30
0.000000
  70
    32
  0
VERTEX
  8
241
  5
19F8
 10
283.661
 20
-10.1417
 30
0.000000
  70
    32
  0
VERTEX
  8
241
  5
19F9
 10
283.600
 20
-10.1410
 30
0.000000
  70
    32
  0
SEQEND
  8
241
  5
19FA
  0
POLYLINE
  5
1774
  8
241
 10
283.60000000000065
 20
-13.290063500000413
 30
0.0
 66
     1
 70
     8
  0
VERTEX
  8
241
  5
19FB
 10
283.600
 20
-13.2901
 30
0.000000
  70
    32
  0
VERTEX
  8
241
  5
19FC
 10
283.625
 20
-13.2900
 30
0.000000
  70
    32
  0
VERTEX
  8
241
  5
19FD
 10
283.651
 20
-13.2896
 30
0.000000
  70
    32
  0
VERTEX
  8
241
  5
19FE
 10
283.676
 20
-13.2891
 30
0.000000
  70
    32
  0
VERTEX
  8
241
  5
19FF
 10
283.701
 20
-13.2883
 30
0.000000
  70
    32
  0
VERTEX
  8
241
  5
1A00
 10
283.726
 20
-13.2873
 30
0.000000
  70
    32
  0
VERTEX
  8
241
  5
1A01
 10
283.752
 20
-13.2861
 30
0.000000
  70
    32
  0
VERTEX
  8
241
  5
1A02
 10
283.777
 20
-13.2846
 30
0.000000
  70
    32
  0
VERTEX
  8
241
  5
1A03
 10
283.802
 20
-13.2830
 30
0.000000
  70
    32
  0
VERTEX
  8
241
  5
1A04
 10
283.827
 20
-13.2811
 30
0.000000
  70
    32
  0
VERTEX
  8
241
  5
1A05
 10
283.852
 20
-13.2790
 30
0.000000
  70
    32
  0
VERTEX
  8
241
  5
1A06
 10
283.878
 20
-13.2767
 30
0.000000
  70
    32
  0
VERTEX
  8
241
  5
1A07
 10
283.903
 20
-13.2741
 30
0.000000
  70
    32
  0
VERTEX
  8
241
  5
1A08
 10
283.928
 20
-13.2714
 30
0.000000
  70
    32
  0
VERTEX
  8
241
  5
1A09
 10
283.953
 20
-13.2684
 30
0.000000
  70
    32
  0
VERTEX
  8
241
  5
1A0A
 10
283.978
 20
-13.2652
 30
0.000000
  70
    32
  0
VERTEX
  8
241
  5
1A0B
 10
284.003
 20
-13.2618
 30
0.000000
  70
    32
  0
VERTEX
  8
241
  5
1A0C
 10
284.028
 20
-13.2581
 30
0.000000
  70
    32
  0
VERTEX
  8
241
  5
1A0D
 10
284.053
 20
-13.2543
 30
0.000000
  70
    32
  0
VERTEX
  8
241
  5
1A0E
 10
284.077
 20
-13.2502
 30
0.000000
  70
    32
  0
VERTEX
  8
241
  5
1A0F
 10
284.102
 20
-13.2459
 30
0.000000
  70
    32
  0
VERTEX
  8
241
  5
1A10
 10
284.127
 20
-13.2414
 30
0.000000
  70
    32
  0
VERTEX
  8
241
  5
1A11
 10
284.152
 20
-13.2367
 30
0.000000
  70
    32
  0
VERTEX
  8
241
  5
1A12
 10
284.176
 20
-13.2318
 30
0.000000
  70
    32
  0
VERTEX
  8
241
  5
1A13
 10
284.201
 20
-13.2266
 30
0.000000
  70
    32
  0
VERTEX
  8
241
  5
1A14
 10
284.225
 20
-13.2212
 30
0.000000
  70
    32
  0
VERTEX
  8
241
  5
1A15
 10
284.250
 20
-13.2156
 30
0.000000
  70
    32
  0
VERTEX
  8
241
  5
1A16
 10
284.274
 20
-13.2098
 30
0.000000
  70
    32
  0
VERTEX
  8
241
  5
1A17
 10
284.299
 20
-13.2038
 30
0.000000
  70
    32
  0
VERTEX
  8
241
  5
1A18
 10
284.323
 20
-13.1976
 30
0.000000
  70
    32
  0
VERTEX
  8
241
  5
1A19
 10
284.347
 20
-13.1912
 30
0.000000
  70
    32
  0
VERTEX
  8
241
  5
1A1A
 10
284.371
 20
-13.1845
 30
0.000000
  70
    32
  0
VERTEX
  8
241
  5
1A1B
 10
284.395
 20
-13.1777
 30
0.000000
  70
    32
  0
VERTEX
  8
241
  5
1A1C
 10
284.419
 20
-13.1706
 30
0.000000
  70
    32
  0
VERTEX
  8
241
  5
1A1D
 10
284.443
 20
-13.1633
 30
0.000000
  70
    32
  0
VERTEX
  8
241
  5
1A1E
 10
284.467
 20
-13.1558
 30
0.000000
  70
    32
  0
VERTEX
  8
241
  5
1A1F
 10
284.490
 20
-13.1481
 30
0.000000
  70
    32
  0
VERTEX
  8
241
  5
1A20
 10
284.514
 20
-13.1402
 30
0.000000
  70
    32
  0
VERTEX
  8
241
  5
1A21
 10
284.537
 20
-13.1321
 30
0.000000
  70
    32
  0
VERTEX
  8
241
  5
1A22
 10
284.561
 20
-13.1238
 30
0.000000
  70
    32
  0
VERTEX
  8
241
  5
1A23
 10
284.584
 20
-13.1153
 30
0.000000
  70
    32
  0
VERTEX
  8
241
  5
1A24
 10
284.607
 20
-13.1066
 30
0.000000
  70
    32
  0
VERTEX
  8
241
  5
1A25
 10
284.630
 20
-13.0977
 30
0.000000
  70
    32
  0
VERTEX
  8
241
  5
1A26
 10
284.653
 20
-13.0885
 30
0.000000
  70
    32
  0
VERTEX
  8
241
  5
1A27
 10
284.676
 20
-13.0792
 30
0.000000
  70
    32
  0
VERTEX
  8
241
  5
1A28
 10
284.699
 20
-13.0697
 30
0.000000
  70
    32
  0
VERTEX
  8
241
  5
1A29
 10
284.722
 20
-13.0600
 30
0.000000
  70
    32
  0
VERTEX
  8
241
  5
1A2A
 10
284.744
 20
-13.0500
 30
0.000000
  70
    32
  0
VERTEX
  8
241
  5
1A2B
 10
284.767
 20
-13.0399
 30
0.000000
  70
    32
  0
VERTEX
  8
241
  5
1A2C
 10
284.789
 20
-13.0296
 30
0.000000
  70
    32
  0
VERTEX
  8
241
  5
1A2D
 10
284.811
 20
-13.0191
 30
0.000000
  70
    32
  0
VERTEX
  8
241
  5
1A2E
 10
284.833
 20
-13.0084
 30
0.000000
  70
    32
  0
VERTEX
  8
241
  5
1A2F
 10
284.855
 20
-12.9975
 30
0.000000
  70
    32
  0
VERTEX
  8
241
  5
1A30
 10
284.877
 20
-12.9864
 30
0.000000
  70
    32
  0
VERTEX
  8
241
  5
1A31
 10
284.898
 20
-12.9751
 30
0.000000
  70
    32
  0
VERTEX
  8
241
  5
1A32
 10
284.920
 20
-12.9637
 30
0.000000
  70
    32
  0
VERTEX
  8
241
  5
1A33
 10
284.941
 20
-12.9520
 30
0.000000
  70
    32
  0
VERTEX
  8
241
  5
1A34
 10
284.963
 20
-12.9402
 30
0.000000
  70
    32
  0
VERTEX
  8
241
  5
1A35
 10
284.984
 20
-12.9281
 30
0.000000
  70
    32
  0
VERTEX
  8
241
  5
1A36
 10
285.005
 20
-12.9159
 30
0.000000
  70
    32
  0
VERTEX
  8
241
  5
1A37
 10
285.026
 20
-12.9035
 30
0.000000
  70
    32
  0
VERTEX
  8
241
  5
1A38
 10
285.046
 20
-12.8910
 30
0.000000
  70
    32
  0
VERTEX
  8
241
  5
1A39
 10
285.067
 20
-12.8782
 30
0.000000
  70
    32
  0
VERTEX
  8
241
  5
1A3A
 10
285.087
 20
-12.8653
 30
0.000000
  70
    32
  0
VERTEX
  8
241
  5
1A3B
 10
285.108
 20
-12.8521
 30
0.000000
  70
    32
  0
VERTEX
  8
241
  5
1A3C
 10
285.128
 20
-12.8389
 30
0.000000
  70
    32
  0
VERTEX
  8
241
  5
1A3D
 10
285.148
 20
-12.8254
 30
0.000000
  70
    32
  0
VERTEX
  8
241
  5
1A3E
 10
285.167
 20
-12.8117
 30
0.000000
  70
    32
  0
VERTEX
  8
241
  5
1A3F
 10
285.187
 20
-12.7979
 30
0.000000
  70
    32
  0
VERTEX
  8
241
  5
1A40
 10
285.206
 20
-12.7840
 30
0.000000
  70
    32
  0
VERTEX
  8
241
  5
1A41
 10
285.226
 20
-12.7698
 30
0.000000
  70
    32
  0
VERTEX
  8
241
  5
1A42
 10
285.245
 20
-12.7555
 30
0.000000
  70
    32
  0
VERTEX
  8
241
  5
1A43
 10
285.264
 20
-12.7410
 30
0.000000
  70
    32
  0
VERTEX
  8
241
  5
1A44
 10
285.283
 20
-12.7263
 30
0.000000
  70
    32
  0
VERTEX
  8
241
  5
1A45
 10
285.301
 20
-12.7115
 30
0.000000
  70
    32
  0
VERTEX
  8
241
  5
1A46
 10
285.320
 20
-12.6965
 30
0.000000
  70
    32
  0
VERTEX
  8
241
  5
1A47
 10
285.338
 20
-12.6814
 30
0.000000
  70
    32
  0
VERTEX
  8
241
  5
1A48
 10
285.356
 20
-12.6661
 30
0.000000
  70
    32
  0
VERTEX
  8
241
  5
1A49
 10
285.374
 20
-12.6506
 30
0.000000
  70
    32
  0
VERTEX
  8
241
  5
1A4A
 10
285.392
 20
-12.6350
 30
0.000000
  70
    32
  0
VERTEX
  8
241
  5
1A4B
 10
285.409
 20
-12.6192
 30
0.000000
  70
    32
  0
VERTEX
  8
241
  5
1A4C
 10
285.426
 20
-12.6033
 30
0.000000
  70
    32
  0
VERTEX
  8
241
  5
1A4D
 10
285.444
 20
-12.5873
 30
0.000000
  70
    32
  0
VERTEX
  8
241
  5
1A4E
 10
285.461
 20
-12.5710
 30
0.000000
  70
    32
  0
VERTEX
  8
241
  5
1A4F
 10
285.477
 20
-12.5547
 30
0.000000
  70
    32
  0
VERTEX
  8
241
  5
1A50
 10
285.494
 20
-12.5381
 30
0.000000
  70
    32
  0
VERTEX
  8
241
  5
1A51
 10
285.510
 20
-12.5215
 30
0.000000
  70
    32
  0
VERTEX
  8
241
  5
1A52
 10
285.527
 20
-12.5047
 30
0.000000
  70
    32
  0
VERTEX
  8
241
  5
1A53
 10
285.543
 20
-12.4877
 30
0.000000
  70
    32
  0
VERTEX
  8
241
  5
1A54
 10
285.558
 20
-12.4707
 30
0.000000
  70
    32
  0
VERTEX
  8
241
  5
1A55
 10
285.574
 20
-12.4534
 30
0.000000
  70
    32
  0
VERTEX
  8
241
  5
1A56
 10
285.590
 20
-12.4361
 30
0.000000
  70
    32
  0
VERTEX
  8
241
  5
1A57
 10
285.605
 20
-12.4186
 30
0.000000
  70
    32
  0
VERTEX
  8
241
  5
1A58
 10
285.620
 20
-12.4010
 30
0.000000
  70
    32
  0
VERTEX
  8
241
  5
1A59
 10
285.635
 20
-12.3832
 30
0.000000
  70
    32
  0
VERTEX
  8
241
  5
1A5A
 10
285.649
 20
-12.3653
 30
0.000000
  70
    32
  0
VERTEX
  8
241
  5
1A5B
 10
285.663
 20
-12.3473
 30
0.000000
  70
    32
  0
VERTEX
  8
241
  5
1A5C
 10
285.678
 20
-12.3292
 30
0.000000
  70
    32
  0
VERTEX
  8
241
  5
1A5D
 10
285.692
 20
-12.3109
 30
0.000000
  70
    32
  0
VERTEX
  8
241
  5
1A5E
 10
285.705
 20
-12.2925
 30
0.000000
  70
    32
  0
VERTEX
  8
241
  5
1A5F
 10
285.719
 20
-12.2740
 30
0.000000
  70
    32
  0
VERTEX
  8
241
  5
1A60
 10
285.732
 20
-12.2554
 30
0.000000
  70
    32
  0
VERTEX
  8
241
  5
1A61
 10
285.745
 20
-12.2367
 30
0.000000
  70
    32
  0
VERTEX
  8
241
  5
1A62
 10
285.758
 20
-12.2178
 30
0.000000
  70
    32
  0
VERTEX
  8
241
  5
1A63
 10
285.771
 20
-12.1989
 30
0.000000
  70
    32
  0
VERTEX
  8
241
  5
1A64
 10
285.783
 20
-12.1798
 30
0.000000
  70
    32
  0
VERTEX
  8
241
  5
1A65
 10
285.795
 20
-12.1606
 30
0.000000
  70
    32
  0
VERTEX
  8
241
  5
1A66
 10
285.807
 20
-12.1414
 30
0.000000
  70
    32
  0
VERTEX
  8
241
  5
1A67
 10
285.819
 20
-12.1220
 30
0.000000
  70
    32
  0
VERTEX
  8
241
  5
1A68
 10
285.831
 20
-12.1025
 30
0.000000
  70
    32
  0
VERTEX
  8
241
  5
1A69
 10
285.842
 20
-12.0829
 30
0.000000
  70
    32
  0
VERTEX
  8
241
  5
1A6A
 10
285.853
 20
-12.0632
 30
0.000000
  70
    32
  0
VERTEX
  8
241
  5
1A6B
 10
285.864
 20
-12.0434
 30
0.000000
  70
    32
  0
VERTEX
  8
241
  5
1A6C
 10
285.875
 20
-12.0236
 30
0.000000
  70
    32
  0
VERTEX
  8
241
  5
1A6D
 10
285.885
 20
-12.0036
 30
0.000000
  70
    32
  0
VERTEX
  8
241
  5
1A6E
 10
285.895
 20
-11.9835
 30
0.000000
  70
    32
  0
VERTEX
  8
241
  5
1A6F
 10
285.905
 20
-11.9634
 30
0.000000
  70
    32
  0
VERTEX
  8
241
  5
1A70
 10
285.915
 20
-11.9432
 30
0.000000
  70
    32
  0
VERTEX
  8
241
  5
1A71
 10
285.924
 20
-11.9228
 30
0.000000
  70
    32
  0
VERTEX
  8
241
  5
1A72
 10
285.933
 20
-11.9024
 30
0.000000
  70
    32
  0
VERTEX
  8
241
  5
1A73
 10
285.942
 20
-11.8820
 30
0.000000
  70
    32
  0
VERTEX
  8
241
  5
1A74
 10
285.951
 20
-11.8614
 30
0.000000
  70
    32
  0
VERTEX
  8
241
  5
1A75
 10
285.959
 20
-11.8408
 30
0.000000
  70
    32
  0
VERTEX
  8
241
  5
1A76
 10
285.968
 20
-11.8201
 30
0.000000
  70
    32
  0
VERTEX
  8
241
  5
1A77
 10
285.976
 20
-11.7993
 30
0.000000
  70
    32
  0
VERTEX
  8
241
  5
1A78
 10
285.983
 20
-11.7785
 30
0.000000
  70
    32
  0
VERTEX
  8
241
  5
1A79
 10
285.991
 20
-11.7576
 30
0.000000
  70
    32
  0
VERTEX
  8
241
  5
1A7A
 10
285.998
 20
-11.7366
 30
0.000000
  70
    32
  0
VERTEX
  8
241
  5
1A7B
 10
286.005
 20
-11.7156
 30
0.000000
  70
    32
  0
SEQEND
  8
241
  5
1A7C
  0
LINE
  5
1775
  8
241
 10
277.60000000000002
 20
-13.290063509999991
 30
0.0
 11
283.60000000000002
 21
-13.290063509999991
 31
0.0
  0
LINE
  5
1776
  8
241
 10
277.60000000000002
 20
-14.47117357999999
 30
0.0
 11
283.60000000000002
 21
-14.47117357999999
 31
0.0
  0
LINE
  5
1777
  8
240
  6
CONTINUOUS
 10
274.44999999999999
 20
-24.75
 30
0.0
 11
284.19999999999999
 21
-24.75
 31
0.0
  0
LINE
  5
1778
  8
240
  6
CONTINUOUS
 10
259.85000000000002
 20
-25.0
 30
0.0
 11
274.19999999999999
 21
-25.0
 31
0.0
  0
LINE
  5
1779
  8
240
  6
CONTINUOUS
 10
259.35000000000019
 20
-25.49999999999978
 30
0.0
 11
259.85000000000002
 21
-25.0
 31
0.0
  0
LINE
  5
177A
  8
241
 10
277.19999999999999
 20
-24.75
 30
0.0
 11
277.19999999999999
 21
-14.443281099999989
 31
0.0
  0
LINE
  5
177B
  8
240
  6
CONTINUOUS
 10
274.44999999999999
 20
-24.75
 30
0.0
 11
274.19999999999999
 21
-25.0
 31
0.0
  0
LINE
  5
177C
  8
240
 10
292.97829568999998
 20
-23.887743260000001
 30
0.0
 11
286.0660254
 21
-24.249999999999989
 31
0.0
  0
LINE
  5
177D
  8
241
 10
286.0660254
 20
-24.249999999999989
 30
0.0
 11
286.0660254
 21
-12.661833319999991
 31
0.0
  0
LINE
  5
177E
  8
241
 10
284.19999999999999
 20
-24.75
 30
0.0
 11
284.19999999999999
 21
-14.40789502999999
 31
0.0
  0
LINE
  5
177F
  8
240
  6
CONTINUOUS
 10
286.0660254
 20
-24.249999999999989
 30
0.0
 11
284.19999999999999
 21
-24.75
 31
0.0
  0
LINE
  5
1780
  8
240
 10
299.0
 20
-20.788675130000001
 30
0.0
 11
294.32128782000001
 21
-23.489930869999991
 31
0.0
  0
ARC
  5
1781
  8
240
 10
292.82128782000001
 20
-20.891854659999989
 30
0.0
 40
3.0
 50
272.99999999999989
 51
300.0
1001
ASK_MEN_XD
1005
177C
1070
     1
1005
1780
1070
     1
  0
LINE
  5
1782
  8
241
 10
277.60000000000002
 20
13.29006351000001
 30
0.0
 11
283.60000000000002
 21
13.29006351000001
 31
0.0
  0
LINE
  5
1783
  8
241
 10
277.60000000000002
 20
14.471173580000009
 30
0.0
 11
283.60000000000002
 21
14.471173580000009
 31
0.0
  0
LINE
  5
1784
  8
241
 10
277.60000000000002
 20
10.14104656000001
 30
0.0
 11
283.60000000000002
 21
10.14104656000001
 31
0.0
  0
LINE
  5
1785
  8
241
 10
277.60000000000002
 20
-10.141046559999991
 30
0.0
 11
283.60000000000002
 21
-10.141046559999991
 31
0.0
  0
LINE
  5
1786
  8
241
 10
277.19999999999999
 20
10.168939050000009
 30
0.0
 11
277.19999999999999
 21
-10.16893904999999
 31
0.0
  0
POLYLINE
  5
1787
  8
241
 10
277.60000000000002
 20
10.141046569999002
 30
0.0
 66
     1
 70
     8
  0
VERTEX
  8
241
  5
1A7D
 10
277.600
 20
10.1410
 30
0.000000
  70
    32
  0
VERTEX
  8
241
  5
1A7E
 10
277.539
 20
10.1417
 30
0.000000
  70
    32
  0
VERTEX
  8
241
  5
1A7F
 10
277.477
 20
10.1437
 30
0.000000
  70
    32
  0
VERTEX
  8
241
  5
1A80
 10
277.416
 20
10.1469
 30
0.000000
  70
    32
  0
VERTEX
  8
241
  5
1A81
 10
277.355
 20
10.1515
 30
0.000000
  70
    32
  0
VERTEX
  8
241
  5
1A82
 10
277.294
 20
10.1573
 30
0.000000
  70
    32
  0
VERTEX
  8
241
  5
1A83
 10
277.233
 20
10.1645
 30
0.000000
  70
    32
  0
VERTEX
  8
241
  5
1A84
 10
277.173
 20
10.1729
 30
0.000000
  70
    32
  0
VERTEX
  8
241
  5
1A85
 10
277.112
 20
10.1826
 30
0.000000
  70
    32
  0
VERTEX
  8
241
  5
1A86
 10
277.052
 20
10.1937
 30
0.000000
  70
    32
  0
VERTEX
  8
241
  5
1A87
 10
276.993
 20
10.2059
 30
0.000000
  70
    32
  0
VERTEX
  8
241
  5
1A88
 10
276.933
 20
10.2195
 30
0.000000
  70
    32
  0
VERTEX
  8
241
  5
1A89
 10
276.874
 20
10.2343
 30
0.000000
  70
    32
  0
VERTEX
  8
241
  5
1A8A
 10
276.816
 20
10.2503
 30
0.000000
  70
    32
  0
VERTEX
  8
241
  5
1A8B
 10
276.758
 20
10.2676
 30
0.000000
  70
    32
  0
VERTEX
  8
241
  5
1A8C
 10
276.700
 20
10.2861
 30
0.000000
  70
    32
  0
VERTEX
  8
241
  5
1A8D
 10
276.643
 20
10.3059
 30
0.000000
  70
    32
  0
VERTEX
  8
241
  5
1A8E
 10
276.587
 20
10.3268
 30
0.000000
  70
    32
  0
VERTEX
  8
241
  5
1A8F
 10
276.531
 20
10.3489
 30
0.000000
  70
    32
  0
VERTEX
  8
241
  5
1A90
 10
276.476
 20
10.3722
 30
0.000000
  70
    32
  0
VERTEX
  8
241
  5
1A91
 10
276.422
 20
10.3967
 30
0.000000
  70
    32
  0
VERTEX
  8
241
  5
1A92
 10
276.368
 20
10.4223
 30
0.000000
  70
    32
  0
VERTEX
  8
241
  5
1A93
 10
276.315
 20
10.4491
 30
0.000000
  70
    32
  0
VERTEX
  8
241
  5
1A94
 10
276.263
 20
10.4769
 30
0.000000
  70
    32
  0
VERTEX
  8
241
  5
1A95
 10
276.211
 20
10.5059
 30
0.000000
  70
    32
  0
VERTEX
  8
241
  5
1A96
 10
276.160
 20
10.5360
 30
0.000000
  70
    32
  0
VERTEX
  8
241
  5
1A97
 10
276.111
 20
10.5671
 30
0.000000
  70
    32
  0
VERTEX
  8
241
  5
1A98
 10
276.062
 20
10.5993
 30
0.000000
  70
    32
  0
VERTEX
  8
241
  5
1A99
 10
276.014
 20
10.6325
 30
0.000000
  70
    32
  0
VERTEX
  8
241
  5
1A9A
 10
275.967
 20
10.6667
 30
0.000000
  70
    32
  0
VERTEX
  8
241
  5
1A9B
 10
275.921
 20
10.7019
 30
0.000000
  70
    32
  0
VERTEX
  8
241
  5
1A9C
 10
275.876
 20
10.7381
 30
0.000000
  70
    32
  0
VERTEX
  8
241
  5
1A9D
 10
275.832
 20
10.7752
 30
0.000000
  70
    32
  0
VERTEX
  8
241
  5
1A9E
 10
275.789
 20
10.8132
 30
0.000000
  70
    32
  0
VERTEX
  8
241
  5
1A9F
 10
275.748
 20
10.8521
 30
0.000000
  70
    32
  0
VERTEX
  8
241
  5
1AA0
 10
275.707
 20
10.8919
 30
0.000000
  70
    32
  0
VERTEX
  8
241
  5
1AA1
 10
275.667
 20
10.9326
 30
0.000000
  70
    32
  0
VERTEX
  8
241
  5
1AA2
 10
275.629
 20
10.9741
 30
0.000000
  70
    32
  0
VERTEX
  8
241
  5
1AA3
 10
275.592
 20
11.0164
 30
0.000000
  70
    32
  0
VERTEX
  8
241
  5
1AA4
 10
275.556
 20
11.0594
 30
0.000000
  70
    32
  0
VERTEX
  8
241
  5
1AA5
 10
275.521
 20
11.1033
 30
0.000000
  70
    32
  0
VERTEX
  8
241
  5
1AA6
 10
275.488
 20
11.1478
 30
0.000000
  70
    32
  0
VERTEX
  8
241
  5
1AA7
 10
275.456
 20
11.1930
 30
0.000000
  70
    32
  0
VERTEX
  8
241
  5
1AA8
 10
275.425
 20
11.2390
 30
0.000000
  70
    32
  0
VERTEX
  8
241
  5
1AA9
 10
275.395
 20
11.2855
 30
0.000000
  70
    32
  0
VERTEX
  8
241
  5
1AAA
 10
275.367
 20
11.3327
 30
0.000000
  70
    32
  0
VERTEX
  8
241
  5
1AAB
 10
275.340
 20
11.3804
 30
0.000000
  70
    32
  0
VERTEX
  8
241
  5
1AAC
 10
275.314
 20
11.4287
 30
0.000000
  70
    32
  0
VERTEX
  8
241
  5
1AAD
 10
275.290
 20
11.4776
 30
0.000000
  70
    32
  0
VERTEX
  8
241
  5
1AAE
 10
275.268
 20
11.5269
 30
0.000000
  70
    32
  0
VERTEX
  8
241
  5
1AAF
 10
275.246
 20
11.5767
 30
0.000000
  70
    32
  0
VERTEX
  8
241
  5
1AB0
 10
275.226
 20
11.6270
 30
0.000000
  70
    32
  0
VERTEX
  8
241
  5
1AB1
 10
275.208
 20
11.6776
 30
0.000000
  70
    32
  0
VERTEX
  8
241
  5
1AB2
 10
275.191
 20
11.7287
 30
0.000000
  70
    32
  0
VERTEX
  8
241
  5
1AB3
 10
275.175
 20
11.7800
 30
0.000000
  70
    32
  0
VERTEX
  8
241
  5
1AB4
 10
275.161
 20
11.8317
 30
0.000000
  70
    32
  0
VERTEX
  8
241
  5
1AB5
 10
275.148
 20
11.8837
 30
0.000000
  70
    32
  0
VERTEX
  8
241
  5
1AB6
 10
275.137
 20
11.9360
 30
0.000000
  70
    32
  0
VERTEX
  8
241
  5
1AB7
 10
275.127
 20
11.9884
 30
0.000000
  70
    32
  0
VERTEX
  8
241
  5
1AB8
 10
275.119
 20
12.0411
 30
0.000000
  70
    32
  0
VERTEX
  8
241
  5
1AB9
 10
275.112
 20
12.0939
 30
0.000000
  70
    32
  0
VERTEX
  8
241
  5
1ABA
 10
275.107
 20
12.1468
 30
0.000000
  70
    32
  0
VERTEX
  8
241
  5
1ABB
 10
275.103
 20
12.1999
 30
0.000000
  70
    32
  0
VERTEX
  8
241
  5
1ABC
 10
275.101
 20
12.2530
 30
0.000000
  70
    32
  0
VERTEX
  8
241
  5
1ABD
 10
275.100
 20
12.3061
 30
0.000000
  70
    32
  0
VERTEX
  8
241
  5
1ABE
 10
275.101
 20
12.3592
 30
0.000000
  70
    32
  0
VERTEX
  8
241
  5
1ABF
 10
275.103
 20
12.4123
 30
0.000000
  70
    32
  0
VERTEX
  8
241
  5
1AC0
 10
275.107
 20
12.4654
 30
0.000000
  70
    32
  0
VERTEX
  8
241
  5
1AC1
 10
275.112
 20
12.5183
 30
0.000000
  70
    32
  0
VERTEX
  8
241
  5
1AC2
 10
275.119
 20
12.5711
 30
0.000000
  70
    32
  0
VERTEX
  8
241
  5
1AC3
 10
275.127
 20
12.6238
 30
0.000000
  70
    32
  0
VERTEX
  8
241
  5
1AC4
 10
275.137
 20
12.6763
 30
0.000000
  70
    32
  0
VERTEX
  8
241
  5
1AC5
 10
275.148
 20
12.7285
 30
0.000000
  70
    32
  0
VERTEX
  8
241
  5
1AC6
 10
275.161
 20
12.7805
 30
0.000000
  70
    32
  0
VERTEX
  8
241
  5
1AC7
 10
275.175
 20
12.8322
 30
0.000000
  70
    32
  0
VERTEX
  8
241
  5
1AC8
 10
275.191
 20
12.8836
 30
0.000000
  70
    32
  0
VERTEX
  8
241
  5
1AC9
 10
275.208
 20
12.9346
 30
0.000000
  70
    32
  0
VERTEX
  8
241
  5
1ACA
 10
275.226
 20
12.9853
 30
0.000000
  70
    32
  0
VERTEX
  8
241
  5
1ACB
 10
275.246
 20
13.0355
 30
0.000000
  70
    32
  0
VERTEX
  8
241
  5
1ACC
 10
275.268
 20
13.0853
 30
0.000000
  70
    32
  0
VERTEX
  8
241
  5
1ACD
 10
275.290
 20
13.1346
 30
0.000000
  70
    32
  0
VERTEX
  8
241
  5
1ACE
 10
275.314
 20
13.1835
 30
0.000000
  70
    32
  0
VERTEX
  8
241
  5
1ACF
 10
275.340
 20
13.2318
 30
0.000000
  70
    32
  0
VERTEX
  8
241
  5
1AD0
 10
275.367
 20
13.2795
 30
0.000000
  70
    32
  0
VERTEX
  8
241
  5
1AD1
 10
275.395
 20
13.3267
 30
0.000000
  70
    32
  0
VERTEX
  8
241
  5
1AD2
 10
275.425
 20
13.3733
 30
0.000000
  70
    32
  0
VERTEX
  8
241
  5
1AD3
 10
275.456
 20
13.4192
 30
0.000000
  70
    32
  0
VERTEX
  8
241
  5
1AD4
 10
275.488
 20
13.4644
 30
0.000000
  70
    32
  0
VERTEX
  8
241
  5
1AD5
 10
275.521
 20
13.5090
 30
0.000000
  70
    32
  0
VERTEX
  8
241
  5
1AD6
 10
275.556
 20
13.5528
 30
0.000000
  70
    32
  0
VERTEX
  8
241
  5
1AD7
 10
275.592
 20
13.5958
 30
0.000000
  70
    32
  0
VERTEX
  8
241
  5
1AD8
 10
275.629
 20
13.6381
 30
0.000000
  70
    32
  0
VERTEX
  8
241
  5
1AD9
 10
275.667
 20
13.6796
 30
0.000000
  70
    32
  0
VERTEX
  8
241
  5
1ADA
 10
275.707
 20
13.7203
 30
0.000000
  70
    32
  0
VERTEX
  8
241
  5
1ADB
 10
275.748
 20
13.7601
 30
0.000000
  70
    32
  0
VERTEX
  8
241
  5
1ADC
 10
275.789
 20
13.7990
 30
0.000000
  70
    32
  0
VERTEX
  8
241
  5
1ADD
 10
275.832
 20
13.8370
 30
0.000000
  70
    32
  0
VERTEX
  8
241
  5
1ADE
 10
275.876
 20
13.8742
 30
0.000000
  70
    32
  0
VERTEX
  8
241
  5
1ADF
 10
275.921
 20
13.9103
 30
0.000000
  70
    32
  0
VERTEX
  8
241
  5
1AE0
 10
275.967
 20
13.9455
 30
0.000000
  70
    32
  0
VERTEX
  8
241
  5
1AE1
 10
276.014
 20
13.9797
 30
0.000000
  70
    32
  0
VERTEX
  8
241
  5
1AE2
 10
276.062
 20
14.0129
 30
0.000000
  70
    32
  0
VERTEX
  8
241
  5
1AE3
 10
276.111
 20
14.0451
 30
0.000000
  70
    32
  0
VERTEX
  8
241
  5
1AE4
 10
276.160
 20
14.0762
 30
0.000000
  70
    32
  0
VERTEX
  8
241
  5
1AE5
 10
276.211
 20
14.1063
 30
0.000000
  70
    32
  0
VERTEX
  8
241
  5
1AE6
 10
276.263
 20
14.1353
 30
0.000000
  70
    32
  0
VERTEX
  8
241
  5
1AE7
 10
276.315
 20
14.1631
 30
0.000000
  70
    32
  0
VERTEX
  8
241
  5
1AE8
 10
276.368
 20
14.1899
 30
0.000000
  70
    32
  0
VERTEX
  8
241
  5
1AE9
 10
276.422
 20
14.2155
 30
0.000000
  70
    32
  0
VERTEX
  8
241
  5
1AEA
 10
276.476
 20
14.2400
 30
0.000000
  70
    32
  0
VERTEX
  8
241
  5
1AEB
 10
276.531
 20
14.2633
 30
0.000000
  70
    32
  0
VERTEX
  8
241
  5
1AEC
 10
276.587
 20
14.2854
 30
0.000000
  70
    32
  0
VERTEX
  8
241
  5
1AED
 10
276.643
 20
14.3064
 30
0.000000
  70
    32
  0
VERTEX
  8
241
  5
1AEE
 10
276.700
 20
14.3261
 30
0.000000
  70
    32
  0
VERTEX
  8
241
  5
1AEF
 10
276.758
 20
14.3446
 30
0.000000
  70
    32
  0
VERTEX
  8
241
  5
1AF0
 10
276.816
 20
14.3619
 30
0.000000
  70
    32
  0
VERTEX
  8
241
  5
1AF1
 10
276.874
 20
14.3779
 30
0.000000
  70
    32
  0
VERTEX
  8
241
  5
1AF2
 10
276.933
 20
14.3927
 30
0.000000
  70
    32
  0
VERTEX
  8
241
  5
1AF3
 10
276.993
 20
14.4063
 30
0.000000
  70
    32
  0
VERTEX
  8
241
  5
1AF4
 10
277.052
 20
14.4186
 30
0.000000
  70
    32
  0
VERTEX
  8
241
  5
1AF5
 10
277.112
 20
14.4296
 30
0.000000
  70
    32
  0
VERTEX
  8
241
  5
1AF6
 10
277.173
 20
14.4393
 30
0.000000
  70
    32
  0
VERTEX
  8
241
  5
1AF7
 10
277.233
 20
14.4477
 30
0.000000
  70
    32
  0
VERTEX
  8
241
  5
1AF8
 10
277.294
 20
14.4549
 30
0.000000
  70
    32
  0
VERTEX
  8
241
  5
1AF9
 10
277.355
 20
14.4607
 30
0.000000
  70
    32
  0
VERTEX
  8
241
  5
1AFA
 10
277.416
 20
14.4653
 30
0.000000
  70
    32
  0
VERTEX
  8
241
  5
1AFB
 10
277.477
 20
14.4686
 30
0.000000
  70
    32
  0
VERTEX
  8
241
  5
1AFC
 10
277.539
 20
14.4705
 30
0.000000
  70
    32
  0
VERTEX
  8
241
  5
1AFD
 10
277.600
 20
14.4712
 30
0.000000
  70
    32
  0
SEQEND
  8
241
  5
1AFE
  0
POLYLINE
  5
1788
  8
241
 10
275.19479931431823
 20
11.715556723060944
 30
0.0
 66
     1
 70
     8
  0
VERTEX
  8
241
  5
1AFF
 10
275.195
 20
11.7156
 30
0.000000
  70
    32
  0
VERTEX
  8
241
  5
1B00
 10
275.202
 20
11.7366
 30
0.000000
  70
    32
  0
VERTEX
  8
241
  5
1B01
 10
275.209
 20
11.7576
 30
0.000000
  70
    32
  0
VERTEX
  8
241
  5
1B02
 10
275.217
 20
11.7785
 30
0.000000
  70
    32
  0
VERTEX
  8
241
  5
1B03
 10
275.224
 20
11.7993
 30
0.000000
  70
    32
  0
VERTEX
  8
241
  5
1B04
 10
275.232
 20
11.8201
 30
0.000000
  70
    32
  0
VERTEX
  8
241
  5
1B05
 10
275.241
 20
11.8408
 30
0.000000
  70
    32
  0
VERTEX
  8
241
  5
1B06
 10
275.249
 20
11.8614
 30
0.000000
  70
    32
  0
VERTEX
  8
241
  5
1B07
 10
275.258
 20
11.8820
 30
0.000000
  70
    32
  0
VERTEX
  8
241
  5
1B08
 10
275.267
 20
11.9024
 30
0.000000
  70
    32
  0
VERTEX
  8
241
  5
1B09
 10
275.276
 20
11.9228
 30
0.000000
  70
    32
  0
VERTEX
  8
241
  5
1B0A
 10
275.285
 20
11.9432
 30
0.000000
  70
    32
  0
VERTEX
  8
241
  5
1B0B
 10
275.295
 20
11.9634
 30
0.000000
  70
    32
  0
VERTEX
  8
241
  5
1B0C
 10
275.305
 20
11.9835
 30
0.000000
  70
    32
  0
VERTEX
  8
241
  5
1B0D
 10
275.315
 20
12.0036
 30
0.000000
  70
    32
  0
VERTEX
  8
241
  5
1B0E
 10
275.325
 20
12.0236
 30
0.000000
  70
    32
  0
VERTEX
  8
241
  5
1B0F
 10
275.336
 20
12.0434
 30
0.000000
  70
    32
  0
VERTEX
  8
241
  5
1B10
 10
275.347
 20
12.0632
 30
0.000000
  70
    32
  0
VERTEX
  8
241
  5
1B11
 10
275.358
 20
12.0829
 30
0.000000
  70
    32
  0
VERTEX
  8
241
  5
1B12
 10
275.369
 20
12.1025
 30
0.000000
  70
    32
  0
VERTEX
  8
241
  5
1B13
 10
275.381
 20
12.1220
 30
0.000000
  70
    32
  0
VERTEX
  8
241
  5
1B14
 10
275.393
 20
12.1414
 30
0.000000
  70
    32
  0
VERTEX
  8
241
  5
1B15
 10
275.405
 20
12.1606
 30
0.000000
  70
    32
  0
VERTEX
  8
241
  5
1B16
 10
275.417
 20
12.1798
 30
0.000000
  70
    32
  0
VERTEX
  8
241
  5
1B17
 10
275.429
 20
12.1989
 30
0.000000
  70
    32
  0
VERTEX
  8
241
  5
1B18
 10
275.442
 20
12.2178
 30
0.000000
  70
    32
  0
VERTEX
  8
241
  5
1B19
 10
275.455
 20
12.2367
 30
0.000000
  70
    32
  0
VERTEX
  8
241
  5
1B1A
 10
275.468
 20
12.2554
 30
0.000000
  70
    32
  0
VERTEX
  8
241
  5
1B1B
 10
275.481
 20
12.2740
 30
0.000000
  70
    32
  0
VERTEX
  8
241
  5
1B1C
 10
275.495
 20
12.2925
 30
0.000000
  70
    32
  0
VERTEX
  8
241
  5
1B1D
 10
275.508
 20
12.3109
 30
0.000000
  70
    32
  0
VERTEX
  8
241
  5
1B1E
 10
275.522
 20
12.3292
 30
0.000000
  70
    32
  0
VERTEX
  8
241
  5
1B1F
 10
275.537
 20
12.3473
 30
0.000000
  70
    32
  0
VERTEX
  8
241
  5
1B20
 10
275.551
 20
12.3653
 30
0.000000
  70
    32
  0
VERTEX
  8
241
  5
1B21
 10
275.565
 20
12.3832
 30
0.000000
  70
    32
  0
VERTEX
  8
241
  5
1B22
 10
275.580
 20
12.4010
 30
0.000000
  70
    32
  0
VERTEX
  8
241
  5
1B23
 10
275.595
 20
12.4186
 30
0.000000
  70
    32
  0
VERTEX
  8
241
  5
1B24
 10
275.610
 20
12.4361
 30
0.000000
  70
    32
  0
VERTEX
  8
241
  5
1B25
 10
275.626
 20
12.4534
 30
0.000000
  70
    32
  0
VERTEX
  8
241
  5
1B26
 10
275.642
 20
12.4707
 30
0.000000
  70
    32
  0
VERTEX
  8
241
  5
1B27
 10
275.657
 20
12.4877
 30
0.000000
  70
    32
  0
VERTEX
  8
241
  5
1B28
 10
275.673
 20
12.5047
 30
0.000000
  70
    32
  0
VERTEX
  8
241
  5
1B29
 10
275.690
 20
12.5215
 30
0.000000
  70
    32
  0
VERTEX
  8
241
  5
1B2A
 10
275.706
 20
12.5381
 30
0.000000
  70
    32
  0
VERTEX
  8
241
  5
1B2B
 10
275.723
 20
12.5547
 30
0.000000
  70
    32
  0
VERTEX
  8
241
  5
1B2C
 10
275.739
 20
12.5710
 30
0.000000
  70
    32
  0
VERTEX
  8
241
  5
1B2D
 10
275.756
 20
12.5873
 30
0.000000
  70
    32
  0
VERTEX
  8
241
  5
1B2E
 10
275.774
 20
12.6033
 30
0.000000
  70
    32
  0
VERTEX
  8
241
  5
1B2F
 10
275.791
 20
12.6192
 30
0.000000
  70
    32
  0
VERTEX
  8
241
  5
1B30
 10
275.808
 20
12.6350
 30
0.000000
  70
    32
  0
VERTEX
  8
241
  5
1B31
 10
275.826
 20
12.6506
 30
0.000000
  70
    32
  0
VERTEX
  8
241
  5
1B32
 10
275.844
 20
12.6661
 30
0.000000
  70
    32
  0
VERTEX
  8
241
  5
1B33
 10
275.862
 20
12.6814
 30
0.000000
  70
    32
  0
VERTEX
  8
241
  5
1B34
 10
275.880
 20
12.6965
 30
0.000000
  70
    32
  0
VERTEX
  8
241
  5
1B35
 10
275.899
 20
12.7115
 30
0.000000
  70
    32
  0
VERTEX
  8
241
  5
1B36
 10
275.917
 20
12.7263
 30
0.000000
  70
    32
  0
VERTEX
  8
241
  5
1B37
 10
275.936
 20
12.7410
 30
0.000000
  70
    32
  0
VERTEX
  8
241
  5
1B38
 10
275.955
 20
12.7555
 30
0.000000
  70
    32
  0
VERTEX
  8
241
  5
1B39
 10
275.974
 20
12.7698
 30
0.000000
  70
    32
  0
VERTEX
  8
241
  5
1B3A
 10
275.994
 20
12.7840
 30
0.000000
  70
    32
  0
VERTEX
  8
241
  5
1B3B
 10
276.013
 20
12.7979
 30
0.000000
  70
    32
  0
VERTEX
  8
241
  5
1B3C
 10
276.033
 20
12.8117
 30
0.000000
  70
    32
  0
VERTEX
  8
241
  5
1B3D
 10
276.052
 20
12.8254
 30
0.000000
  70
    32
  0
VERTEX
  8
241
  5
1B3E
 10
276.072
 20
12.8389
 30
0.000000
  70
    32
  0
VERTEX
  8
241
  5
1B3F
 10
276.092
 20
12.8521
 30
0.000000
  70
    32
  0
VERTEX
  8
241
  5
1B40
 10
276.113
 20
12.8653
 30
0.000000
  70
    32
  0
VERTEX
  8
241
  5
1B41
 10
276.133
 20
12.8782
 30
0.000000
  70
    32
  0
VERTEX
  8
241
  5
1B42
 10
276.154
 20
12.8910
 30
0.000000
  70
    32
  0
VERTEX
  8
241
  5
1B43
 10
276.174
 20
12.9035
 30
0.000000
  70
    32
  0
VERTEX
  8
241
  5
1B44
 10
276.195
 20
12.9159
 30
0.000000
  70
    32
  0
VERTEX
  8
241
  5
1B45
 10
276.216
 20
12.9281
 30
0.000000
  70
    32
  0
VERTEX
  8
241
  5
1B46
 10
276.237
 20
12.9402
 30
0.000000
  70
    32
  0
VERTEX
  8
241
  5
1B47
 10
276.259
 20
12.9520
 30
0.000000
  70
    32
  0
VERTEX
  8
241
  5
1B48
 10
276.280
 20
12.9637
 30
0.000000
  70
    32
  0
VERTEX
  8
241
  5
1B49
 10
276.302
 20
12.9751
 30
0.000000
  70
    32
  0
VERTEX
  8
241
  5
1B4A
 10
276.323
 20
12.9864
 30
0.000000
  70
    32
  0
VERTEX
  8
241
  5
1B4B
 10
276.345
 20
12.9975
 30
0.000000
  70
    32
  0
VERTEX
  8
241
  5
1B4C
 10
276.367
 20
13.0084
 30
0.000000
  70
    32
  0
VERTEX
  8
241
  5
1B4D
 10
276.389
 20
13.0191
 30
0.000000
  70
    32
  0
VERTEX
  8
241
  5
1B4E
 10
276.411
 20
13.0296
 30
0.000000
  70
    32
  0
VERTEX
  8
241
  5
1B4F
 10
276.433
 20
13.0399
 30
0.000000
  70
    32
  0
VERTEX
  8
241
  5
1B50
 10
276.456
 20
13.0500
 30
0.000000
  70
    32
  0
VERTEX
  8
241
  5
1B51
 10
276.478
 20
13.0600
 30
0.000000
  70
    32
  0
VERTEX
  8
241
  5
1B52
 10
276.501
 20
13.0697
 30
0.000000
  70
    32
  0
VERTEX
  8
241
  5
1B53
 10
276.524
 20
13.0792
 30
0.000000
  70
    32
  0
VERTEX
  8
241
  5
1B54
 10
276.547
 20
13.0885
 30
0.000000
  70
    32
  0
VERTEX
  8
241
  5
1B55
 10
276.570
 20
13.0977
 30
0.000000
  70
    32
  0
VERTEX
  8
241
  5
1B56
 10
276.593
 20
13.1066
 30
0.000000
  70
    32
  0
VERTEX
  8
241
  5
1B57
 10
276.616
 20
13.1153
 30
0.000000
  70
    32
  0
VERTEX
  8
241
  5
1B58
 10
276.639
 20
13.1238
 30
0.000000
  70
    32
  0
VERTEX
  8
241
  5
1B59
 10
276.663
 20
13.1321
 30
0.000000
  70
    32
  0
VERTEX
  8
241
  5
1B5A
 10
276.686
 20
13.1402
 30
0.000000
  70
    32
  0
VERTEX
  8
241
  5
1B5B
 10
276.710
 20
13.1481
 30
0.000000
  70
    32
  0
VERTEX
  8
241
  5
1B5C
 10
276.733
 20
13.1558
 30
0.000000
  70
    32
  0
VERTEX
  8
241
  5
1B5D
 10
276.757
 20
13.1633
 30
0.000000
  70
    32
  0
VERTEX
  8
241
  5
1B5E
 10
276.781
 20
13.1706
 30
0.000000
  70
    32
  0
VERTEX
  8
241
  5
1B5F
 10
276.805
 20
13.1777
 30
0.000000
  70
    32
  0
VERTEX
  8
241
  5
1B60
 10
276.829
 20
13.1845
 30
0.000000
  70
    32
  0
VERTEX
  8
241
  5
1B61
 10
276.853
 20
13.1912
 30
0.000000
  70
    32
  0
VERTEX
  8
241
  5
1B62
 10
276.877
 20
13.1976
 30
0.000000
  70
    32
  0
VERTEX
  8
241
  5
1B63
 10
276.901
 20
13.2038
 30
0.000000
  70
    32
  0
VERTEX
  8
241
  5
1B64
 10
276.926
 20
13.2098
 30
0.000000
  70
    32
  0
VERTEX
  8
241
  5
1B65
 10
276.950
 20
13.2156
 30
0.000000
  70
    32
  0
VERTEX
  8
241
  5
1B66
 10
276.975
 20
13.2212
 30
0.000000
  70
    32
  0
VERTEX
  8
241
  5
1B67
 10
276.999
 20
13.2266
 30
0.000000
  70
    32
  0
VERTEX
  8
241
  5
1B68
 10
277.024
 20
13.2318
 30
0.000000
  70
    32
  0
VERTEX
  8
241
  5
1B69
 10
277.048
 20
13.2367
 30
0.000000
  70
    32
  0
VERTEX
  8
241
  5
1B6A
 10
277.073
 20
13.2414
 30
0.000000
  70
    32
  0
VERTEX
  8
241
  5
1B6B
 10
277.098
 20
13.2459
 30
0.000000
  70
    32
  0
VERTEX
  8
241
  5
1B6C
 10
277.123
 20
13.2502
 30
0.000000
  70
    32
  0
VERTEX
  8
241
  5
1B6D
 10
277.147
 20
13.2543
 30
0.000000
  70
    32
  0
VERTEX
  8
241
  5
1B6E
 10
277.172
 20
13.2581
 30
0.000000
  70
    32
  0
VERTEX
  8
241
  5
1B6F
 10
277.197
 20
13.2618
 30
0.000000
  70
    32
  0
VERTEX
  8
241
  5
1B70
 10
277.222
 20
13.2652
 30
0.000000
  70
    32
  0
VERTEX
  8
241
  5
1B71
 10
277.247
 20
13.2684
 30
0.000000
  70
    32
  0
VERTEX
  8
241
  5
1B72
 10
277.272
 20
13.2714
 30
0.000000
  70
    32
  0
VERTEX
  8
241
  5
1B73
 10
277.297
 20
13.2741
 30
0.000000
  70
    32
  0
VERTEX
  8
241
  5
1B74
 10
277.322
 20
13.2767
 30
0.000000
  70
    32
  0
VERTEX
  8
241
  5
1B75
 10
277.348
 20
13.2790
 30
0.000000
  70
    32
  0
VERTEX
  8
241
  5
1B76
 10
277.373
 20
13.2811
 30
0.000000
  70
    32
  0
VERTEX
  8
241
  5
1B77
 10
277.398
 20
13.2830
 30
0.000000
  70
    32
  0
VERTEX
  8
241
  5
1B78
 10
277.423
 20
13.2846
 30
0.000000
  70
    32
  0
VERTEX
  8
241
  5
1B79
 10
277.448
 20
13.2861
 30
0.000000
  70
    32
  0
VERTEX
  8
241
  5
1B7A
 10
277.474
 20
13.2873
 30
0.000000
  70
    32
  0
VERTEX
  8
241
  5
1B7B
 10
277.499
 20
13.2883
 30
0.000000
  70
    32
  0
VERTEX
  8
241
  5
1B7C
 10
277.524
 20
13.2891
 30
0.000000
  70
    32
  0
VERTEX
  8
241
  5
1B7D
 10
277.549
 20
13.2896
 30
0.000000
  70
    32
  0
VERTEX
  8
241
  5
1B7E
 10
277.575
 20
13.2900
 30
0.000000
  70
    32
  0
VERTEX
  8
241
  5
1B7F
 10
277.600
 20
13.2901
 30
0.000000
  70
    32
  0
SEQEND
  8
241
  5
1B80
  0
LINE
  5
1789
  8
241
  6
HIDDEN2
 10
297.5
 20
11.81984754000001
 30
0.0
 11
297.5
 21
0.000000000000008
 31
0.0
  0
LINE
  5
178A
  8
241
 10
286.0660254
 20
-11.95038681999999
 30
0.0
 11
286.0660254
 21
11.950386820000009
 31
0.0
  0
LINE
  5
178B
  8
241
 10
284.19999999999999
 20
10.204325120000011
 30
0.0
 11
284.19999999999999
 21
-10.204325119999989
 31
0.0
  0
POLYLINE
  5
178C
  8
241
 10
283.60000000000002
 20
14.471173569999886
 30
0.0
 66
     1
 70
     8
  0
VERTEX
  8
241
  5
1B81
 10
283.600
 20
14.4712
 30
0.000000
  70
    32
  0
VERTEX
  8
241
  5
1B82
 10
283.661
 20
14.4705
 30
0.000000
  70
    32
  0
VERTEX
  8
241
  5
1B83
 10
283.723
 20
14.4686
 30
0.000000
  70
    32
  0
VERTEX
  8
241
  5
1B84
 10
283.784
 20
14.4653
 30
0.000000
  70
    32
  0
VERTEX
  8
241
  5
1B85
 10
283.845
 20
14.4607
 30
0.000000
  70
    32
  0
VERTEX
  8
241
  5
1B86
 10
283.906
 20
14.4549
 30
0.000000
  70
    32
  0
VERTEX
  8
241
  5
1B87
 10
283.967
 20
14.4477
 30
0.000000
  70
    32
  0
VERTEX
  8
241
  5
1B88
 10
284.027
 20
14.4393
 30
0.000000
  70
    32
  0
VERTEX
  8
241
  5
1B89
 10
284.088
 20
14.4296
 30
0.000000
  70
    32
  0
VERTEX
  8
241
  5
1B8A
 10
284.148
 20
14.4186
 30
0.000000
  70
    32
  0
VERTEX
  8
241
  5
1B8B
 10
284.207
 20
14.4063
 30
0.000000
  70
    32
  0
VERTEX
  8
241
  5
1B8C
 10
284.267
 20
14.3927
 30
0.000000
  70
    32
  0
VERTEX
  8
241
  5
1B8D
 10
284.326
 20
14.3779
 30
0.000000
  70
    32
  0
VERTEX
  8
241
  5
1B8E
 10
284.384
 20
14.3619
 30
0.000000
  70
    32
  0
VERTEX
  8
241
  5
1B8F
 10
284.442
 20
14.3446
 30
0.000000
  70
    32
  0
VERTEX
  8
241
  5
1B90
 10
284.500
 20
14.3261
 30
0.000000
  70
    32
  0
VERTEX
  8
241
  5
1B91
 10
284.557
 20
14.3064
 30
0.000000
  70
    32
  0
VERTEX
  8
241
  5
1B92
 10
284.613
 20
14.2854
 30
0.000000
  70
    32
  0
VERTEX
  8
241
  5
1B93
 10
284.669
 20
14.2633
 30
0.000000
  70
    32
  0
VERTEX
  8
241
  5
1B94
 10
284.724
 20
14.2400
 30
0.000000
  70
    32
  0
VERTEX
  8
241
  5
1B95
 10
284.778
 20
14.2155
 30
0.000000
  70
    32
  0
VERTEX
  8
241
  5
1B96
 10
284.832
 20
14.1899
 30
0.000000
  70
    32
  0
VERTEX
  8
241
  5
1B97
 10
284.885
 20
14.1631
 30
0.000000
  70
    32
  0
VERTEX
  8
241
  5
1B98
 10
284.937
 20
14.1353
 30
0.000000
  70
    32
  0
VERTEX
  8
241
  5
1B99
 10
284.989
 20
14.1063
 30
0.000000
  70
    32
  0
VERTEX
  8
241
  5
1B9A
 10
285.040
 20
14.0762
 30
0.000000
  70
    32
  0
VERTEX
  8
241
  5
1B9B
 10
285.089
 20
14.0451
 30
0.000000
  70
    32
  0
VERTEX
  8
241
  5
1B9C
 10
285.138
 20
14.0129
 30
0.000000
  70
    32
  0
VERTEX
  8
241
  5
1B9D
 10
285.186
 20
13.9797
 30
0.000000
  70
    32
  0
VERTEX
  8
241
  5
1B9E
 10
285.233
 20
13.9455
 30
0.000000
  70
    32
  0
VERTEX
  8
241
  5
1B9F
 10
285.279
 20
13.9103
 30
0.000000
  70
    32
  0
VERTEX
  8
241
  5
1BA0
 10
285.324
 20
13.8742
 30
0.000000
  70
    32
  0
VERTEX
  8
241
  5
1BA1
 10
285.368
 20
13.8370
 30
0.000000
  70
    32
  0
VERTEX
  8
241
  5
1BA2
 10
285.411
 20
13.7990
 30
0.000000
  70
    32
  0
VERTEX
  8
241
  5
1BA3
 10
285.452
 20
13.7601
 30
0.000000
  70
    32
  0
VERTEX
  8
241
  5
1BA4
 10
285.493
 20
13.7203
 30
0.000000
  70
    32
  0
VERTEX
  8
241
  5
1BA5
 10
285.533
 20
13.6796
 30
0.000000
  70
    32
  0
VERTEX
  8
241
  5
1BA6
 10
285.571
 20
13.6381
 30
0.000000
  70
    32
  0
VERTEX
  8
241
  5
1BA7
 10
285.608
 20
13.5958
 30
0.000000
  70
    32
  0
VERTEX
  8
241
  5
1BA8
 10
285.644
 20
13.5528
 30
0.000000
  70
    32
  0
VERTEX
  8
241
  5
1BA9
 10
285.679
 20
13.5090
 30
0.000000
  70
    32
  0
VERTEX
  8
241
  5
1BAA
 10
285.712
 20
13.4644
 30
0.000000
  70
    32
  0
VERTEX
  8
241
  5
1BAB
 10
285.744
 20
13.4192
 30
0.000000
  70
    32
  0
VERTEX
  8
241
  5
1BAC
 10
285.775
 20
13.3733
 30
0.000000
  70
    32
  0
VERTEX
  8
241
  5
1BAD
 10
285.805
 20
13.3267
 30
0.000000
  70
    32
  0
VERTEX
  8
241
  5
1BAE
 10
285.833
 20
13.2795
 30
0.000000
  70
    32
  0
VERTEX
  8
241
  5
1BAF
 10
285.860
 20
13.2318
 30
0.000000
  70
    32
  0
VERTEX
  8
241
  5
1BB0
 10
285.886
 20
13.1835
 30
0.000000
  70
    32
  0
VERTEX
  8
241
  5
1BB1
 10
285.910
 20
13.1346
 30
0.000000
  70
    32
  0
VERTEX
  8
241
  5
1BB2
 10
285.932
 20
13.0853
 30
0.000000
  70
    32
  0
VERTEX
  8
241
  5
1BB3
 10
285.954
 20
13.0355
 30
0.000000
  70
    32
  0
VERTEX
  8
241
  5
1BB4
 10
285.974
 20
12.9853
 30
0.000000
  70
    32
  0
VERTEX
  8
241
  5
1BB5
 10
285.992
 20
12.9346
 30
0.000000
  70
    32
  0
VERTEX
  8
241
  5
1BB6
 10
286.009
 20
12.8836
 30
0.000000
  70
    32
  0
VERTEX
  8
241
  5
1BB7
 10
286.025
 20
12.8322
 30
0.000000
  70
    32
  0
VERTEX
  8
241
  5
1BB8
 10
286.039
 20
12.7805
 30
0.000000
  70
    32
  0
VERTEX
  8
241
  5
1BB9
 10
286.052
 20
12.7285
 30
0.000000
  70
    32
  0
VERTEX
  8
241
  5
1BBA
 10
286.063
 20
12.6763
 30
0.000000
  70
    32
  0
VERTEX
  8
241
  5
1BBB
 10
286.073
 20
12.6238
 30
0.000000
  70
    32
  0
VERTEX
  8
241
  5
1BBC
 10
286.081
 20
12.5711
 30
0.000000
  70
    32
  0
VERTEX
  8
241
  5
1BBD
 10
286.088
 20
12.5183
 30
0.000000
  70
    32
  0
VERTEX
  8
241
  5
1BBE
 10
286.093
 20
12.4654
 30
0.000000
  70
    32
  0
VERTEX
  8
241
  5
1BBF
 10
286.097
 20
12.4123
 30
0.000000
  70
    32
  0
VERTEX
  8
241
  5
1BC0
 10
286.099
 20
12.3592
 30
0.000000
  70
    32
  0
VERTEX
  8
241
  5
1BC1
 10
286.100
 20
12.3061
 30
0.000000
  70
    32
  0
VERTEX
  8
241
  5
1BC2
 10
286.099
 20
12.2530
 30
0.000000
  70
    32
  0
VERTEX
  8
241
  5
1BC3
 10
286.097
 20
12.1999
 30
0.000000
  70
    32
  0
VERTEX
  8
241
  5
1BC4
 10
286.093
 20
12.1468
 30
0.000000
  70
    32
  0
VERTEX
  8
241
  5
1BC5
 10
286.088
 20
12.0939
 30
0.000000
  70
    32
  0
VERTEX
  8
241
  5
1BC6
 10
286.081
 20
12.0411
 30
0.000000
  70
    32
  0
VERTEX
  8
241
  5
1BC7
 10
286.073
 20
11.9884
 30
0.000000
  70
    32
  0
VERTEX
  8
241
  5
1BC8
 10
286.063
 20
11.9360
 30
0.000000
  70
    32
  0
VERTEX
  8
241
  5
1BC9
 10
286.052
 20
11.8837
 30
0.000000
  70
    32
  0
VERTEX
  8
241
  5
1BCA
 10
286.039
 20
11.8317
 30
0.000000
  70
    32
  0
VERTEX
  8
241
  5
1BCB
 10
286.025
 20
11.7800
 30
0.000000
  70
    32
  0
VERTEX
  8
241
  5
1BCC
 10
286.009
 20
11.7287
 30
0.000000
  70
    32
  0
VERTEX
  8
241
  5
1BCD
 10
285.992
 20
11.6776
 30
0.000000
  70
    32
  0
VERTEX
  8
241
  5
1BCE
 10
285.974
 20
11.6270
 30
0.000000
  70
    32
  0
VERTEX
  8
241
  5
1BCF
 10
285.954
 20
11.5767
 30
0.000000
  70
    32
  0
VERTEX
  8
241
  5
1BD0
 10
285.932
 20
11.5269
 30
0.000000
  70
    32
  0
VERTEX
  8
241
  5
1BD1
 10
285.910
 20
11.4776
 30
0.000000
  70
    32
  0
VERTEX
  8
241
  5
1BD2
 10
285.886
 20
11.4287
 30
0.000000
  70
    32
  0
VERTEX
  8
241
  5
1BD3
 10
285.860
 20
11.3804
 30
0.000000
  70
    32
  0
VERTEX
  8
241
  5
1BD4
 10
285.833
 20
11.3327
 30
0.000000
  70
    32
  0
VERTEX
  8
241
  5
1BD5
 10
285.805
 20
11.2855
 30
0.000000
  70
    32
  0
VERTEX
  8
241
  5
1BD6
 10
285.775
 20
11.2390
 30
0.000000
  70
    32
  0
VERTEX
  8
241
  5
1BD7
 10
285.744
 20
11.1930
 30
0.000000
  70
    32
  0
VERTEX
  8
241
  5
1BD8
 10
285.712
 20
11.1478
 30
0.000000
  70
    32
  0
VERTEX
  8
241
  5
1BD9
 10
285.679
 20
11.1033
 30
0.000000
  70
    32
  0
VERTEX
  8
241
  5
1BDA
 10
285.644
 20
11.0594
 30
0.000000
  70
    32
  0
VERTEX
  8
241
  5
1BDB
 10
285.608
 20
11.0164
 30
0.000000
  70
    32
  0
VERTEX
  8
241
  5
1BDC
 10
285.571
 20
10.9741
 30
0.000000
  70
    32
  0
VERTEX
  8
241
  5
1BDD
 10
285.533
 20
10.9326
 30
0.000000
  70
    32
  0
VERTEX
  8
241
  5
1BDE
 10
285.493
 20
10.8919
 30
0.000000
  70
    32
  0
VERTEX
  8
241
  5
1BDF
 10
285.452
 20
10.8521
 30
0.000000
  70
    32
  0
VERTEX
  8
241
  5
1BE0
 10
285.411
 20
10.8132
 30
0.000000
  70
    32
  0
VERTEX
  8
241
  5
1BE1
 10
285.368
 20
10.7752
 30
0.000000
  70
    32
  0
VERTEX
  8
241
  5
1BE2
 10
285.324
 20
10.7381
 30
0.000000
  70
    32
  0
VERTEX
  8
241
  5
1BE3
 10
285.279
 20
10.7019
 30
0.000000
  70
    32
  0
VERTEX
  8
241
  5
1BE4
 10
285.233
 20
10.6667
 30
0.000000
  70
    32
  0
VERTEX
  8
241
  5
1BE5
 10
285.186
 20
10.6325
 30
0.000000
  70
    32
  0
VERTEX
  8
241
  5
1BE6
 10
285.138
 20
10.5993
 30
0.000000
  70
    32
  0
VERTEX
  8
241
  5
1BE7
 10
285.089
 20
10.5671
 30
0.000000
  70
    32
  0
VERTEX
  8
241
  5
1BE8
 10
285.040
 20
10.5360
 30
0.000000
  70
    32
  0
VERTEX
  8
241
  5
1BE9
 10
284.989
 20
10.5059
 30
0.000000
  70
    32
  0
VERTEX
  8
241
  5
1BEA
 10
284.937
 20
10.4769
 30
0.000000
  70
    32
  0
VERTEX
  8
241
  5
1BEB
 10
284.885
 20
10.4491
 30
0.000000
  70
    32
  0
VERTEX
  8
241
  5
1BEC
 10
284.832
 20
10.4223
 30
0.000000
  70
    32
  0
VERTEX
  8
241
  5
1BED
 10
284.778
 20
10.3967
 30
0.000000
  70
    32
  0
VERTEX
  8
241
  5
1BEE
 10
284.724
 20
10.3722
 30
0.000000
  70
    32
  0
VERTEX
  8
241
  5
1BEF
 10
284.669
 20
10.3489
 30
0.000000
  70
    32
  0
VERTEX
  8
241
  5
1BF0
 10
284.613
 20
10.3268
 30
0.000000
  70
    32
  0
VERTEX
  8
241
  5
1BF1
 10
284.557
 20
10.3059
 30
0.000000
  70
    32
  0
VERTEX
  8
241
  5
1BF2
 10
284.500
 20
10.2861
 30
0.000000
  70
    32
  0
VERTEX
  8
241
  5
1BF3
 10
284.442
 20
10.2676
 30
0.000000
  70
    32
  0
VERTEX
  8
241
  5
1BF4
 10
284.384
 20
10.2503
 30
0.000000
  70
    32
  0
VERTEX
  8
241
  5
1BF5
 10
284.326
 20
10.2343
 30
0.000000
  70
    32
  0
VERTEX
  8
241
  5
1BF6
 10
284.267
 20
10.2195
 30
0.000000
  70
    32
  0
VERTEX
  8
241
  5
1BF7
 10
284.207
 20
10.2059
 30
0.000000
  70
    32
  0
VERTEX
  8
241
  5
1BF8
 10
284.148
 20
10.1937
 30
0.000000
  70
    32
  0
VERTEX
  8
241
  5
1BF9
 10
284.088
 20
10.1826
 30
0.000000
  70
    32
  0
VERTEX
  8
241
  5
1BFA
 10
284.027
 20
10.1729
 30
0.000000
  70
    32
  0
VERTEX
  8
241
  5
1BFB
 10
283.967
 20
10.1645
 30
0.000000
  70
    32
  0
VERTEX
  8
241
  5
1BFC
 10
283.906
 20
10.1573
 30
0.000000
  70
    32
  0
VERTEX
  8
241
  5
1BFD
 10
283.845
 20
10.1515
 30
0.000000
  70
    32
  0
VERTEX
  8
241
  5
1BFE
 10
283.784
 20
10.1469
 30
0.000000
  70
    32
  0
VERTEX
  8
241
  5
1BFF
 10
283.723
 20
10.1437
 30
0.000000
  70
    32
  0
VERTEX
  8
241
  5
1C00
 10
283.661
 20
10.1417
 30
0.000000
  70
    32
  0
VERTEX
  8
241
  5
1C01
 10
283.600
 20
10.1410
 30
0.000000
  70
    32
  0
SEQEND
  8
241
  5
1C02
  0
POLYLINE
  5
178D
  8
241
 10
283.6000000000007
 20
13.290063500000446
 30
0.0
 66
     1
 70
     8
  0
VERTEX
  8
241
  5
1C03
 10
283.600
 20
13.2901
 30
0.000000
  70
    32
  0
VERTEX
  8
241
  5
1C04
 10
283.625
 20
13.2900
 30
0.000000
  70
    32
  0
VERTEX
  8
241
  5
1C05
 10
283.651
 20
13.2896
 30
0.000000
  70
    32
  0
VERTEX
  8
241
  5
1C06
 10
283.676
 20
13.2891
 30
0.000000
  70
    32
  0
VERTEX
  8
241
  5
1C07
 10
283.701
 20
13.2883
 30
0.000000
  70
    32
  0
VERTEX
  8
241
  5
1C08
 10
283.726
 20
13.2873
 30
0.000000
  70
    32
  0
VERTEX
  8
241
  5
1C09
 10
283.752
 20
13.2861
 30
0.000000
  70
    32
  0
VERTEX
  8
241
  5
1C0A
 10
283.777
 20
13.2846
 30
0.000000
  70
    32
  0
VERTEX
  8
241
  5
1C0B
 10
283.802
 20
13.2830
 30
0.000000
  70
    32
  0
VERTEX
  8
241
  5
1C0C
 10
283.827
 20
13.2811
 30
0.000000
  70
    32
  0
VERTEX
  8
241
  5
1C0D
 10
283.852
 20
13.2790
 30
0.000000
  70
    32
  0
VERTEX
  8
241
  5
1C0E
 10
283.878
 20
13.2767
 30
0.000000
  70
    32
  0
VERTEX
  8
241
  5
1C0F
 10
283.903
 20
13.2741
 30
0.000000
  70
    32
  0
VERTEX
  8
241
  5
1C10
 10
283.928
 20
13.2714
 30
0.000000
  70
    32
  0
VERTEX
  8
241
  5
1C11
 10
283.953
 20
13.2684
 30
0.000000
  70
    32
  0
VERTEX
  8
241
  5
1C12
 10
283.978
 20
13.2652
 30
0.000000
  70
    32
  0
VERTEX
  8
241
  5
1C13
 10
284.003
 20
13.2618
 30
0.000000
  70
    32
  0
VERTEX
  8
241
  5
1C14
 10
284.028
 20
13.2581
 30
0.000000
  70
    32
  0
VERTEX
  8
241
  5
1C15
 10
284.053
 20
13.2543
 30
0.000000
  70
    32
  0
VERTEX
  8
241
  5
1C16
 10
284.077
 20
13.2502
 30
0.000000
  70
    32
  0
VERTEX
  8
241
  5
1C17
 10
284.102
 20
13.2459
 30
0.000000
  70
    32
  0
VERTEX
  8
241
  5
1C18
 10
284.127
 20
13.2414
 30
0.000000
  70
    32
  0
VERTEX
  8
241
  5
1C19
 10
284.152
 20
13.2367
 30
0.000000
  70
    32
  0
VERTEX
  8
241
  5
1C1A
 10
284.176
 20
13.2318
 30
0.000000
  70
    32
  0
VERTEX
  8
241
  5
1C1B
 10
284.201
 20
13.2266
 30
0.000000
  70
    32
  0
VERTEX
  8
241
  5
1C1C
 10
284.225
 20
13.2212
 30
0.000000
  70
    32
  0
VERTEX
  8
241
  5
1C1D
 10
284.250
 20
13.2156
 30
0.000000
  70
    32
  0
VERTEX
  8
241
  5
1C1E
 10
284.274
 20
13.2098
 30
0.000000
  70
    32
  0
VERTEX
  8
241
  5
1C1F
 10
284.299
 20
13.2038
 30
0.000000
  70
    32
  0
VERTEX
  8
241
  5
1C20
 10
284.323
 20
13.1976
 30
0.000000
  70
    32
  0
VERTEX
  8
241
  5
1C21
 10
284.347
 20
13.1912
 30
0.000000
  70
    32
  0
VERTEX
  8
241
  5
1C22
 10
284.371
 20
13.1845
 30
0.000000
  70
    32
  0
VERTEX
  8
241
  5
1C23
 10
284.395
 20
13.1777
 30
0.000000
  70
    32
  0
VERTEX
  8
241
  5
1C24
 10
284.419
 20
13.1706
 30
0.000000
  70
    32
  0
VERTEX
  8
241
  5
1C25
 10
284.443
 20
13.1633
 30
0.000000
  70
    32
  0
VERTEX
  8
241
  5
1C26
 10
284.467
 20
13.1558
 30
0.000000
  70
    32
  0
VERTEX
  8
241
  5
1C27
 10
284.490
 20
13.1481
 30
0.000000
  70
    32
  0
VERTEX
  8
241
  5
1C28
 10
284.514
 20
13.1402
 30
0.000000
  70
    32
  0
VERTEX
  8
241
  5
1C29
 10
284.537
 20
13.1321
 30
0.000000
  70
    32
  0
VERTEX
  8
241
  5
1C2A
 10
284.561
 20
13.1238
 30
0.000000
  70
    32
  0
VERTEX
  8
241
  5
1C2B
 10
284.584
 20
13.1153
 30
0.000000
  70
    32
  0
VERTEX
  8
241
  5
1C2C
 10
284.607
 20
13.1066
 30
0.000000
  70
    32
  0
VERTEX
  8
241
  5
1C2D
 10
284.630
 20
13.0977
 30
0.000000
  70
    32
  0
VERTEX
  8
241
  5
1C2E
 10
284.653
 20
13.0885
 30
0.000000
  70
    32
  0
VERTEX
  8
241
  5
1C2F
 10
284.676
 20
13.0792
 30
0.000000
  70
    32
  0
VERTEX
  8
241
  5
1C30
 10
284.699
 20
13.0697
 30
0.000000
  70
    32
  0
VERTEX
  8
241
  5
1C31
 10
284.722
 20
13.0600
 30
0.000000
  70
    32
  0
VERTEX
  8
241
  5
1C32
 10
284.744
 20
13.0500
 30
0.000000
  70
    32
  0
VERTEX
  8
241
  5
1C33
 10
284.767
 20
13.0399
 30
0.000000
  70
    32
  0
VERTEX
  8
241
  5
1C34
 10
284.789
 20
13.0296
 30
0.000000
  70
    32
  0
VERTEX
  8
241
  5
1C35
 10
284.811
 20
13.0191
 30
0.000000
  70
    32
  0
VERTEX
  8
241
  5
1C36
 10
284.833
 20
13.0084
 30
0.000000
  70
    32
  0
VERTEX
  8
241
  5
1C37
 10
284.855
 20
12.9975
 30
0.000000
  70
    32
  0
VERTEX
  8
241
  5
1C38
 10
284.877
 20
12.9864
 30
0.000000
  70
    32
  0
VERTEX
  8
241
  5
1C39
 10
284.898
 20
12.9751
 30
0.000000
  70
    32
  0
VERTEX
  8
241
  5
1C3A
 10
284.920
 20
12.9637
 30
0.000000
  70
    32
  0
VERTEX
  8
241
  5
1C3B
 10
284.941
 20
12.9520
 30
0.000000
  70
    32
  0
VERTEX
  8
241
  5
1C3C
 10
284.963
 20
12.9402
 30
0.000000
  70
    32
  0
VERTEX
  8
241
  5
1C3D
 10
284.984
 20
12.9281
 30
0.000000
  70
    32
  0
VERTEX
  8
241
  5
1C3E
 10
285.005
 20
12.9159
 30
0.000000
  70
    32
  0
VERTEX
  8
241
  5
1C3F
 10
285.026
 20
12.9035
 30
0.000000
  70
    32
  0
VERTEX
  8
241
  5
1C40
 10
285.046
 20
12.8910
 30
0.000000
  70
    32
  0
VERTEX
  8
241
  5
1C41
 10
285.067
 20
12.8782
 30
0.000000
  70
    32
  0
VERTEX
  8
241
  5
1C42
 10
285.087
 20
12.8653
 30
0.000000
  70
    32
  0
VERTEX
  8
241
  5
1C43
 10
285.108
 20
12.8521
 30
0.000000
  70
    32
  0
VERTEX
  8
241
  5
1C44
 10
285.128
 20
12.8389
 30
0.000000
  70
    32
  0
VERTEX
  8
241
  5
1C45
 10
285.148
 20
12.8254
 30
0.000000
  70
    32
  0
VERTEX
  8
241
  5
1C46
 10
285.167
 20
12.8117
 30
0.000000
  70
    32
  0
VERTEX
  8
241
  5
1C47
 10
285.187
 20
12.7979
 30
0.000000
  70
    32
  0
VERTEX
  8
241
  5
1C48
 10
285.206
 20
12.7840
 30
0.000000
  70
    32
  0
VERTEX
  8
241
  5
1C49
 10
285.226
 20
12.7698
 30
0.000000
  70
    32
  0
VERTEX
  8
241
  5
1C4A
 10
285.245
 20
12.7555
 30
0.000000
  70
    32
  0
VERTEX
  8
241
  5
1C4B
 10
285.264
 20
12.7410
 30
0.000000
  70
    32
  0
VERTEX
  8
241
  5
1C4C
 10
285.283
 20
12.7263
 30
0.000000
  70
    32
  0
VERTEX
  8
241
  5
1C4D
 10
285.301
 20
12.7115
 30
0.000000
  70
    32
  0
VERTEX
  8
241
  5
1C4E
 10
285.320
 20
12.6965
 30
0.000000
  70
    32
  0
VERTEX
  8
241
  5
1C4F
 10
285.338
 20
12.6814
 30
0.000000
  70
    32
  0
VERTEX
  8
241
  5
1C50
 10
285.356
 20
12.6661
 30
0.000000
  70
    32
  0
VERTEX
  8
241
  5
1C51
 10
285.374
 20
12.6506
 30
0.000000
  70
    32
  0
VERTEX
  8
241
  5
1C52
 10
285.392
 20
12.6350
 30
0.000000
  70
    32
  0
VERTEX
  8
241
  5
1C53
 10
285.409
 20
12.6192
 30
0.000000
  70
    32
  0
VERTEX
  8
241
  5
1C54
 10
285.426
 20
12.6033
 30
0.000000
  70
    32
  0
VERTEX
  8
241
  5
1C55
 10
285.444
 20
12.5873
 30
0.000000
  70
    32
  0
VERTEX
  8
241
  5
1C56
 10
285.461
 20
12.5710
 30
0.000000
  70
    32
  0
VERTEX
  8
241
  5
1C57
 10
285.477
 20
12.5547
 30
0.000000
  70
    32
  0
VERTEX
  8
241
  5
1C58
 10
285.494
 20
12.5381
 30
0.000000
  70
    32
  0
VERTEX
  8
241
  5
1C59
 10
285.510
 20
12.5215
 30
0.000000
  70
    32
  0
VERTEX
  8
241
  5
1C5A
 10
285.527
 20
12.5047
 30
0.000000
  70
    32
  0
VERTEX
  8
241
  5
1C5B
 10
285.543
 20
12.4877
 30
0.000000
  70
    32
  0
VERTEX
  8
241
  5
1C5C
 10
285.558
 20
12.4707
 30
0.000000
  70
    32
  0
VERTEX
  8
241
  5
1C5D
 10
285.574
 20
12.4534
 30
0.000000
  70
    32
  0
VERTEX
  8
241
  5
1C5E
 10
285.590
 20
12.4361
 30
0.000000
  70
    32
  0
VERTEX
  8
241
  5
1C5F
 10
285.605
 20
12.4186
 30
0.000000
  70
    32
  0
VERTEX
  8
241
  5
1C60
 10
285.620
 20
12.4010
 30
0.000000
  70
    32
  0
VERTEX
  8
241
  5
1C61
 10
285.635
 20
12.3832
 30
0.000000
  70
    32
  0
VERTEX
  8
241
  5
1C62
 10
285.649
 20
12.3653
 30
0.000000
  70
    32
  0
VERTEX
  8
241
  5
1C63
 10
285.663
 20
12.3473
 30
0.000000
  70
    32
  0
VERTEX
  8
241
  5
1C64
 10
285.678
 20
12.3292
 30
0.000000
  70
    32
  0
VERTEX
  8
241
  5
1C65
 10
285.692
 20
12.3109
 30
0.000000
  70
    32
  0
VERTEX
  8
241
  5
1C66
 10
285.705
 20
12.2925
 30
0.000000
  70
    32
  0
VERTEX
  8
241
  5
1C67
 10
285.719
 20
12.2740
 30
0.000000
  70
    32
  0
VERTEX
  8
241
  5
1C68
 10
285.732
 20
12.2554
 30
0.000000
  70
    32
  0
VERTEX
  8
241
  5
1C69
 10
285.745
 20
12.2367
 30
0.000000
  70
    32
  0
VERTEX
  8
241
  5
1C6A
 10
285.758
 20
12.2178
 30
0.000000
  70
    32
  0
VERTEX
  8
241
  5
1C6B
 10
285.771
 20
12.1989
 30
0.000000
  70
    32
  0
VERTEX
  8
241
  5
1C6C
 10
285.783
 20
12.1798
 30
0.000000
  70
    32
  0
VERTEX
  8
241
  5
1C6D
 10
285.795
 20
12.1606
 30
0.000000
  70
    32
  0
VERTEX
  8
241
  5
1C6E
 10
285.807
 20
12.1414
 30
0.000000
  70
    32
  0
VERTEX
  8
241
  5
1C6F
 10
285.819
 20
12.1220
 30
0.000000
  70
    32
  0
VERTEX
  8
241
  5
1C70
 10
285.831
 20
12.1025
 30
0.000000
  70
    32
  0
VERTEX
  8
241
  5
1C71
 10
285.842
 20
12.0829
 30
0.000000
  70
    32
  0
VERTEX
  8
241
  5
1C72
 10
285.853
 20
12.0632
 30
0.000000
  70
    32
  0
VERTEX
  8
241
  5
1C73
 10
285.864
 20
12.0434
 30
0.000000
  70
    32
  0
VERTEX
  8
241
  5
1C74
 10
285.875
 20
12.0236
 30
0.000000
  70
    32
  0
VERTEX
  8
241
  5
1C75
 10
285.885
 20
12.0036
 30
0.000000
  70
    32
  0
VERTEX
  8
241
  5
1C76
 10
285.895
 20
11.9835
 30
0.000000
  70
    32
  0
VERTEX
  8
241
  5
1C77
 10
285.905
 20
11.9634
 30
0.000000
  70
    32
  0
VERTEX
  8
241
  5
1C78
 10
285.915
 20
11.9432
 30
0.000000
  70
    32
  0
VERTEX
  8
241
  5
1C79
 10
285.924
 20
11.9228
 30
0.000000
  70
    32
  0
VERTEX
  8
241
  5
1C7A
 10
285.933
 20
11.9024
 30
0.000000
  70
    32
  0
VERTEX
  8
241
  5
1C7B
 10
285.942
 20
11.8820
 30
0.000000
  70
    32
  0
VERTEX
  8
241
  5
1C7C
 10
285.951
 20
11.8614
 30
0.000000
  70
    32
  0
VERTEX
  8
241
  5
1C7D
 10
285.959
 20
11.8408
 30
0.000000
  70
    32
  0
VERTEX
  8
241
  5
1C7E
 10
285.968
 20
11.8201
 30
0.000000
  70
    32
  0
VERTEX
  8
241
  5
1C7F
 10
285.976
 20
11.7993
 30
0.000000
  70
    32
  0
VERTEX
  8
241
  5
1C80
 10
285.983
 20
11.7785
 30
0.000000
  70
    32
  0
VERTEX
  8
241
  5
1C81
 10
285.991
 20
11.7576
 30
0.000000
  70
    32
  0
VERTEX
  8
241
  5
1C82
 10
285.998
 20
11.7366
 30
0.000000
  70
    32
  0
VERTEX
  8
241
  5
1C83
 10
286.005
 20
11.7156
 30
0.000000
  70
    32
  0
SEQEND
  8
241
  5
1C84
  0
LINE
  5
178E
  8
241
 10
299.5
 20
-16.79999999999999
 30
0.0
 11
299.5
 21
16.800000000000011
 31
0.0
  0
LINE
  5
178F
  8
240
 10
299.5
 20
-19.922649729999989
 30
0.0
 11
299.5
 21
-16.79999999999999
 31
0.0
  0
LINE
  5
1790
  8
240
 10
300.0
 20
-16.79999999999999
 30
0.0
 11
299.5
 21
-16.79999999999999
 31
0.0
  0
ARC
  5
1791
  8
240
 10
298.5
 20
19.92264973000001
 30
0.0
 40
1.0
 50
0.0
 51
60.0
1001
ASK_MEN_XD
1005
1798
1070
     1
1005
0
1070
     1
  0
LINE
  5
1792
  8
240
  6
CONTINUOUS
 10
274.44999999999999
 20
24.750000000000011
 30
0.0
 11
284.19999999999999
 21
24.750000000000011
 31
0.0
  0
LINE
  5
1793
  8
240
  6
CONTINUOUS
 10
259.85000000000002
 20
25.000000000000011
 30
0.0
 11
274.19999999999999
 21
25.000000000000011
 31
0.0
  0
LINE
  5
1794
  8
240
  6
CONTINUOUS
 10
259.35000000000008
 20
25.49999999999994
 30
0.0
 11
259.85000000000002
 21
25.000000000000011
 31
0.0
  0
LINE
  5
1795
  8
240
  6
CONTINUOUS
 10
274.44999999999999
 20
24.750000000000011
 30
0.0
 11
274.19999999999999
 21
25.000000000000011
 31
0.0
  0
LINE
  5
1796
  8
240
 10
292.97829568999998
 20
23.887743260000011
 30
0.0
 11
286.0660254
 21
24.250000000000011
 31
0.0
  0
LINE
  5
1797
  8
240
  6
CONTINUOUS
 10
286.0660254
 20
24.250000000000011
 30
0.0
 11
284.19999999999999
 21
24.750000000000011
 31
0.0
  0
LINE
  5
1798
  8
240
 10
299.0
 20
20.788675130000009
 30
0.0
 11
294.32128782000001
 21
23.489930870000009
 31
0.0
  0
ARC
  5
1799
  8
240
 10
292.82128782000001
 20
20.891854660000011
 30
0.0
 40
3.0
 50
60.0
 51
87.000000000000114
1001
ASK_MEN_XD
1005
1798
1070
     1
1005
1796
1070
     1
  0
LINE
  5
179A
  8
240
 10
300.0
 20
16.800000000000011
 30
0.0
 11
299.5
 21
16.800000000000011
 31
0.0
  0
LINE
  5
179B
  8
240
 10
299.5
 20
19.92264973000001
 30
0.0
 11
299.5
 21
16.800000000000011
 31
0.0
  0
LINE
  5
179C
  8
241
 10
1.4999999999999429
 20
34.925000000000011
 30
0.0
 11
1.5
 21
-34.924999999999983
 31
0.0
  0
LINE
  5
179D
  8
241
 10
38.000000000000028
 20
-47.824648750456817
 30
0.0
 11
37.999999999999972
 21
47.824648750456902
 31
0.0
  0
LINE
  5
179E
  8
241
  6
CONTINUOUS
 10
15.700000000000101
 20
49.826794919242118
 30
0.0
 11
15.69999999999993
 21
-49.826794919242161
 31
0.0
  0
LINE
  5
179F
  8
241
  6
CONTINUOUS
 10
-0.0000000000001195
 20
-34.92500000000004
 30
0.0
 11
0.0000000000001195
 21
34.925000000000047
 31
0.0
  0
LINE
  5
17A0
  8
241
  6
CONTINUOUS
 10
20.030127018921998
 20
-42.55505102572171
 30
0.0
 11
20.03012701892229
 21
42.555051025721667
 31
0.0
  0
LINE
  5
17A1
  8
241
 10
100.0000000000004
 20
-25.500000000000341
 30
0.0
 11
100.0000000000008
 21
25.500000000000139
 31
0.0
  0
LINE
  5
17A2
  8
241
 10
241.700000000003
 20
25.500000000000149
 30
0.0
 11
241.7000000000034
 21
-25.499999999999861
 31
0.0
  0
LINE
  5
17A3
  8
241
 10
233.7000000000028
 20
-25.499999999999972
 30
0.0
 11
233.7000000000024
 21
25.500000000000199
 31
0.0
  0
ENDBLK
  5
17A7
  8
0
  0
BLOCK
  8
0
  2
*U16
 70
     1
 10
0.0
 20
0.0
 30
0.0
  3
*U16
  1

  0
TEXT
  5
17B8
  8
250
 62
    40
 10
147.4466666666666
 20
57.0
 30
0.0
 40
2.7999999999999989
  1
üimax.85üj
  0
ENDBLK
  5
17BA
  8
0
  0
BLOCK
  8
0
  2
*U17
 70
     1
 10
0.0
 20
0.0
 30
0.0
  3
*U17
  1

  0
TEXT
  5
17BC
  8
250
 62
    40
 10
103.26295614999999
 20
64.0
 30
0.0
 40
2.7999999999999989
  1
200
  0
ENDBLK
  5
17BE
  8
0
  0
BLOCK
  8
0
  2
*U18
 70
     1
 10
0.0
 20
0.0
 30
0.0
  3
*U18
  1

  0
TEXT
  5
17C0
  8
250
 62
    40
 10
216.50020254
 20
-3.7999999999999989
 30
0.0
 40
2.7999999999999989
  1
\U+2205
 50
90.0
  0
TEXT
  5
17C1
  8
250
 62
    40
 10
216.50020254
 20
-1.2666666666666671
 30
0.0
 40
2.7999999999999989
  1
50
 50
90.0
  0
ENDBLK
  5
17C3
  8
0
  0
BLOCK
  8
0
  2
*U19
 70
     1
 10
0.0
 20
0.0
 30
0.0
  3
*U19
  1

  0
TEXT
  5
17C5
  8
250
 62
    40
 10
209.50020254
 20
-3.7999999999999989
 30
0.0
 40
2.7999999999999989
  1
\U+2205
 50
90.0
  0
TEXT
  5
17C6
  8
250
 62
    40
 10
209.50020254
 20
-1.2666666666666671
 30
0.0
 40
2.7999999999999989
  1
20
 50
90.0
  0
ENDBLK
  5
17C8
  8
0
  0
BLOCK
  8
0
  2
*U20
 70
     1
 10
0.0
 20
0.0
 30
0.0
  3
*U20
  1

  0
TEXT
  5
17CA
  8
250
 10
30.751763486666679
 20
-36.79107178000001
 30
0.0
 40
2.7999999999999989
  1
BBT50
  7
YOKO
  0
ENDBLK
  5
17CC
  8
0
  0
BLOCK
  8
0
  2
*U21
 70
     1
 10
0.0
 20
0.0
 30
0.0
  3
*U21
  1

  0
INSERT
  5
17CE
  8
250
  6
CONTINUOUS
  2
_OPEN
 10
51.921240640000001
 20
-27.913514259999999
 30
0.0
 41
2.0
 42
2.0
 43
2.0
 50
60.000000013521287
  0
POLYLINE
  5
17CF
  8
250
  6
CONTINUOUS
 66
     1
 10
0.0
 20
0.0
 30
0.0
  0
VERTEX
  5
17D0
  8
250
  6
CONTINUOUS
 10
50.92124064040874
 20
-29.645565067804871
 30
0.0
  0
VERTEX
  5
17D1
  8
250
  6
CONTINUOUS
 10
46.218430150000003
 20
-37.791071780000003
 30
0.0
  0
SEQEND
  5
17D2
  8
250
  6
CONTINUOUS
  0
ENDBLK
  5
17D4
  8
0
  0
BLOCK
  8
0
  2
*X22
 70
     1
 10
0.0
 20
0.0
 30
0.0
  3
*X22
  1

  0
LINE
  5
17D6
  8
0
 62
     0
 10
284.19999999999982
 20
22.911525448111739
 30
0.0
 11
282.36152544811142
 21
24.750000000000131
 31
0.0
  0
LINE
  5
17D7
  8
0
 62
     0
 10
284.19999999999982
 20
20.666461417844431
 30
0.0
 11
280.11646141784411
 21
24.75000000000021
 31
0.0
  0
LINE
  5
17D8
  8
0
 62
     0
 10
284.19999999999982
 20
18.421397387577159
 30
0.0
 11
277.87139738757668
 21
24.750000000000291
 31
0.0
  0
LINE
  5
17D9
  8
0
 62
     0
 10
284.19999999999982
 20
16.176333357309851
 30
0.0
 11
277.1999999999997
 21
23.176333357310021
 31
0.0
  0
LINE
  5
17DA
  8
0
 62
     0
 10
283.66073474122209
 20
14.47053458582036
 30
0.0
 11
277.1999999999997
 21
20.931269327042791
 31
0.0
  0
LINE
  5
17DB
  8
0
 62
     0
 10
281.41503171355339
 20
14.47117358322174
 30
0.0
 11
277.19999999999959
 21
18.68620529677553
 31
0.0
  0
LINE
  5
17DC
  8
0
 62
     0
 10
283.64114126650747
 20
10.000000000000369
 30
0.0
 11
283.50009470220817
 21
10.141046564299669
 31
0.0
  0
LINE
  5
17DD
  8
0
 62
     0
 10
279.16996768328602
 20
14.471173583221811
 30
0.0
 11
277.19999999999948
 21
16.441141266508339
 31
0.0
  0
LINE
  5
17DE
  8
0
 62
     0
 10
284.19999999999982
 20
9.4411412665080352
 30
0.0
 11
283.64114126650747
 21
10.0000000000003
 31
0.0
  0
LINE
  5
17DF
  8
0
 62
     0
 10
281.39607723624022
 20
10.00000000000033
 30
0.0
 11
281.2550306719408
 21
10.141046564299661
 31
0.0
  0
LINE
  5
17E0
  8
0
 62
     0
 10
284.19999999999982
 20
7.1960772362407246
 30
0.0
 11
281.39607723624022
 21
10.00000000000029
 31
0.0
  0
LINE
  5
17E1
  8
0
 62
     0
 10
279.1510132059729
 20
10.0000000000003
 30
0.0
 11
279.0099666416736
 21
10.141046564299661
 31
0.0
  0
LINE
  5
17E2
  8
0
 62
     0
 10
284.19999999999982
 20
4.9510132059734531
 30
0.0
 11
279.1510132059729
 21
10.0000000000003
 31
0.0
  0
LINE
  5
17E3
  8
0
 62
     0
 10
284.19999999999982
 20
2.705949175706138
 30
0.0
 11
277.19999999999948
 21
9.7059491757064684
 31
0.0
  0
LINE
  5
17E4
  8
0
 62
     0
 10
284.19999999999982
 20
0.4608851454388728
 30
0.0
 11
277.19999999999948
 21
7.460885145439188
 31
0.0
  0
LINE
  5
17E5
  8
0
 62
     0
 10
282.4158211151713
 20
0.0000000000000213
 30
0.0
 11
277.19999999999948
 21
5.2158211151718952
 31
0.0
  0
LINE
  5
17E6
  8
0
 62
     0
 10
284.19999999999982
 20
-1.784178884828385
 30
0.0
 11
282.4158211151713
 21
0.0000000000000213
 31
0.0
  0
LINE
  5
17E7
  8
0
 62
     0
 10
280.1707570849041
 20
0.0000000000000142
 30
0.0
 11
277.19999999999948
 21
2.9707570849046152
 31
0.0
  0
LINE
  5
17E8
  8
0
 62
     0
 10
284.19999999999959
 20
-4.0292429150955513
 30
0.0
 11
280.1707570849041
 21
0.0000000000000142
 31
0.0
  0
LINE
  5
17E9
  8
0
 62
     0
 10
277.92569305463689
 20
0.0000000000000071
 30
0.0
 11
277.19999999999948
 21
0.7256930546373184
 31
0.0
  0
LINE
  5
17EA
  8
0
 62
     0
 10
284.19999999999959
 20
-6.274306945362774
 30
0.0
 11
277.92569305463689
 21
-0.0000000000000142
 31
0.0
  0
LINE
  5
17EB
  8
0
 62
     0
 10
284.19999999999948
 20
-8.5193709756299825
 30
0.0
 11
277.19999999999948
 21
-1.519370975629954
 31
0.0
  0
LINE
  5
17EC
  8
0
 62
     0
 10
283.57661155840191
 20
-10.141046564299661
 30
0.0
 11
277.19999999999948
 21
-3.764435005897254
 31
0.0
  0
LINE
  5
17ED
  8
0
 62
     0
 10
281.33154752813459
 20
-10.141046564299661
 30
0.0
 11
277.19999999999948
 21
-6.0094990361645273
 31
0.0
  0
LINE
  5
17EE
  8
0
 62
     0
 10
279.08648349786739
 20
-10.14104656429968
 30
0.0
 11
277.19999999999948
 21
-8.2545630664318281
 31
0.0
  0
LINE
  5
17EF
  8
0
 62
     0
 10
284.19999999999982
 20
-15.25456306643215
 30
0.0
 11
283.41661051678949
 21
-14.47117358322182
 31
0.0
  0
LINE
  5
17F0
  8
0
 62
     0
 10
284.19999999999982
 20
-17.499627096699431
 30
0.0
 11
281.17154648652217
 21
-14.4711735832218
 31
0.0
  0
LINE
  5
17F1
  8
0
 62
     0
 10
284.19999999999982
 20
-19.744691126966728
 30
0.0
 11
278.92648245625492
 21
-14.47117358322183
 31
0.0
  0
LINE
  5
17F2
  8
0
 62
     0
 10
284.19999999999982
 20
-21.989755157234011
 30
0.0
 11
277.19999999999948
 21
-14.989755157233651
 31
0.0
  0
LINE
  5
17F3
  8
0
 62
     0
 10
284.19999999999982
 20
-24.234819187501291
 30
0.0
 11
277.19999999999948
 21
-17.23481918750096
 31
0.0
  0
LINE
  5
17F4
  8
0
 62
     0
 10
282.47011678223089
 20
-24.749999999999609
 30
0.0
 11
277.19999999999948
 21
-19.47988321776824
 31
0.0
  0
LINE
  5
17F5
  8
0
 62
     0
 10
280.22505275196357
 20
-24.749999999999641
 30
0.0
 11
277.19999999999948
 21
-21.72494724803553
 31
0.0
  0
LINE
  5
17F6
  8
0
 62
     0
 10
277.97998872169632
 20
-24.749999999999609
 30
0.0
 11
277.19999999999948
 21
-23.97001127830281
 31
0.0
  0
LINE
  5
17F7
  8
0
 62
     0
 10
282.78775330149369
 20
-24.749999999999659
 30
0.0
 11
284.19999999999982
 21
-23.33775330149351
 31
0.0
  0
LINE
  5
17F8
  8
0
 62
     0
 10
280.54268927122638
 20
-24.749999999999631
 30
0.0
 11
284.19999999999982
 21
-21.09268927122622
 31
0.0
  0
LINE
  5
17F9
  8
0
 62
     0
 10
278.29762524095918
 20
-24.749999999999609
 30
0.0
 11
284.19999999999982
 21
-18.84762524095893
 31
0.0
  0
LINE
  5
17FA
  8
0
 62
     0
 10
277.19999999999948
 20
-23.60256121069202
 30
0.0
 11
284.19999999999982
 21
-16.60256121069165
 31
0.0
  0
LINE
  5
17FB
  8
0
 62
     0
 10
277.19999999999948
 20
-21.35749718042473
 30
0.0
 11
284.13682754489122
 21
-14.42066963553307
 31
0.0
  0
LINE
  5
17FC
  8
0
 62
     0
 10
277.19999999999948
 20
-19.112433150157472
 30
0.0
 11
281.84125956693521
 21
-14.4711735832218
 31
0.0
  0
LINE
  5
17FD
  8
0
 62
     0
 10
283.90965083327728
 20
-10.157718286612321
 30
0.0
 11
284.19999999999948
 21
-9.8673691198900997
 31
0.0
  0
LINE
  5
17FE
  8
0
 62
     0
 10
277.19999999999948
 20
-16.867369119890149
 30
0.0
 11
279.59619553666778
 21
-14.47117358322177
 31
0.0
  0
LINE
  5
17FF
  8
0
 62
     0
 10
281.68125852532262
 20
-10.1410465642997
 30
0.0
 11
284.19999999999959
 21
-7.6223050896227562
 31
0.0
  0
LINE
  5
1800
  8
0
 62
     0
 10
277.19999999999948
 20
-14.6223050896229
 30
0.0
 11
277.36104418819332
 21
-14.461260901429061
 31
0.0
  0
LINE
  5
1801
  8
0
 62
     0
 10
279.43619449505542
 20
-10.1410465642997
 30
0.0
 11
284.19999999999959
 21
-5.3772410593554119
 31
0.0
  0
LINE
  5
1802
  8
0
 62
     0
 10
277.19999999999948
 20
-10.13217702908827
 30
0.0
 11
284.1999999999997
 21
-3.1321770290880688
 31
0.0
  0
LINE
  5
1803
  8
0
 62
     0
 10
277.19999999999948
 20
-7.8871129988209807
 30
0.0
 11
284.19999999999982
 21
-0.8871129988206973
 31
0.0
  0
LINE
  5
1804
  8
0
 62
     0
 10
282.84204896855317
 20
-0.0000000000000284
 30
0.0
 11
284.19999999999982
 21
1.357951031446617
 31
0.0
  0
LINE
  5
1805
  8
0
 62
     0
 10
277.19999999999948
 20
-5.6420489685536941
 30
0.0
 11
282.84204896855317
 21
-0.0000000000000284
 31
0.0
  0
LINE
  5
1806
  8
0
 62
     0
 10
280.59698493828591
 20
-0.0000000000000284
 30
0.0
 11
284.19999999999982
 21
3.6030150617139038
 31
0.0
  0
LINE
  5
1807
  8
0
 62
     0
 10
277.19999999999948
 20
-3.3969849382864359
 30
0.0
 11
280.59698493828591
 21
-0.0000000000000284
 31
0.0
  0
LINE
  5
1808
  8
0
 62
     0
 10
278.35192090801871
 20
0.0
 30
0.0
 11
284.19999999999982
 21
5.84807909198119
 31
0.0
  0
LINE
  5
1809
  8
0
 62
     0
 10
277.19999999999948
 20
-1.1519209080191499
 30
0.0
 11
278.3519209080186
 21
-0.0000000000000284
 31
0.0
  0
LINE
  5
180A
  8
0
 62
     0
 10
277.19999999999948
 20
1.093143122248136
 30
0.0
 11
284.19999999999982
 21
8.0931431222485042
 31
0.0
  0
LINE
  5
180B
  8
0
 62
     0
 10
283.86179284748448
 20
10.000000000000391
 30
0.0
 11
284.03602273433012
 21
10.17422988684606
 31
0.0
  0
LINE
  5
180C
  8
0
 62
     0
 10
277.19999999999948
 20
3.3382071525154231
 30
0.0
 11
283.86179284748442
 21
10.000000000000311
 31
0.0
  0
LINE
  5
180D
  8
0
 62
     0
 10
281.61672881721711
 20
10.000000000000311
 30
0.0
 11
281.75777538151641
 21
10.141046564299611
 31
0.0
  0
LINE
  5
180E
  8
0
 62
     0
 10
277.19999999999948
 20
5.5832711827826813
 30
0.0
 11
281.61672881721711
 21
10.000000000000281
 31
0.0
  0
LINE
  5
180F
  8
0
 62
     0
 10
279.37166478694979
 20
10.000000000000311
 30
0.0
 11
279.5127113512491
 21
10.141046564299639
 31
0.0
  0
LINE
  5
1810
  8
0
 62
     0
 10
283.83338360740851
 20
14.46171882045911
 30
0.0
 11
284.19999999999982
 21
14.828335213050311
 31
0.0
  0
LINE
  5
1811
  8
0
 62
     0
 10
277.19999999999948
 20
7.8283352130500239
 30
0.0
 11
279.37166478694968
 21
10.00000000000025
 31
0.0
  0
LINE
  5
1812
  8
0
 62
     0
 10
281.59777433990388
 20
14.47117358322174
 30
0.0
 11
284.19999999999982
 21
17.073399243317649
 31
0.0
  0
LINE
  5
1813
  8
0
 62
     0
 10
277.1999999999997
 20
10.073399243317541
 30
0.0
 11
277.28491203184819
 21
10.158311275166019
 31
0.0
  0
LINE
  5
1814
  8
0
 62
     0
 10
279.35271030963668
 20
14.4711735832218
 30
0.0
 11
284.19999999999982
 21
19.318463273584939
 31
0.0
  0
LINE
  5
1815
  8
0
 62
     0
 10
277.19999999999948
 20
14.563527303851849
 30
0.0
 11
284.19999999999982
 21
21.563527303852201
 31
0.0
  0
LINE
  5
1816
  8
0
 62
     0
 10
277.19999999999948
 20
16.808591334119171
 30
0.0
 11
284.19999999999982
 21
23.808591334119491
 31
0.0
  0
LINE
  5
1817
  8
0
 62
     0
 10
277.19999999999959
 20
19.05365536438654
 30
0.0
 11
282.8963446356131
 21
24.750000000000082
 31
0.0
  0
LINE
  5
1818
  8
0
 62
     0
 10
277.1999999999997
 20
21.29871939465389
 30
0.0
 11
280.65128060534602
 21
24.750000000000199
 31
0.0
  0
LINE
  5
1819
  8
0
 62
     0
 10
277.1999999999997
 20
23.54378342492123
 30
0.0
 11
278.40621657507882
 21
24.750000000000281
 31
0.0
  0
ENDBLK
  5
181B
  8
0
  0
BLOCK
  8
0
  2
*U23
 70
     1
 10
0.0
 20
0.0
 30
0.0
  3
*U23
  1

  0
TEXT
  5
181D
  8
250
 62
    40
 10
247.44666666666669
 20
57.000000000000007
 30
0.0
 40
2.7999999999999989
  1
üimax.85üj
  0
ENDBLK
  5
181F
  8
0
  0
BLOCK
  8
0
  2
*U24
 70
     1
 10
0.0
 20
0.0
 30
0.0
  3
*U24
  1

  0
TEXT
  5
1821
  8
250
 62
    40
 10
316.50020253999998
 20
-3.7999999999999541
 30
0.0
 40
2.7999999999999989
  1
\U+2205
 50
90.0
  0
TEXT
  5
1822
  8
250
 62
    40
 10
316.50020253999998
 20
-1.266666666666622
 30
0.0
 40
2.7999999999999989
  1
50
 50
90.0
  0
ENDBLK
  5
1824
  8
0
  0
BLOCK
  8
0
  2
*U25
 70
     1
 10
0.0
 20
0.0
 30
0.0
  3
*U25
  1

  0
TEXT
  5
1826
  8
250
 62
    40
 10
309.50020253999998
 20
-3.799999999999943
 30
0.0
 40
2.7999999999999989
  1
\U+2205
 50
90.0
  0
TEXT
  5
1827
  8
250
 62
    40
 10
309.50020253999998
 20
-1.2666666666666111
 30
0.0
 40
2.7999999999999989
  1
20
 50
90.0
  0
ENDBLK
  5
1829
  8
0
  0
BLOCK
  8
0
  2
*U26
 70
     1
 10
0.0
 20
0.0
 30
0.0
  3
*U26
  1

  0
TEXT
  5
182B
  8
250
 62
    40
 10
163.13329824058781
 20
64.758062253332923
 30
0.0
 40
2.7999999999999989
  1
300
  0
ENDBLK
  5
182D
  8
0
  0
BLOCK
  8
0
  2
*X27
 70
     1
 10
0.0
 20
0.0
 30
0.0
  3
*X27
  1

  0
LINE
  5
182F
  8
0
 62
     0
 10
284.19999999999982
 20
22.911525448111739
 30
0.0
 11
282.36152544811142
 21
24.750000000000131
 31
0.0
  0
LINE
  5
1830
  8
0
 62
     0
 10
284.19999999999982
 20
20.666461417844431
 30
0.0
 11
280.11646141784411
 21
24.75000000000021
 31
0.0
  0
LINE
  5
1831
  8
0
 62
     0
 10
284.19999999999982
 20
18.421397387577159
 30
0.0
 11
277.87139738757668
 21
24.750000000000291
 31
0.0
  0
LINE
  5
1832
  8
0
 62
     0
 10
284.19999999999982
 20
16.176333357309851
 30
0.0
 11
277.1999999999997
 21
23.176333357310021
 31
0.0
  0
LINE
  5
1833
  8
0
 62
     0
 10
283.66073474122209
 20
14.47053458582036
 30
0.0
 11
277.1999999999997
 21
20.931269327042791
 31
0.0
  0
LINE
  5
1834
  8
0
 62
     0
 10
281.41503171355339
 20
14.47117358322174
 30
0.0
 11
277.19999999999959
 21
18.68620529677553
 31
0.0
  0
LINE
  5
1835
  8
0
 62
     0
 10
283.64114126650747
 20
10.000000000000369
 30
0.0
 11
283.50009470220817
 21
10.141046564299669
 31
0.0
  0
LINE
  5
1836
  8
0
 62
     0
 10
279.16996768328607
 20
14.47117358322177
 30
0.0
 11
277.19999999999948
 21
16.441141266508339
 31
0.0
  0
LINE
  5
1837
  8
0
 62
     0
 10
284.19999999999982
 20
9.4411412665080352
 30
0.0
 11
283.64114126650747
 21
10.0000000000003
 31
0.0
  0
LINE
  5
1838
  8
0
 62
     0
 10
281.39607723624022
 20
10.00000000000033
 30
0.0
 11
281.2550306719408
 21
10.141046564299661
 31
0.0
  0
LINE
  5
1839
  8
0
 62
     0
 10
284.19999999999982
 20
7.1960772362407246
 30
0.0
 11
281.39607723624022
 21
10.00000000000029
 31
0.0
  0
LINE
  5
183A
  8
0
 62
     0
 10
279.1510132059729
 20
10.0000000000003
 30
0.0
 11
279.0099666416736
 21
10.1410465642997
 31
0.0
  0
LINE
  5
183B
  8
0
 62
     0
 10
284.19999999999982
 20
4.9510132059734531
 30
0.0
 11
279.1510132059729
 21
10.0000000000003
 31
0.0
  0
LINE
  5
183C
  8
0
 62
     0
 10
284.19999999999982
 20
2.705949175706138
 30
0.0
 11
277.19999999999948
 21
9.7059491757064684
 31
0.0
  0
LINE
  5
183D
  8
0
 62
     0
 10
284.19999999999982
 20
0.4608851454388728
 30
0.0
 11
277.19999999999948
 21
7.460885145439188
 31
0.0
  0
LINE
  5
183E
  8
0
 62
     0
 10
282.4158211151713
 20
0.0000000000000213
 30
0.0
 11
277.19999999999948
 21
5.2158211151718952
 31
0.0
  0
LINE
  5
183F
  8
0
 62
     0
 10
284.19999999999982
 20
-1.784178884828385
 30
0.0
 11
282.4158211151713
 21
0.0000000000000213
 31
0.0
  0
LINE
  5
1840
  8
0
 62
     0
 10
280.1707570849041
 20
0.0000000000000142
 30
0.0
 11
277.19999999999948
 21
2.9707570849046152
 31
0.0
  0
LINE
  5
1841
  8
0
 62
     0
 10
284.1999999999997
 20
-4.0292429150955718
 30
0.0
 11
280.1707570849041
 21
0.0000000000000142
 31
0.0
  0
LINE
  5
1842
  8
0
 62
     0
 10
277.92569305463689
 20
0.0000000000000071
 30
0.0
 11
277.19999999999948
 21
0.7256930546373184
 31
0.0
  0
LINE
  5
1843
  8
0
 62
     0
 10
284.19999999999959
 20
-6.274306945362774
 30
0.0
 11
277.92569305463689
 21
0.0000000000000071
 31
0.0
  0
LINE
  5
1844
  8
0
 62
     0
 10
284.19999999999948
 20
-8.5193709756299825
 30
0.0
 11
277.19999999999948
 21
-1.519370975629954
 31
0.0
  0
LINE
  5
1845
  8
0
 62
     0
 10
283.57661155840191
 20
-10.141046564299669
 30
0.0
 11
277.19999999999948
 21
-3.764435005897254
 31
0.0
  0
LINE
  5
1846
  8
0
 62
     0
 10
281.33154752813459
 20
-10.141046564299669
 30
0.0
 11
277.19999999999948
 21
-6.0094990361645273
 31
0.0
  0
LINE
  5
1847
  8
0
 62
     0
 10
279.08648349786739
 20
-10.14104656429968
 30
0.0
 11
277.19999999999948
 21
-8.2545630664318281
 31
0.0
  0
LINE
  5
1848
  8
0
 62
     0
 10
284.19999999999982
 20
-15.25456306643215
 30
0.0
 11
283.41661051678949
 21
-14.47117358322182
 31
0.0
  0
LINE
  5
1849
  8
0
 62
     0
 10
284.19999999999982
 20
-17.499627096699431
 30
0.0
 11
281.17154648652217
 21
-14.4711735832218
 31
0.0
  0
LINE
  5
184A
  8
0
 62
     0
 10
284.19999999999982
 20
-19.744691126966728
 30
0.0
 11
278.92648245625492
 21
-14.47117358322183
 31
0.0
  0
LINE
  5
184B
  8
0
 62
     0
 10
284.19999999999982
 20
-21.989755157234011
 30
0.0
 11
277.19999999999948
 21
-14.989755157233651
 31
0.0
  0
LINE
  5
184C
  8
0
 62
     0
 10
284.19999999999982
 20
-24.234819187501291
 30
0.0
 11
277.19999999999948
 21
-17.23481918750096
 31
0.0
  0
LINE
  5
184D
  8
0
 62
     0
 10
282.47011678223089
 20
-24.749999999999631
 30
0.0
 11
277.19999999999948
 21
-19.47988321776824
 31
0.0
  0
LINE
  5
184E
  8
0
 62
     0
 10
280.22505275196357
 20
-24.749999999999641
 30
0.0
 11
277.19999999999948
 21
-21.72494724803553
 31
0.0
  0
LINE
  5
184F
  8
0
 62
     0
 10
277.97998872169632
 20
-24.749999999999609
 30
0.0
 11
277.19999999999948
 21
-23.97001127830281
 31
0.0
  0
LINE
  5
1850
  8
0
 62
     0
 10
282.78775330149369
 20
-24.749999999999659
 30
0.0
 11
284.19999999999982
 21
-23.33775330149351
 31
0.0
  0
LINE
  5
1851
  8
0
 62
     0
 10
280.54268927122638
 20
-24.749999999999631
 30
0.0
 11
284.19999999999982
 21
-21.09268927122622
 31
0.0
  0
LINE
  5
1852
  8
0
 62
     0
 10
278.29762524095918
 20
-24.749999999999609
 30
0.0
 11
284.19999999999982
 21
-18.84762524095893
 31
0.0
  0
LINE
  5
1853
  8
0
 62
     0
 10
277.19999999999948
 20
-23.60256121069202
 30
0.0
 11
284.19999999999982
 21
-16.60256121069165
 31
0.0
  0
LINE
  5
1854
  8
0
 62
     0
 10
277.19999999999948
 20
-21.35749718042473
 30
0.0
 11
284.13682754489122
 21
-14.42066963553307
 31
0.0
  0
LINE
  5
1855
  8
0
 62
     0
 10
277.19999999999948
 20
-19.112433150157472
 30
0.0
 11
281.84125956693521
 21
-14.4711735832218
 31
0.0
  0
LINE
  5
1856
  8
0
 62
     0
 10
283.90965083327728
 20
-10.157718286612321
 30
0.0
 11
284.19999999999948
 21
-9.8673691198900997
 31
0.0
  0
LINE
  5
1857
  8
0
 62
     0
 10
277.19999999999948
 20
-16.867369119890149
 30
0.0
 11
279.59619553666778
 21
-14.47117358322177
 31
0.0
  0
LINE
  5
1858
  8
0
 62
     0
 10
281.68125852532268
 20
-10.141046564299669
 30
0.0
 11
284.19999999999959
 21
-7.6223050896227562
 31
0.0
  0
LINE
  5
1859
  8
0
 62
     0
 10
277.19999999999948
 20
-14.6223050896229
 30
0.0
 11
277.36104418819332
 21
-14.461260901429061
 31
0.0
  0
LINE
  5
185A
  8
0
 62
     0
 10
279.43619449505542
 20
-10.1410465642997
 30
0.0
 11
284.19999999999959
 21
-5.3772410593554119
 31
0.0
  0
LINE
  5
185B
  8
0
 62
     0
 10
277.19999999999948
 20
-10.13217702908827
 30
0.0
 11
284.1999999999997
 21
-3.1321770290880688
 31
0.0
  0
LINE
  5
185C
  8
0
 62
     0
 10
277.19999999999948
 20
-7.8871129988209807
 30
0.0
 11
284.19999999999982
 21
-0.8871129988206973
 31
0.0
  0
LINE
  5
185D
  8
0
 62
     0
 10
282.84204896855317
 20
-0.0000000000000284
 30
0.0
 11
284.19999999999982
 21
1.357951031446617
 31
0.0
  0
LINE
  5
185E
  8
0
 62
     0
 10
277.19999999999948
 20
-5.6420489685536941
 30
0.0
 11
282.84204896855317
 21
-0.0000000000000284
 31
0.0
  0
LINE
  5
185F
  8
0
 62
     0
 10
280.59698493828591
 20
-0.0000000000000284
 30
0.0
 11
284.19999999999982
 21
3.6030150617139038
 31
0.0
  0
LINE
  5
1860
  8
0
 62
     0
 10
277.19999999999948
 20
-3.3969849382864359
 30
0.0
 11
280.59698493828591
 21
-0.0000000000000284
 31
0.0
  0
LINE
  5
1861
  8
0
 62
     0
 10
278.3519209080186
 20
-0.0000000000000284
 30
0.0
 11
284.19999999999982
 21
5.84807909198119
 31
0.0
  0
LINE
  5
1862
  8
0
 62
     0
 10
277.19999999999948
 20
-1.1519209080191499
 30
0.0
 11
278.3519209080186
 21
-0.0000000000000284
 31
0.0
  0
LINE
  5
1863
  8
0
 62
     0
 10
277.19999999999948
 20
1.093143122248136
 30
0.0
 11
284.19999999999982
 21
8.0931431222485042
 31
0.0
  0
LINE
  5
1864
  8
0
 62
     0
 10
283.86179284748448
 20
10.000000000000391
 30
0.0
 11
284.03602273433012
 21
10.17422988684606
 31
0.0
  0
LINE
  5
1865
  8
0
 62
     0
 10
277.19999999999948
 20
3.3382071525154231
 30
0.0
 11
283.86179284748442
 21
10.000000000000311
 31
0.0
  0
LINE
  5
1866
  8
0
 62
     0
 10
281.61672881721711
 20
10.000000000000311
 30
0.0
 11
281.75777538151641
 21
10.141046564299611
 31
0.0
  0
LINE
  5
1867
  8
0
 62
     0
 10
277.19999999999948
 20
5.5832711827826813
 30
0.0
 11
281.61672881721711
 21
10.000000000000281
 31
0.0
  0
LINE
  5
1868
  8
0
 62
     0
 10
279.37166478694979
 20
10.000000000000311
 30
0.0
 11
279.5127113512491
 21
10.141046564299639
 31
0.0
  0
LINE
  5
1869
  8
0
 62
     0
 10
283.83338360740851
 20
14.46171882045911
 30
0.0
 11
284.19999999999982
 21
14.828335213050311
 31
0.0
  0
LINE
  5
186A
  8
0
 62
     0
 10
277.19999999999948
 20
7.8283352130500239
 30
0.0
 11
279.37166478694968
 21
10.00000000000025
 31
0.0
  0
LINE
  5
186B
  8
0
 62
     0
 10
281.59777433990388
 20
14.4711735832218
 30
0.0
 11
284.19999999999982
 21
17.073399243317649
 31
0.0
  0
LINE
  5
186C
  8
0
 62
     0
 10
277.1999999999997
 20
10.073399243317541
 30
0.0
 11
277.28491203184819
 21
10.158311275166019
 31
0.0
  0
LINE
  5
186D
  8
0
 62
     0
 10
279.35271030963668
 20
14.4711735832218
 30
0.0
 11
284.19999999999982
 21
19.318463273584939
 31
0.0
  0
LINE
  5
186E
  8
0
 62
     0
 10
277.19999999999948
 20
14.56352730385183
 30
0.0
 11
284.19999999999982
 21
21.563527303852201
 31
0.0
  0
LINE
  5
186F
  8
0
 62
     0
 10
277.19999999999948
 20
16.808591334119171
 30
0.0
 11
284.19999999999982
 21
23.808591334119491
 31
0.0
  0
LINE
  5
1870
  8
0
 62
     0
 10
277.19999999999959
 20
19.05365536438654
 30
0.0
 11
282.8963446356131
 21
24.750000000000082
 31
0.0
  0
LINE
  5
1871
  8
0
 62
     0
 10
277.1999999999997
 20
21.29871939465389
 30
0.0
 11
280.65128060534602
 21
24.750000000000199
 31
0.0
  0
LINE
  5
1872
  8
0
 62
     0
 10
277.1999999999997
 20
23.54378342492123
 30
0.0
 11
278.40621657507882
 21
24.750000000000281
 31
0.0
  0
ENDBLK
  5
1874
  8
0
  0
ENDSEC
  0
SECTION
  2
ENTITIES
  0
LINE
  5
1555
  8
250
 10
-53.781569849999997
 20
-37.791071780000003
 30
0.0
 11
-71.514903180000005
 21
-37.791071780000003
 31
0.0
1001
ITEMNAME
1000
LNSP2
  0
TEXT
  5
155A
  8
241
 10
-101.8
 20
77.000000000000014
 30
0.0
 40
5.0
  1
BBT50-HMC20S-300
  7
YOKO
 11
-101.8
 21
77.000000000000014
 31
0.0
 73
     1
  0
LINE
  5
16C2
  8
250
 10
0.0
 20
35.424999999999947
 30
0.0
 11
0.0000000000000018
 21
64.0
 31
0.0
  0
LINE
  5
16C3
  8
250
 10
300.0
 20
17.300000000000011
 30
0.0
 11
300.0
 21
64.000000000000014
 31
0.0
  0
LINE
  5
16C4
  8
250
 10
2.2300000000000009
 20
63.0
 30
0.0
 11
297.76999999999998
 21
63.0
 31
0.0
  0
LINE
  5
16C9
  8
250
 10
215.0
 20
10.500000000000011
 30
0.0
 11
215.0
 21
57.000000000000007
 31
0.0
  0
LINE
  5
16CA
  8
250
 10
300.0
 20
17.300000000000011
 30
0.0
 11
300.0
 21
57.000000000000007
 31
0.0
  0
LINE
  5
16CB
  8
250
 10
217.22999999999999
 20
56.000000000000007
 30
0.0
 11
297.76999999999998
 21
56.000000000000007
 31
0.0
  0
LINE
  5
16CF
  8
250
 10
298.0
 20
10.000000000000011
 30
0.0
 11
311.50020253999998
 21
10.0
 31
0.0
  0
LINE
  5
16D0
  8
250
 10
310.50020254000009
 20
-7.7699999999999942
 30
0.0
 11
310.50020254000009
 21
7.770000000000004
 31
0.0
  0
LINE
  5
16D4
  8
250
 10
274.69999999999999
 20
-25.0
 30
0.0
 11
318.50020253999998
 21
-25.000000000000011
 31
0.0
  0
LINE
  5
16D5
  8
250
 10
274.69999999999999
 20
25.000000000000011
 30
0.0
 11
318.50020253999998
 21
25.0
 31
0.0
  0
LINE
  5
16D6
  8
250
 10
317.50020253999998
 20
-22.77000000000001
 30
0.0
 11
317.50020253999998
 21
22.769999999999989
 31
0.0
  0
TEXT
  5
16DC
  8
250
 10
-69.248236513333325
 20
-36.791071780000003
 30
0.0
 40
2.7999999999999989
  1
BBT50
  7
YOKO
1001
ITEMNAME
1000
LNSP3
  0
LINE
  5
16DD
  8
250
 10
-49.078759359591253
 20
-29.64556506780486
 30
0.0
 11
-53.781569849999997
 21
-37.791071780000003
 31
0.0
1001
ACAD
1000
DSTYLE
1002
{
1070
     6
1000
OPEN
1070
    41
1040
2.0
1070
   343
1005
594
1002
}
  0
LINE
  5
16DE
  8
250
 10
-49.367434494225392
 20
-29.478898401206319
 30
0.0
 11
-48.078759359999999
 21
-27.913514259999989
 31
0.0
  0
LINE
  5
16DF
  8
250
 10
-48.790084224957113
 20
-29.812231734403401
 30
0.0
 11
-48.078759359999999
 21
-27.913514259999989
 31
0.0
  0
LINE
  5
16E0
  8
250
 10
-48.078759359999999
 20
-27.913514259999989
 30
0.0
 11
-49.078759359591253
 21
-29.64556506780486
 31
0.0
  0
LINE
  5
16E1
  8
250
 10
297.76999999999998
 20
63.371666666666677
 30
0.0
 11
300.0
 21
63.0
 31
0.0
  0
LINE
  5
16E2
  8
250
 10
297.76999999999998
 20
62.62833333333333
 30
0.0
 11
300.0
 21
63.0
 31
0.0
  0
LINE
  5
16E3
  8
250
 10
300.0
 20
63.0
 30
0.0
 11
297.76999999999998
 21
63.0
 31
0.0
  0
TEXT
  5
16E4
  8
250
 10
247.44666666666669
 20
57.000000000000007
 30
0.0
 40
2.7999999999999989
  1
üimax.85üj
  0
LINE
  5
16E5
  8
250
 10
297.76999999999998
 20
56.371666666666677
 30
0.0
 11
300.0
 21
56.000000000000007
 31
0.0
  0
LINE
  5
16E6
  8
250
 10
297.76999999999998
 20
55.62833333333333
 30
0.0
 11
300.0
 21
56.000000000000007
 31
0.0
  0
LINE
  5
16E7
  8
250
 10
300.0
 20
56.000000000000007
 30
0.0
 11
297.76999999999998
 21
56.000000000000007
 31
0.0
  0
LINE
  5
16E8
  8
250
 10
217.22999999999999
 20
55.62833333333333
 30
0.0
 11
215.0
 21
56.000000000000007
 31
0.0
  0
LINE
  5
16E9
  8
250
 10
217.22999999999999
 20
56.371666666666677
 30
0.0
 11
215.0
 21
56.000000000000007
 31
0.0
  0
LINE
  5
16EA
  8
250
 10
215.0
 20
56.000000000000007
 30
0.0
 11
217.22999999999999
 21
56.000000000000007
 31
0.0
  0
LINE
  5
16EB
  8
250
 10
2.2300000000000009
 20
62.62833333333333
 30
0.0
 11
0.0000000000000017
 21
63.0
 31
0.0
  0
LINE
  5
16EC
  8
250
 10
2.2300000000000009
 20
63.371666666666677
 30
0.0
 11
0.0000000000000017
 21
63.0
 31
0.0
  0
LINE
  5
16ED
  8
250
 10
0.0000000000000017
 20
63.0
 30
0.0
 11
2.2300000000000009
 21
63.0
 31
0.0
  0
TEXT
  5
16EE
  8
250
 10
163.13329824058781
 20
64.758062253332923
 30
0.0
 40
2.7999999999999989
  1
300
  0
TEXT
  5
16EF
  8
250
 10
309.50020253999998
 20
-3.799999999999943
 30
0.0
 40
2.7999999999999989
  1
\U+2205
 50
90.0
  0
TEXT
  5
16F0
  8
250
 10
309.50020253999998
 20
-1.2666666666666111
 30
0.0
 40
2.7999999999999989
  1
20
 50
90.0
  0
LINE
  5
16F1
  8
250
 10
310.12853587333331
 20
7.770000000000004
 30
0.0
 11
310.50020254000009
 21
10.0
 31
0.0
  0
LINE
  5
16F2
  8
250
 10
310.8718692066667
 20
7.770000000000004
 30
0.0
 11
310.50020254000009
 21
10.0
 31
0.0
  0
LINE
  5
16F3
  8
250
 10
310.50020254000009
 20
10.0
 30
0.0
 11
310.50020254000009
 21
7.770000000000004
 31
0.0
  0
LINE
  5
16F4
  8
250
 10
310.8718692066667
 20
-7.7699999999999942
 30
0.0
 11
310.50020254000009
 21
-9.9999999999999947
 31
0.0
  0
LINE
  5
16F5
  8
250
 10
310.12853587333331
 20
-7.7699999999999942
 30
0.0
 11
310.50020254000009
 21
-9.9999999999999947
 31
0.0
  0
LINE
  5
16F6
  8
250
 10
310.50020254000009
 20
-9.9999999999999947
 30
0.0
 11
310.50020254000009
 21
-7.7699999999999942
 31
0.0
  0
TEXT
  5
16F7
  8
250
 10
316.50020253999998
 20
-3.7999999999999541
 30
0.0
 40
2.7999999999999989
  1
\U+2205
 50
90.0
  0
TEXT
  5
16F8
  8
250
 10
316.50020253999998
 20
-1.266666666666622
 30
0.0
 40
2.7999999999999989
  1
50
 50
90.0
  0
LINE
  5
16F9
  8
250
 10
317.12853587333342
 20
22.769999999999989
 30
0.0
 11
317.50020253999998
 21
25.0
 31
0.0
  0
LINE
  5
16FA
  8
250
 10
317.8718692066667
 20
22.769999999999989
 30
0.0
 11
317.50020253999998
 21
25.0
 31
0.0
  0
LINE
  5
16FB
  8
250
 10
317.50020253999998
 20
25.0
 30
0.0
 11
317.50020253999998
 21
22.769999999999989
 31
0.0
  0
LINE
  5
16FC
  8
250
 10
317.8718692066667
 20
-22.77000000000001
 30
0.0
 11
317.50020253999998
 21
-25.000000000000011
 31
0.0
  0
LINE
  5
16FD
  8
250
 10
317.12853587333342
 20
-22.77000000000001
 30
0.0
 11
317.50020253999998
 21
-25.000000000000011
 31
0.0
  0
LINE
  5
16FE
  8
250
 10
317.50020253999998
 20
-25.000000000000011
 30
0.0
 11
317.50020253999998
 21
-22.77000000000001
 31
0.0
  0
INSERT
  5
17A9
  8
240
  2
A$C66170E33
 10
0.0
 20
0.0
 30
0.0
  0
VIEWPORT
  5
22
 67
     1
  8
0
 10
261.51769911504419
 20
148.5
 30
0.0
 40
523.0353982300885
 41
297.0
 68
     1
 69
     1
1001
ACAD
1000
MVIEW
1002
{
1070
    16
1010
0.0
1020
0.0
1030
0.0
1010
0.0
1020
0.0
1030
1.0
1040
0.0
1040
297.0
1040
261.51769911504419
1040
148.5
1040
50.0
1040
0.0
1040
0.0
1070
     0
1070
   100
1070
     1
1070
     1
1070
     0
1070
     0
1070
     0
1070
     0
1040
0.0
1040
0.0
1040
0.0
1040
1.0
1040
1.0
1040
10.0
1040
10.0
1070
     0
1002
{
1002
}
1002
}
1001
GENIUS_GENODEF_13
1002
{
1000
HIER
1070
     0
1002
}
1002
{
1000
MANEDIT
1070
     0
1002
}
1002
{
1000
NOSEL
1070
     0
1002
}
1002
{
1000
BEHIND
1070
     0
1002
}
1002
{
1000
OTHER
1070
     0
1002
}
1002
{
1000
REACTOR
1002
}
1001
GENIUS_GENOBJ-N-SDF_13
1002
{
1000
OWNER
1000
GEN
1002
}
1001
GENIUS_GENSCREG_15
1000
PF
1040
1.0
1000
DF
1040
1.0
1000
MIN
1011
0.0
1021
-0.0
1031
-1.1035893731849492E+012
1021
0.0
1031
0.0
1000
MAX
1011
523.0353982300885
1021
-0.0
1031
-1.1035893731849492E+012
1021
297.0
1031
0.0
1000
FLAGS
1070
     2
  0
ENDSEC
  0
EOF
