  0
SECTION
  2
HEADER
  9
$ACADVER
  1
AC1009
  9
$INSBASE
 10
0.0
 20
0.0
 30
0.0
  9
$EXTMIN
 10
-104.3360820532293
 20
-50.000000000000441
 30
0.0
  9
$EXTMAX
 10
144.29774686527651
 20
81.999999999999744
 30
0.0
  9
$LIMMIN
 10
0.0
 20
0.0
  9
$LIMMAX
 10
297.0
 20
210.0
  9
$ORTHOMODE
 70
     1
  9
$REGENMODE
 70
     1
  9
$FILLMODE
 70
     1
  9
$QTEXTMODE
 70
     0
  9
$MIRRTEXT
 70
     1
  9
$DRAGMODE
 70
     2
  9
$LTSCALE
 40
10.0
  9
$OSMODE
 70
    63
  9
$ATTMODE
 70
     1
  9
$TEXTSIZE
 40
3.0
  9
$TRACEWID
 40
1.0
  9
$TEXTSTYLE
  7
YOKO
  9
$CLAYER
  8
240
  9
$CELTYPE
  6
BYLAYER
  9
$CECOLOR
 62
   256
  9
$DIMSCALE
 40
1.0
  9
$DIMASZ
 40
2.2299999999999991
  9
$DIMEXO
 40
0.5
  9
$DIMDLI
 40
7.0
  9
$DIMRND
 40
0.0
  9
$DIMDLE
 40
0.0
  9
$DIMEXE
 40
1.0
  9
$DIMTP
 40
0.0
  9
$DIMTM
 40
0.01
  9
$DIMTXT
 40
2.7999999999999989
  9
$DIMCEN
 40
0.0
  9
$DIMTSZ
 40
0.0
  9
$DIMTOL
 70
     0
  9
$DIMLIM
 70
     0
  9
$DIMTIH
 70
     0
  9
$DIMTOH
 70
     0
  9
$DIMSE1
 70
     0
  9
$DIMSE2
 70
     0
  9
$DIMTAD
 70
     3
  9
$DIMZIN
 70
     9
  9
$DIMBLK
  1
OPEN
  9
$DIMASO
 70
     1
  9
$DIMSHO
 70
     1
  9
$DIMPOST
  1

  9
$DIMAPOST
  1

  9
$DIMALT
 70
     0
  9
$DIMALTD
 70
     2
  9
$DIMALTF
 40
25.399999999999999
  9
$DIMLFAC
 40
1.0
  9
$DIMTOFL
 70
     1
  9
$DIMTVP
 40
0.0
  9
$DIMTIX
 70
     1
  9
$DIMSOXD
 70
     0
  9
$DIMSAH
 70
     0
  9
$DIMBLK1
  1

  9
$DIMBLK2
  1

  9
$DIMSTYLE
  2
BIGT
  9
$DIMCLRD
 70
   256
  9
$DIMCLRE
 70
   256
  9
$DIMCLRT
 70
    40
  9
$DIMTFAC
 40
1.0
  9
$DIMGAP
 40
1.0
  9
$LUNITS
 70
     2
  9
$LUPREC
 70
     6
  9
$SKETCHINC
 40
1.0
  9
$FILLETRAD
 40
0.0
  9
$AUNITS
 70
     0
  9
$AUPREC
 70
     6
  9
$MENU
  1
.
  9
$ELEVATION
 40
0.0
  9
$PELEVATION
 40
0.0
  9
$THICKNESS
 40
0.0
  9
$LIMCHECK
 70
     0
  9
$BLIPMODE
 70
     0
  9
$CHAMFERA
 40
0.2
  9
$CHAMFERB
 40
0.2
  9
$SKPOLY
 70
     0
  9
$TDCREATE
 40
2457241.7855888428
  9
$TDUPDATE
 40
2457242.382039607
  9
$TDINDWG
 40
0.0061547454
  9
$TDUSRTIMER
 40
0.0061547106
  9
$USRTIMER
 70
     1
  9
$ANGBASE
 50
0.0
  9
$ANGDIR
 70
     0
  9
$PDMODE
 70
     1
  9
$PDSIZE
 40
0.0
  9
$PLINEWID
 40
0.0
  9
$COORDS
 70
     1
  9
$SPLFRAME
 70
     0
  9
$SPLINETYPE
 70
     6
  9
$SPLINESEGS
 70
     4
  9
$ATTDIA
 70
     1
  9
$ATTREQ
 70
     1
  9
$HANDLING
 70
     1
  9
$HANDSEED
  5
4DF3
  9
$SURFTAB1
 70
     6
  9
$SURFTAB2
 70
     6
  9
$SURFTYPE
 70
     6
  9
$SURFU
 70
     6
  9
$SURFV
 70
     6
  9
$UCSNAME
  2

  9
$UCSORG
 10
0.0
 20
0.0
 30
0.0
  9
$UCSXDIR
 10
1.0
 20
0.0
 30
0.0
  9
$UCSYDIR
 10
0.0
 20
1.0
 30
0.0
  9
$PUCSNAME
  2

  9
$PUCSORG
 10
0.0
 20
0.0
 30
0.0
  9
$PUCSXDIR
 10
1.0
 20
0.0
 30
0.0
  9
$PUCSYDIR
 10
0.0
 20
1.0
 30
0.0
  9
$USERI1
 70
     1
  9
$USERI2
 70
     0
  9
$USERI3
 70
     0
  9
$USERI4
 70
     0
  9
$USERI5
 70
     0
  9
$USERR1
 40
0.0
  9
$USERR2
 40
0.0
  9
$USERR3
 40
0.0
  9
$USERR4
 40
0.0
  9
$USERR5
 40
0.0
  9
$WORLDVIEW
 70
     1
  9
$SHADEDGE
 70
     3
  9
$SHADEDIF
 70
    70
  9
$TILEMODE
 70
     1
  9
$MAXACTVP
 70
    16
  9
$PLIMCHECK
 70
     0
  9
$PEXTMIN
 10
1.0000000000000000E+020
 20
1.0000000000000000E+020
 30
1.0000000000000000E+020
  9
$PEXTMAX
 10
-1.0000000000000000E+020
 20
-1.0000000000000000E+020
 30
-1.0000000000000000E+020
  9
$PLIMMIN
 10
0.0
 20
0.0
  9
$PLIMMAX
 10
420.0
 20
297.0
  9
$UNITMODE
 70
     0
  9
$VISRETAIN
 70
     1
  9
$PLINEGEN
 70
     0
  9
$PSLTSCALE
 70
     1
  0
ENDSEC
  0
SECTION
  2
TABLES
  0
TABLE
  2
VPORT
 70
     1
  0
VPORT
  2
*ACTIVE
 70
     0
 10
0.0
 20
0.0
 11
1.0
 21
1.0
 12
19.976440971573378
 22
15.999298481037041
 13
0.0
 23
0.0
 14
7.0
 24
7.0
 15
7.0
 25
7.0
 16
0.0
 26
0.0
 36
1.0
 17
0.0
 27
0.0
 37
0.0
 40
174.03882944240331
 41
1.4355016538037479
 42
50.0
 43
0.0
 44
0.0
 50
0.0
 51
0.0
 71
     0
 72
  2000
 73
     1
 74
     0
 75
     0
 76
     1
 77
     0
 78
     0
  0
ENDTAB
  0
TABLE
  2
LTYPE
 70
    13
  0
LTYPE
  2
CONTINUOUS
 70
     0
  3
Solid line
 72
    65
 73
     0
 40
0.0
  0
LTYPE
  2
CENTER2
 70
     0
  3
___ _ ___ _ ___ _ ___ _ ___ _ ___ _ ___ _ ___ _
 72
    65
 73
     4
 40
1.125
 49
0.75
 49
-0.125
 49
0.125
 49
-0.125
  0
LTYPE
  2
HIDDEN2
 70
     0
  3
_ _ _ _ _ _ _ _ _ _ _ _ _ _ _ _ _ _ _ _ _ _ _ _
 72
    65
 73
     2
 40
0.1875
 49
0.125
 49
-0.0625
  0
LTYPE
  2
PHANTOM2
 70
     0
  3
___ _ _ ___ _ _ ___ _ _ ___ _ _ ___ _ _ ___ _ _
 72
    65
 73
     6
 40
1.25
 49
0.625
 49
-0.125
 49
0.125
 49
-0.125
 49
0.125
 49
-0.125
  0
LTYPE
  2
AM_ISO02W050
 70
     0
  3
__ __ __ __ __ __ __ __ __ __ __ __ __ __ __
 72
    65
 73
     2
 40
7.5
 49
6.0
 49
-1.5
  0
LTYPE
  2
AMCONSTR
 70
     0
  3
_______________________
 72
    65
 73
     2
 40
9999.0
 49
9999.0
 49
0.0
  0
LTYPE
  2
ACISOWELD
 70
     0
  3
_ _ _ _ _
 72
    65
 73
     2
 40
2.0
 49
2.0
 49
-1.0
  0
LTYPE
  2
ACISOTGB
 70
     0
  3
__ . . __ . .
 72
    65
 73
     6
 40
9.0
 49
4.0
 49
-1.0
 49
1.0
 49
-1.0
 49
1.0
 49
-1.0
  0
LTYPE
  2
ACISOTGL
 70
     0
  3
_ _ _ _ _
 72
    65
 73
     2
 40
3.0
 49
2.0
 49
-1.0
  0
LTYPE
  2
ACJISTGB
 70
     0
  3
__ . . __ . .
 72
    65
 73
     6
 40
9.0
 49
4.0
 49
-1.0
 49
1.0
 49
-1.0
 49
1.0
 49
-1.0
  0
LTYPE
  2
ACJISTGL
 70
     0
  3
_ _ _ _ _
 72
    65
 73
     2
 40
3.0
 49
2.0
 49
-1.0
  0
ENDTAB
  0
TABLE
  2
LAYER
 70
     8
  0
LAYER
  2
0
 70
     0
 62
     7
  6
CONTINUOUS
  0
LAYER
  2
DEFPOINTS
 70
     0
 62
     7
  6
CONTINUOUS
  0
LAYER
  2
245
 70
     0
 62
     2
  6
CENTER2
  0
LAYER
  2
240
 70
     0
 62
     4
  6
CONTINUOUS
  0
LAYER
  2
241
 70
     0
 62
   211
  6
CONTINUOUS
  0
LAYER
  2
242
 70
     0
 62
     3
  6
CONTINUOUS
  0
LAYER
  2
243
 70
     0
 62
   211
  6
HIDDEN2
  0
LAYER
  2
250
 70
     0
 62
     3
  6
CONTINUOUS
  0
ENDTAB
  0
TABLE
  2
STYLE
 70
     6
  0
STYLE
  2
STANDARD
 70
     0
 40
0.0
 41
1.0
 50
0.0
 71
     0
 42
3.0
  3
romans.shx
  4
extfont.shx
  0
STYLE
  2
ACISOTS
 70
     0
 40
1.0
 41
1.0
 50
0.0
 71
     0
 42
3.0
  3
amgdt.shx
  4
extfont.shx
  0
STYLE
  2
ACISOGDT
 70
     0
 40
0.0
 41
1.0
 50
0.0
 71
     0
 42
3.0
  3
amgdt.shx
  4
extfont.shx
  0
STYLE
  2
ACJISTS
 70
     0
 40
1.0
 41
1.0
 50
0.0
 71
     0
 42
3.0
  3
amgdt.shx
  4
extfont.shx
  0
STYLE
  2
ACJISGDT
 70
     0
 40
0.0
 41
1.0
 50
0.0
 71
     0
 42
3.0
  3
amgdt.shx
  4
extfont.shx
  0
STYLE
  2
YOKO
 70
     0
 40
0.0
 41
1.0
 50
0.0
 71
     0
 42
3.0
  3
romans.shx
  4
extfont.shx
  0
ENDTAB
  0
TABLE
  2
VIEW
 70
     0
  0
ENDTAB
  0
TABLE
  2
UCS
 70
     0
  0
ENDTAB
  0
TABLE
  2
APPID
 70
    42
  0
APPID
  2
ACAD
 70
     0
  0
APPID
  2
GLOBAL
 70
     0
  0
APPID
  2
DETAIL
 70
     0
  0
APPID
  2
GRPNAME
 70
     0
  0
APPID
  2
GPARA
 70
     0
  0
APPID
  2
MCAD_NO_VIS
 70
     0
  0
APPID
  2
ACAD_TEMP_GRAPHIC
 70
     0
  0
APPID
  2
ACATTRIBSERVICES
 70
     0
  0
APPID
  2
GENIUS_GENSCREG_15
 70
     0
  0
APPID
  2
GENIUS_GENODEF_13
 70
     0
  0
APPID
  2
GENIUS_GENOBJ-N-SDF_13
 70
     0
  0
APPID
  2
GENIUS_GENREC_14
 70
     0
  0
APPID
  2
GENIUS_GENOBJ-N-REC_13
 70
     0
  0
APPID
  2
GENIUS_GENDIMSH_14
 70
     0
  0
APPID
  2
GENIUS_GENOBJ-N-DIM_13
 70
     0
  0
APPID
  2
GENIUS_GENDIM_13
 70
     0
  0
APPID
  2
GENIUS_GENDTOL_13
 70
     0
  0
APPID
  2
GENIUS_GENOLIS_13
 70
     0
  0
APPID
  2
GENIUS_GENOENT_13
 70
     0
  0
APPID
  2
GENIUS_GENOBJ-F-FEM_13
 70
     0
  0
APPID
  2
GENIUS_GENOREF_13
 70
     0
  0
APPID
  2
GENIUS_GEFFEM_13
 70
     0
  0
APPID
  2
GENIUS_GEFFEMP_13
 70
     0
  0
APPID
  2
AD_DRAW
 70
     0
  0
APPID
  2
DESIGNERASSEMBLIES
 70
     0
  0
APPID
  2
ACADM_DIM_EDIT
 70
     0
  0
APPID
  2
AMDT_DM_ADJ
 70
     0
  0
APPID
  2
ITEMNAME
 70
     0
  0
APPID
  2
GENIUS_GENOBJ-N-FIL_13
 70
     0
  0
APPID
  2
GENIUS_GENFIL_13
 70
     0
  0
APPID
  2
GENIUS_GENOBJ-N-CHA_13
 70
     0
  0
APPID
  2
ACAD_NAV_VCDISPLAY
 70
     0
  0
APPID
  2
ASK_MEN_XD
 70
     0
  0
APPID
  2
ACAD_DSTYLE_DIMINSPECT
 70
     0
  0
APPID
  2
ACAD_DSTYLE_DIMJAG
 70
     0
  0
APPID
  2
ACAD_DSTYLE_DIMBREAK
 70
     0
  0
APPID
  2
ACAD_EXEMPT_FROM_CAD_STANDARDS
 70
     0
  0
APPID
  2
ACAD_MLEADERVER
 70
     0
  0
APPID
  2
ACAD_DSTYLE_DIMARC_LENGTH_
 70
     0
  0
APPID
  2
ACAD_DSTYLE_DIM_LINETYPE
 70
     0
  0
APPID
  2
ACAD_DSTYLE_DIM_EXT1_LINETYPE
 70
     0
  0
APPID
  2
ACAD_DSTYLE_DIM_EXT2_LINETYPE
 70
     0
  0
ENDTAB
  0
TABLE
  2
DIMSTYLE
 70
    23
  0
DIMSTYLE
  2
BIGT
 70
     0
  3

  4

  5
OPEN
  6

  7

 40
1.0
 41
2.2299999999999991
 42
0.5
 43
7.0
 44
1.0
 45
0.0
 46
0.0
 47
0.0
 48
0.01
140
2.7999999999999989
141
0.0
142
0.0
143
25.399999999999999
144
1.0
145
0.0
146
1.0
147
1.0
 71
     0
 72
     0
 73
     0
 74
     0
 75
     0
 76
     0
 77
     3
 78
     9
170
     0
171
     2
172
     1
173
     0
174
     1
175
     0
176
   256
177
   256
178
    40
  0
DIMSTYLE
  2
AM_ISO
 70
     0
  3

  4
"
  5

  6

  7

 40
1.0
 41
2.5
 42
1.0
 43
10.0
 44
1.0
 45
0.0
 46
0.0
 47
0.1
 48
0.1
140
3.5
141
0.0
142
0.0
143
0.0393701
144
1.0
145
0.0
146
0.71
147
1.5
 71
     0
 72
     0
 73
     0
 74
     0
 75
     0
 76
     0
 77
     1
 78
     8
170
     0
171
     2
172
     1
173
     0
174
     0
175
     0
176
   256
177
   256
178
     2
  0
DIMSTYLE
  2
AM_ISO$3
 70
     0
  3

  4
"
  5

  6

  7

 40
1.0
 41
2.5
 42
1.0
 43
10.0
 44
1.0
 45
0.0
 46
0.0
 47
0.1
 48
0.1
140
3.5
141
0.0
142
0.0
143
0.0393701
144
1.0
145
0.0
146
0.71
147
1.5
 71
     0
 72
     0
 73
     0
 74
     1
 75
     0
 76
     0
 77
     1
 78
     8
170
     0
171
     2
172
     0
173
     0
174
     0
175
     0
176
   256
177
   256
178
     2
  0
DIMSTYLE
  2
AM_ISO$4
 70
     0
  3

  4
"
  5

  6

  7

 40
1.0
 41
2.5
 42
1.0
 43
10.0
 44
1.0
 45
0.0
 46
0.0
 47
0.1
 48
0.1
140
3.5
141
0.0
142
0.0
143
0.0393701
144
1.0
145
0.0
146
0.71
147
1.5
 71
     0
 72
     0
 73
     0
 74
     1
 75
     0
 76
     0
 77
     1
 78
     8
170
     0
171
     2
172
     0
173
     0
174
     0
175
     0
176
   256
177
   256
178
     2
  0
DIMSTYLE
  2
AM_ISO$6
 70
     0
  3

  4
"
  5

  6

  7

 40
1.0
 41
2.5
 42
1.0
 43
10.0
 44
1.0
 45
0.0
 46
0.0
 47
0.1
 48
0.1
140
3.5
141
0.0
142
0.0
143
0.0393701
144
1.0
145
0.0
146
0.71
147
1.5
 71
     0
 72
     0
 73
     0
 74
     0
 75
     0
 76
     0
 77
     0
 78
     8
170
     0
171
     2
172
     1
173
     0
174
     0
175
     0
176
   256
177
   256
178
     2
  0
DIMSTYLE
  2
AM_ISO$7
 70
     0
  3

  4
"
  5

  6

  7

 40
1.0
 41
2.5
 42
1.0
 43
10.0
 44
1.0
 45
0.0
 46
0.0
 47
0.1
 48
0.1
140
5.0
141
0.0
142
0.0
143
0.0393701
144
1.0
145
0.0
146
0.71
147
1.5
 71
     0
 72
     0
 73
     0
 74
     0
 75
     0
 76
     0
 77
     1
 78
     8
170
     0
171
     2
172
     1
173
     0
174
     0
175
     0
176
   256
177
   256
178
     2
  0
DIMSTYLE
  2
AM_ISO$SF
 70
     0
  3

  4
"
  5

  6

  7

 40
1.0
 41
2.5
 42
1.0
 43
10.0
 44
1.0
 45
0.0
 46
0.0
 47
0.1
 48
0.1
140
3.5
141
0.0
142
0.0
143
0.0393701
144
1.0
145
0.0
146
0.71
147
1.5
 71
     0
 72
     0
 73
     0
 74
     0
 75
     1
 76
     1
 77
     1
 78
     8
170
     0
171
     2
172
     1
173
     0
174
     0
175
     0
176
   256
177
   256
178
     2
  0
DIMSTYLE
  2
AM_ISO$SH
 70
     0
  3

  4
"
  5

  6
GENAXEH
  7

 40
1.0
 41
2.5
 42
1.0
 43
10.0
 44
1.0
 45
0.0
 46
0.0
 47
0.1
 48
0.1
140
3.5
141
0.0
142
0.0
143
0.0393701
144
2.0
145
0.0
146
0.71
147
1.5
 71
     0
 72
     0
 73
     0
 74
     0
 75
     1
 76
     1
 77
     1
 78
     8
170
     0
171
     2
172
     1
173
     1
174
     0
175
     0
176
   256
177
   256
178
     2
  0
DIMSTYLE
  2
BIGT$2
 70
     0
  3

  4

  5
OPEN
  6

  7

 40
1.0
 41
2.2299999999999991
 42
0.5
 43
7.0
 44
1.0
 45
0.0
 46
0.0
 47
0.0
 48
0.01
140
2.7999999999999989
141
0.0
142
0.0
143
25.399999999999999
144
1.0
145
0.0
146
1.0
147
1.0
 71
     0
 72
     0
 73
     0
 74
     0
 75
     0
 76
     0
 77
     3
 78
     9
170
     0
171
     2
172
     1
173
     0
174
     0
175
     0
176
   256
177
   256
178
    40
  0
DIMSTYLE
  2
BIGT$3
 70
     0
  3

  4

  5
OPEN
  6

  7

 40
1.0
 41
2.2299999999999991
 42
0.5
 43
2.5
 44
1.0
 45
0.0
 46
0.0
 47
0.0
 48
0.01
140
2.7999999999999989
141
0.0
142
0.0
143
25.399999999999999
144
1.0
145
0.0
146
1.0
147
1.0
 71
     0
 72
     0
 73
     0
 74
     0
 75
     0
 76
     0
 77
     3
 78
     9
170
     0
171
     2
172
     1
173
     0
174
     0
175
     0
176
   256
177
   256
178
    40
  0
DIMSTYLE
  2
BIGT$7
 70
     0
  3

  4

  5
OPEN
  6

  7

 40
0.0
 41
2.2299999999999991
 42
0.5
 43
7.0
 44
1.0
 45
0.0
 46
0.0
 47
0.0
 48
0.01
140
2.7999999999999989
141
0.0
142
0.0
143
25.399999999999999
144
1.0
145
0.0
146
1.0
147
1.0
 71
     0
 72
     0
 73
     0
 74
     0
 75
     0
 76
     0
 77
     3
 78
     9
170
     0
171
     2
172
     0
173
     0
174
     0
175
     0
176
   256
177
   256
178
    40
  0
DIMSTYLE
  2
BIGT$6
 70
     0
  3

  4

  5
OPEN
  6

  7

 40
1.0
 41
2.2299999999999991
 42
0.5
 43
2.5
 44
1.0
 45
0.0
 46
0.0
 47
0.0
 48
0.01
140
2.7999999999999989
141
0.0
142
0.0
143
25.399999999999999
144
1.0
145
0.0
146
1.0
147
1.0
 71
     0
 72
     0
 73
     0
 74
     0
 75
     0
 76
     0
 77
     3
 78
     9
170
     0
171
     2
172
     1
173
     0
174
     0
175
     0
176
   256
177
   256
178
    40
  0
DIMSTYLE
  2
BIGT$0
 70
     0
  3

  4

  5
OPEN
  6

  7

 40
1.0
 41
2.2299999999999991
 42
0.5
 43
7.0
 44
1.0
 45
0.0
 46
0.0
 47
0.0
 48
0.01
140
2.7999999999999989
141
0.0
142
0.0
143
25.399999999999999
144
1.0
145
0.0
146
1.0
147
1.0
 71
     0
 72
     0
 73
     0
 74
     0
 75
     0
 76
     0
 77
     3
 78
     9
170
     0
171
     2
172
     1
173
     0
174
     1
175
     0
176
   256
177
   256
178
    40
  0
DIMSTYLE
  2
BIGT$4
 70
     0
  3

  4

  5
OPEN
  6

  7

 40
1.0
 41
2.2299999999999991
 42
0.5
 43
2.5
 44
1.0
 45
0.0
 46
0.0
 47
0.0
 48
0.01
140
2.7999999999999989
141
0.0
142
0.0
143
25.399999999999999
144
1.0
145
0.0
146
1.0
147
1.0
 71
     0
 72
     0
 73
     0
 74
     0
 75
     0
 76
     0
 77
     3
 78
     9
170
     0
171
     2
172
     1
173
     0
174
     0
175
     0
176
   256
177
   256
178
    40
  0
DIMSTYLE
  2
BIGT$SH
 70
     0
  3

  4

  5
OPEN
  6

  7

 40
1.0
 41
2.2299999999999991
 42
0.5
 43
7.0
 44
1.0
 45
0.0
 46
0.0
 47
0.0
 48
0.0
140
2.7999999999999989
141
0.0
142
0.0
143
25.399999999999999
144
1.0
145
0.0
146
1.0
147
1.0
 71
     0
 72
     0
 73
     0
 74
     0
 75
     0
 76
     0
 77
     3
 78
     9
170
     0
171
     2
172
     1
173
     0
174
     0
175
     0
176
   256
177
   256
178
    40
  0
DIMSTYLE
  2
BIGT$SF
 70
     0
  3

  4

  5
OPEN
  6

  7

 40
1.0
 41
2.2299999999999991
 42
0.5
 43
7.0
 44
1.0
 45
0.0
 46
0.0
 47
0.0
 48
0.0
140
2.7999999999999989
141
0.0
142
0.0
143
25.399999999999999
144
1.0
145
0.0
146
1.0
147
1.0
 71
     0
 72
     0
 73
     0
 74
     0
 75
     0
 76
     0
 77
     3
 78
     9
170
     0
171
     2
172
     1
173
     0
174
     0
175
     0
176
   256
177
   256
178
    40
  0
DIMSTYLE
  2
TECHNICAL_OSAKA
 70
     0
  3

  4
"
  5
OPEN30
  6

  7

 40
1.0
 41
2.5
 42
1.0
 43
10.0
 44
1.0
 45
0.0
 46
0.0
 47
0.1
 48
0.1
140
2.7999999999999989
141
0.0
142
0.0
143
0.0393701
144
1.0
145
0.0
146
0.71
147
1.5
 71
     0
 72
     0
 73
     0
 74
     0
 75
     0
 76
     0
 77
     3
 78
     8
170
     0
171
     2
172
     1
173
     0
174
     0
175
     0
176
   256
177
   256
178
    40
  0
DIMSTYLE
  2
TECHNICAL_OSAKA$3
 70
     0
  3

  4
"
  5
OPEN30
  6

  7

 40
1.0
 41
2.5
 42
1.0
 43
10.0
 44
1.0
 45
0.0
 46
0.0
 47
0.1
 48
0.1
140
2.7999999999999989
141
0.0
142
0.0
143
0.0393701
144
1.0
145
0.0
146
0.71
147
1.5
 71
     0
 72
     0
 73
     0
 74
     1
 75
     0
 76
     0
 77
     3
 78
     8
170
     0
171
     2
172
     0
173
     0
174
     0
175
     0
176
   256
177
   256
178
    40
  0
DIMSTYLE
  2
TECHNICAL_OSAKA$4
 70
     0
  3

  4
"
  5
OPEN30
  6

  7

 40
1.0
 41
2.5
 42
1.0
 43
10.0
 44
1.0
 45
0.0
 46
0.0
 47
0.1
 48
0.1
140
2.7999999999999989
141
0.0
142
0.0
143
0.0393701
144
1.0
145
0.0
146
0.71
147
1.5
 71
     0
 72
     0
 73
     0
 74
     1
 75
     0
 76
     0
 77
     3
 78
     8
170
     0
171
     2
172
     0
173
     0
174
     0
175
     0
176
   256
177
   256
178
    40
  0
DIMSTYLE
  2
TECHNICAL_OSAKA$6
 70
     0
  3

  4
"
  5
OPEN30
  6

  7

 40
1.0
 41
2.5
 42
1.0
 43
10.0
 44
1.0
 45
0.0
 46
0.0
 47
0.1
 48
0.1
140
2.7999999999999989
141
0.0
142
0.0
143
0.0393701
144
1.0
145
0.0
146
0.71
147
1.5
 71
     0
 72
     0
 73
     0
 74
     0
 75
     0
 76
     0
 77
     0
 78
     8
170
     0
171
     2
172
     1
173
     0
174
     0
175
     0
176
   256
177
   256
178
    40
  0
DIMSTYLE
  2
TECHNICAL_OSAKA$7
 70
     0
  3

  4
"
  5
OPEN30
  6

  7

 40
1.0
 41
2.5
 42
1.0
 43
10.0
 44
1.0
 45
0.0
 46
0.0
 47
0.1
 48
0.1
140
2.7999999999999989
141
0.0
142
0.0
143
0.0393701
144
1.0
145
0.0
146
0.71
147
1.5
 71
     0
 72
     0
 73
     0
 74
     0
 75
     0
 76
     0
 77
     3
 78
     8
170
     0
171
     2
172
     1
173
     0
174
     0
175
     0
176
   256
177
   256
178
    40
  0
DIMSTYLE
  2
TECHNICAL_OSAKA$SF
 70
     0
  3

  4
"
  5
OPEN30
  6
OPEN30
  7
OPEN30
 40
1.0
 41
2.5
 42
1.0
 43
10.0
 44
1.0
 45
0.0
 46
0.0
 47
0.1
 48
0.1
140
3.5
141
0.0
142
0.0
143
0.0393701
144
1.0
145
0.0
146
0.71
147
1.5
 71
     0
 72
     0
 73
     0
 74
     0
 75
     1
 76
     1
 77
     3
 78
     8
170
     0
171
     2
172
     1
173
     0
174
     0
175
     0
176
   256
177
   256
178
    40
  0
DIMSTYLE
  2
TECHNICAL_OSAKA$SH
 70
     0
  3

  4
"
  5
OPEN30
  6
GENAXEH
  7
OPEN30
 40
1.0
 41
2.5
 42
1.0
 43
10.0
 44
1.0
 45
0.0
 46
0.0
 47
0.1
 48
0.1
140
3.5
141
0.0
142
0.0
143
0.0393701
144
2.0
145
0.0
146
0.71
147
1.5
 71
     0
 72
     0
 73
     0
 74
     0
 75
     1
 76
     1
 77
     3
 78
     8
170
     0
171
     2
172
     1
173
     1
174
     0
175
     0
176
   256
177
   256
178
    40
  0
ENDTAB
  0
ENDSEC
  0
SECTION
  2
BLOCKS
  0
BLOCK
  8
0
  2
$MODEL_SPACE
 70
     0
 10
0.0
 20
0.0
 30
0.0
  3
$MODEL_SPACE
  1

  0
ENDBLK
  5
1C
  8
0
  0
BLOCK
 67
     1
  8
0
  2
$PAPER_SPACE
 70
     0
 10
0.0
 20
0.0
 30
0.0
  3
$PAPER_SPACE
  1

  0
ENDBLK
  5
19
 67
     1
  8
0
  0
BLOCK
  8
0
  2
_OPEN
 70
     0
 10
0.0
 20
0.0
 30
0.0
  3
_OPEN
  1

  0
LINE
  5
48E3
  8
0
  6
BYBLOCK
 62
     0
 10
-1.0
 20
0.1666666666666666
 30
0.0
 11
0.0
 21
0.0
 31
0.0
  0
LINE
  5
48E4
  8
0
  6
BYBLOCK
 62
     0
 10
-1.0
 20
-0.1666666666666666
 30
0.0
 11
0.0
 21
0.0
 31
0.0
  0
LINE
  5
48E5
  8
0
  6
BYBLOCK
 62
     0
 10
0.0
 20
0.0
 30
0.0
 11
-1.0
 21
0.0
 31
0.0
  0
ENDBLK
  5
48E6
  8
0
  0
BLOCK
  8
0
  2
GENAXEH
 70
     0
 10
0.0
 20
0.0
 30
0.0
  3
GENAXEH
  1

  0
LINE
  5
491E
  8
0
 10
-1.0
 20
0.0
 30
0.0
 11
1.0
 21
0.0
 31
0.0
  0
ENDBLK
  5
491F
  8
0
  0
BLOCK
  8
0
  2
_OPEN30
 70
     0
 10
0.0
 20
0.0
 30
0.0
  3
_OPEN30
  1

  0
LINE
  5
495A
  8
0
  6
BYBLOCK
 62
     0
 10
-1.0
 20
0.26794919
 30
0.0
 11
0.0
 21
0.0
 31
0.0
  0
LINE
  5
495B
  8
0
  6
BYBLOCK
 62
     0
 10
0.0
 20
0.0
 30
0.0
 11
-1.0
 21
-0.26794919
 31
0.0
  0
LINE
  5
495C
  8
0
  6
BYBLOCK
 62
     0
 10
0.0
 20
0.0
 30
0.0
 11
-1.0
 21
0.0
 31
0.0
  0
ENDBLK
  5
495D
  8
0
  0
ENDSEC
  0
SECTION
  2
ENTITIES
  0
LINE
  5
439D
  8
241
 10
41.500000000000853
 20
-35.500384114491141
 30
0.0
 11
41.500000000000881
 21
0.0000000000002842
 31
0.0
  0
ARC
  5
43A9
  8
240
 10
40.000000000000632
 20
38.000384114494842
 30
0.0
 40
2.0
 50
180.0
 51
270.0
1001
GENIUS_GENOBJ-N-FIL_13
1002
{
1000
OWNER
1000
GEN
1002
}
1001
GENIUS_GENODEF_13
1002
{
1000
HIER
1070
     0
1002
}
1002
{
1000
MANEDIT
1070
     0
1002
}
1002
{
1000
NOSEL
1070
     0
1002
}
1002
{
1000
BEHIND
1070
     0
1002
}
1002
{
1000
OTHER
1070
     0
1002
}
1002
{
1000
REACTOR
1002
}
  0
LINE
  5
43AA
  8
240
 10
41.500000000000739
 20
35.500384114494608
 30
0.0
 11
41.000000000000512
 21
36.000384114494842
 31
0.0
  0
LINE
  5
43AB
  8
240
 10
41.000000000000512
 20
36.000384114494842
 30
0.0
 11
40.000000000000632
 21
36.000384114494842
 31
0.0
  0
LINE
  5
43AC
  8
241
 10
41.500000000000739
 20
35.500384114494608
 30
0.0
 11
41.500000000000853
 21
23.999999999998838
 31
0.0
  0
ARC
  5
43AD
  8
240
 10
40.000000000000632
 20
-38.000384114491482
 30
0.0
 40
2.0
 50
90.0
 51
180.0
1001
GENIUS_GENOBJ-N-FIL_13
1002
{
1000
OWNER
1000
GEN
1002
}
1001
GENIUS_GENODEF_13
1002
{
1000
HIER
1070
     0
1002
}
1002
{
1000
MANEDIT
1070
     0
1002
}
1002
{
1000
NOSEL
1070
     0
1002
}
1002
{
1000
BEHIND
1070
     0
1002
}
1002
{
1000
OTHER
1070
     0
1002
}
1002
{
1000
REACTOR
1002
}
  0
LINE
  5
43AE
  8
240
 10
41.500000000000739
 20
-35.500384114491261
 30
0.0
 11
41.000000000000512
 21
-36.000384114491482
 31
0.0
1001
GENIUS_GENFIL_13
1070
     0
1040
0.5000000000002274
1040
0.5000000000002416
1040
0.5000000000002274
1040
45.00000000000081
1002
{
1002
}
1001
GENIUS_GENOREF_13
1005
0
  0
LINE
  5
43AF
  8
240
 10
41.000000000000512
 20
-36.000384114491482
 30
0.0
 11
40.000000000000632
 21
-36.000384114491482
 31
0.0
  0
LINE
  5
43B0
  8
241
 10
41.000000000000512
 20
-36.000384114491482
 30
0.0
 11
41.000000000000512
 21
-33.836547882151507
 31
0.0
  0
LINE
  5
43B2
  8
250
 10
-50.782972670372892
 20
-43.570345964537829
 30
0.0
 11
-69.782972670372885
 21
-43.570345964537829
 31
0.0
1001
ITEMNAME
1000
LNSP2
  0
LINE
  5
43B7
  8
243
 10
34.0
 20
35.400000000000091
 30
0.0
 11
34.0
 21
49.999999999999972
 31
0.0
  0
LINE
  5
43B8
  8
243
 10
34.0
 20
35.400000000000091
 30
0.0
 11
1.4999999999984079
 21
35.400000000000063
 31
0.0
  0
LINE
  5
43B9
  8
243
 10
34.0
 20
-35.39999999999992
 30
0.0
 11
1.4999999999984079
 21
-35.399999999999892
 31
0.0
  0
LINE
  5
43BA
  8
243
 10
34.0
 20
-35.39999999999992
 30
0.0
 11
33.999999999999773
 21
-50.000000000000078
 31
0.0
  0
LINE
  5
43D1
  8
241
 10
0.0
 20
34.924999999999983
 30
0.0
 11
0.0
 21
-34.92500000000004
 31
0.0
  0
LINE
  5
43D2
  8
241
 10
1.4999999999984079
 20
-34.92500000000004
 30
0.0
 11
1.499999999999164
 21
34.924999999999983
 31
0.0
  0
ARC
  5
43D3
  8
240
 10
36.700000000000621
 20
48.69999999999996
 30
0.0
 40
1.3000000000000109
 50
0.0
 51
90.0
  0
LINE
  5
43D4
  8
240
 10
38.000000000000632
 20
48.69999999999996
 30
0.0
 11
38.000000000000632
 21
38.000384114494842
 31
0.0
  0
LINE
  5
43D5
  8
241
 10
38.000000000000632
 20
38.000384114494842
 30
0.0
 11
38.000000000000632
 21
-38.000384114491482
 31
0.0
  0
ARC
  5
43D6
  8
240
 10
36.699999999999818
 20
-48.70000000000018
 30
0.0
 40
1.3000000000000109
 50
270.0
 51
0.0
  0
LINE
  5
43D7
  8
240
 10
37.999999999999829
 20
-48.70000000000018
 30
0.0
 11
38.0
 21
-38.00038411449146
 31
0.0
  0
LINE
  5
43D8
  8
240
 10
0.0
 20
-34.92500000000004
 30
0.0
 11
-99.917475164758002
 21
-20.353701538472819
 31
0.0
  0
LINE
  5
43D9
  8
240
 10
0.0
 20
34.924999999999983
 30
0.0
 11
-99.917475164757775
 21
20.353701538472791
 31
0.0
  0
ARC
  5
43DE
  8
240
 10
2.4999999999984079
 20
-49.000000000000142
 30
0.0
 40
1.0
 50
179.9999999999967
 51
270.0
  0
ARC
  5
43DF
  8
240
 10
2.5000000000001128
 20
48.999999999999972
 30
0.0
 40
1.0
 50
90.0
 51
180.0
  0
LINE
  5
43E1
  8
240
 10
1.499999999999164
 20
34.924999999999983
 30
0.0
 11
1.500000000000113
 21
48.999999999999972
 31
0.0
  0
LINE
  5
43E2
  8
240
 10
1.4999999999984079
 20
-49.000000000000092
 30
0.0
 11
1.4999999999984079
 21
-34.92500000000004
 31
0.0
  0
LINE
  5
43E7
  8
240
 10
30.587307764271539
 20
49.740192378865082
 30
0.0
 11
26.49378328572692
 21
42.64999999999926
 31
0.0
  0
LINE
  5
43E8
  8
240
 10
31.037307764271532
 20
50.000000000000369
 30
0.0
 11
30.587307764271539
 21
49.740192378865082
 31
0.0
  0
LINE
  5
43E9
  8
240
 10
26.233975664591579
 20
42.499999999999282
 30
0.0
 11
20.166024335409471
 21
42.499999999999403
 31
0.0
  0
ARC
  5
43EA
  8
240
 10
26.233975664591579
 20
42.799999999999301
 30
0.0
 40
0.3
 50
270.0
 51
329.99999999999812
  0
LINE
  5
43EB
  8
240
 10
36.700000000000621
 20
50.000000000000142
 30
0.0
 11
31.03730776427108
 21
50.000000000000078
 31
0.0
  0
LINE
  5
43EC
  8
240
 10
19.906216714274141
 20
42.64999999999938
 30
0.0
 11
15.81269223573093
 21
49.740192378863611
 31
0.0
  0
LINE
  5
43ED
  8
240
 10
15.36269223573095
 20
49.999999999998998
 30
0.0
 11
15.81269223573093
 21
49.740192378863611
 31
0.0
  0
ARC
  5
43EE
  8
240
 10
20.166024335409471
 20
42.799999999999407
 30
0.0
 40
0.3
 50
209.99999999999969
 51
270.0
  0
LINE
  5
43EF
  8
240
 10
2.5000000000001128
 20
50.000000000000142
 30
0.0
 11
15.3626922357289
 21
50.000000000000199
 31
0.0
  0
LINE
  5
43F0
  8
241
 10
30.737307764279681
 20
49.826794919238672
 30
0.0
 11
30.73730776427033
 21
-49.826794919238672
 31
0.0
  0
LINE
  5
43F1
  8
241
 10
26.407180745356388
 20
42.555051025721717
 30
0.0
 11
26.407180745348398
 21
-42.555051025720878
 31
0.0
  0
LINE
  5
43F2
  8
240
 10
26.23397566459187
 20
-42.499999999999361
 30
0.0
 11
20.166024335409759
 21
-42.499999999999517
 31
0.0
  0
LINE
  5
43F3
  8
240
 10
30.58730776427188
 20
-49.74019237886516
 30
0.0
 11
26.493783285727211
 21
-42.649999999999388
 31
0.0
  0
LINE
  5
43F4
  8
240
 10
31.037307764271869
 20
-50.000000000000441
 30
0.0
 11
30.58730776427188
 21
-49.74019237886516
 31
0.0
  0
ARC
  5
43F5
  8
240
 10
26.23397566459187
 20
-42.799999999999429
 30
0.0
 40
0.3
 50
30.00000000000195
 51
90.0
  0
LINE
  5
43F6
  8
240
 10
36.699999999999818
 20
-50.000000000000043
 30
0.0
 11
31.03730776427102
 21
-49.999999999999922
 31
0.0
  0
LINE
  5
43F7
  8
241
 10
19.992819254660589
 20
42.555051025723422
 30
0.0
 11
19.992819254652598
 21
-42.55505102572139
 31
0.0
  0
LINE
  5
43F8
  8
240
 10
19.906216714274422
 20
-42.649999999999572
 30
0.0
 11
15.81269223573128
 21
-49.740192378863803
 31
0.0
  0
ARC
  5
43F9
  8
240
 10
20.166024335409759
 20
-42.799999999999542
 30
0.0
 40
0.3
 50
90.0
 51
149.99999999999801
  0
LINE
  5
43FA
  8
241
 10
15.662692235739961
 20
49.82679491924759
 30
0.0
 11
15.66269223573061
 21
-49.826794919244762
 31
0.0
  0
LINE
  5
43FB
  8
240
 10
15.362692235731281
 20
-49.999999999999133
 30
0.0
 11
15.81269223573128
 21
-49.740192378863803
 31
0.0
  0
LINE
  5
43FC
  8
240
 10
2.4999999999984079
 20
-49.999999999999922
 30
0.0
 11
15.362692235729471
 21
-50.000000000000213
 31
0.0
  0
LINE
  5
43FE
  8
240
 10
-101.8
 20
18.176728980133841
 30
0.0
 11
-101.8000000000001
 21
-18.17672898013322
 31
0.0
  0
ARC
  5
4400
  8
240
 10
-99.600000000000151
 20
-18.17672898013322
 30
0.0
 40
2.2000000000000002
 50
180.0
 51
261.70285503016129
1001
GENIUS_GENODEF_13
1002
{
1000
HIER
1070
     0
1002
}
1002
{
1000
MANEDIT
1070
     0
1002
}
1002
{
1000
NOSEL
1070
     0
1002
}
1002
{
1000
BEHIND
1070
     0
1002
}
1002
{
1000
OTHER
1070
     0
1002
}
1002
{
1000
REACTOR
1002
}
1001
GENIUS_GENOBJ-N-FIL_13
1002
{
1000
OWNER
1000
GEN
1002
}
  0
ARC
  5
4401
  8
240
 10
-99.600000000000023
 20
18.176728980133841
 30
0.0
 40
2.2000000000000002
 50
98.297144969835202
 51
180.0
1001
GENIUS_GENOBJ-N-FIL_13
1002
{
1000
OWNER
1000
GEN
1002
}
1001
GENIUS_GENODEF_13
1002
{
1000
HIER
1070
     0
1002
}
1002
{
1000
MANEDIT
1070
     0
1002
}
1002
{
1000
NOSEL
1070
     0
1002
}
1002
{
1000
BEHIND
1070
     0
1002
}
1002
{
1000
OTHER
1070
     0
1002
}
1002
{
1000
REACTOR
1002
}
  0
LINE
  5
4402
  8
241
  6
CONTINUOUS
 10
41.500000000000817
 20
-35.500384114494381
 30
0.0
 11
41.500000000001563
 21
35.500384114496939
 31
0.0
  0
LINE
  5
4403
  8
241
  6
CONTINUOUS
 10
55.500000000001421
 20
35.500384114497137
 30
0.0
 11
55.500000000001478
 21
-35.500384114495517
 31
0.0
  0
ARC
  5
4404
  8
240
 10
55.00000000000145
 20
35.500384114497137
 30
0.0
 40
0.5
 50
0.0
 51
90.0
1001
GENIUS_GENODEF_13
1002
{
1000
HIER
1070
     0
1002
}
1002
{
1000
MANEDIT
1070
     0
1002
}
1002
{
1000
NOSEL
1070
     0
1002
}
1002
{
1000
BEHIND
1070
     0
1002
}
1002
{
1000
OTHER
1070
     0
1002
}
1002
{
1000
REACTOR
1002
}
1001
GENIUS_GENOBJ-N-FIL_13
1002
{
1000
OWNER
1000
GEN
1002
}
  0
ARC
  5
4405
  8
240
 10
55.000000000001478
 20
-35.500384114495347
 30
0.0
 40
0.5
 50
270.0
 51
0.0
1001
GENIUS_GENOBJ-N-FIL_13
1002
{
1000
OWNER
1000
GEN
1002
}
1001
GENIUS_GENODEF_13
1002
{
1000
HIER
1070
     0
1002
}
1002
{
1000
MANEDIT
1070
     0
1002
}
1002
{
1000
NOSEL
1070
     0
1002
}
1002
{
1000
BEHIND
1070
     0
1002
}
1002
{
1000
OTHER
1070
     0
1002
}
1002
{
1000
REACTOR
1002
}
  0
LINE
  5
4406
  8
240
 10
55.00000000000145
 20
36.000384114497137
 30
0.0
 11
42.000000000001791
 21
36.000384114497137
 31
0.0
  0
LINE
  5
4407
  8
240
 10
41.500000000001563
 20
35.50038411449691
 30
0.0
 11
42.000000000001791
 21
36.000384114497137
 31
0.0
1001
GENIUS_GENFIL_13
1070
     0
1040
0.5
1040
0.5
1040
0.4999999999999716
1040
45.000000000004889
1000
~T
  0
LINE
  5
4408
  8
240
 10
55.000000000001478
 20
-36.000384114495347
 30
0.0
 11
42.000000000001791
 21
-36.000384114495318
 31
0.0
  0
LINE
  5
4409
  8
240
 10
41.500000000001563
 20
-35.500384114495091
 30
0.0
 11
42.000000000001791
 21
-36.000384114495318
 31
0.0
1001
GENIUS_GENFIL_13
1070
     0
1040
0.500000000000938
1040
0.5000000000009665
1040
0.500000000000938
1040
45.000000000003247
1002
{
1002
}
1001
GENIUS_GENOREF_13
1005
0
  0
POLYLINE
  5
440A
  8
241
 66
     1
 10
0.0
 20
0.0
 30
0.0
 70
     1
  0
VERTEX
  5
49D8
  8
241
 10
46.000000000001791
 20
30.155084652875932
 30
0.0
  0
VERTEX
  5
49D9
  8
241
 10
46.000000000001791
 20
27.845683576117441
 30
0.0
  0
VERTEX
  5
49DA
  8
241
 10
48.000000000001791
 20
26.690983037738189
 30
0.0
  0
VERTEX
  5
49DB
  8
241
 10
50.000000000001791
 20
27.845683576117441
 30
0.0
  0
VERTEX
  5
49DC
  8
241
 10
50.000000000001791
 20
30.155084652875932
 30
0.0
  0
VERTEX
  5
49DD
  8
241
 10
48.000000000001791
 20
31.30978519125517
 30
0.0
  0
SEQEND
  5
49DE
  8
241
  0
LINE
  5
440B
  8
241
 10
55.50000000000145
 20
-5.1457893831309027
 30
0.0
 11
41.500000000001137
 21
-5.1457893831309027
 31
0.0
  0
LINE
  5
440C
  8
241
 10
55.50000000000145
 20
-13.358977778696699
 30
0.0
 11
41.500000000001052
 21
-13.358977778696699
 31
0.0
  0
LINE
  5
440D
  8
241
 10
55.50000000000145
 20
-22.271746435327941
 30
0.0
 11
41.500000000000973
 21
-22.271746435327941
 31
0.0
  0
LINE
  5
440E
  8
241
 10
55.500000000001478
 20
-28.284217633017679
 30
0.0
 11
41.500000000000902
 21
-28.284217633017679
 31
0.0
  0
LINE
  5
440F
  8
241
 10
55.500000000001478
 20
-33.430007016147499
 30
0.0
 11
41.500000000000853
 21
-33.430007016147499
 31
0.0
  0
LINE
  5
4410
  8
240
 10
79.000000000002217
 20
-25.171572875252419
 30
0.0
 11
79.000000000002217
 21
-21.900000000002571
 31
0.0
  0
LINE
  5
4411
  8
240
 10
68.671572875255066
 20
35.500000000001371
 30
0.0
 11
55.750000000001393
 21
35.500000000001592
 31
0.0
  0
LINE
  5
4412
  8
240
 10
55.750000000001393
 20
35.500000000001592
 30
0.0
 11
55.500000000001393
 21
35.250000000001592
 31
0.0
1001
GENIUS_GENFIL_13
1070
     0
1040
0.25
1040
0.25
1040
0.2500000000000284
1040
45.00000000000162
1002
{
1002
}
1001
GENIUS_GENOBJ-N-CHA_13
1002
{
1000
OWNER
1000
GEN
1002
}
1001
GENIUS_GENODEF_13
1002
{
1000
HIER
1070
     0
1002
}
1002
{
1000
MANEDIT
1070
     0
1002
}
1002
{
1000
NOSEL
1070
     0
1002
}
1002
{
1000
BEHIND
1070
     0
1002
}
1002
{
1000
OTHER
1070
     0
1002
}
1002
{
1000
REACTOR
1002
}
  0
LINE
  5
4413
  8
240
 10
70.085786437628173
 20
34.914213562374471
 30
0.0
 11
78.414213562375295
 21
26.585786437627348
 31
0.0
  0
ARC
  5
4414
  8
240
 10
68.67157287525518
 20
33.500000000001478
 30
0.0
 40
2.0
 50
45.0
 51
90.0
1001
GENIUS_GENODEF_13
1002
{
1000
HIER
1070
     0
1002
}
1002
{
1000
MANEDIT
1070
     0
1002
}
1002
{
1000
NOSEL
1070
     0
1002
}
1002
{
1000
BEHIND
1070
     0
1002
}
1002
{
1000
OTHER
1070
     0
1002
}
1002
{
1000
REACTOR
1002
}
1001
GENIUS_GENOBJ-N-FIL_13
1002
{
1000
OWNER
1000
GEN
1002
}
  0
ARC
  5
4415
  8
240
 10
77.000000000002188
 20
25.171572875254238
 30
0.0
 40
2.0
 50
0.0
 51
45.0
1001
GENIUS_GENODEF_13
1002
{
1000
HIER
1070
     0
1002
}
1002
{
1000
MANEDIT
1070
     0
1002
}
1002
{
1000
NOSEL
1070
     0
1002
}
1002
{
1000
BEHIND
1070
     0
1002
}
1002
{
1000
OTHER
1070
     0
1002
}
1002
{
1000
REACTOR
1002
}
1001
GENIUS_GENOBJ-N-FIL_13
1002
{
1000
OWNER
1000
GEN
1002
}
  0
LINE
  5
4416
  8
240
 10
68.671572875255066
 20
-35.499999999999538
 30
0.0
 11
55.750000000001393
 21
-35.49999999999978
 31
0.0
  0
LINE
  5
4417
  8
240
 10
55.750000000001393
 20
-35.49999999999978
 30
0.0
 11
55.500000000001393
 21
-35.249999999999773
 31
0.0
1001
GENIUS_GENFIL_13
1070
     0
1040
0.25
1040
0.25
1040
0.2500000000000284
1040
45.00000000000162
1002
{
1002
}
1001
GENIUS_GENOBJ-N-CHA_13
1002
{
1000
OWNER
1000
GEN
1002
}
1001
GENIUS_GENODEF_13
1002
{
1000
HIER
1070
     0
1002
}
1002
{
1000
MANEDIT
1070
     0
1002
}
1002
{
1000
NOSEL
1070
     0
1002
}
1002
{
1000
BEHIND
1070
     0
1002
}
1002
{
1000
OTHER
1070
     0
1002
}
1002
{
1000
REACTOR
1002
}
  0
ARC
  5
4418
  8
240
 10
68.67157287525518
 20
-33.499999999999659
 30
0.0
 40
2.0
 50
270.0
 51
315.0
1001
GENIUS_GENODEF_13
1002
{
1000
HIER
1070
     0
1002
}
1002
{
1000
MANEDIT
1070
     0
1002
}
1002
{
1000
NOSEL
1070
     0
1002
}
1002
{
1000
BEHIND
1070
     0
1002
}
1002
{
1000
OTHER
1070
     0
1002
}
1002
{
1000
REACTOR
1002
}
1001
GENIUS_GENOBJ-N-FIL_13
1002
{
1000
OWNER
1000
GEN
1002
}
  0
ARC
  5
4419
  8
240
 10
77.000000000002188
 20
-25.171572875252419
 30
0.0
 40
2.0
 50
315.0
 51
0.0
1001
GENIUS_GENODEF_13
1002
{
1000
HIER
1070
     0
1002
}
1002
{
1000
MANEDIT
1070
     0
1002
}
1002
{
1000
NOSEL
1070
     0
1002
}
1002
{
1000
BEHIND
1070
     0
1002
}
1002
{
1000
OTHER
1070
     0
1002
}
1002
{
1000
REACTOR
1002
}
1001
GENIUS_GENOBJ-N-FIL_13
1002
{
1000
OWNER
1000
GEN
1002
}
  0
LINE
  5
441A
  8
240
 10
70.085786437628173
 20
-34.914213562375501
 30
0.0
 11
78.414213562375295
 21
-26.585786437628371
 31
0.0
  0
LINE
  5
441B
  8
241
  6
CONTINUOUS
 10
69.500000000004121
 20
-35.320359442247309
 30
0.0
 11
69.500000000004121
 21
35.320359442249128
 31
0.0
  0
LINE
  5
441C
  8
241
 10
56.00000000000145
 20
-0.00000000000054
 30
0.0
 11
59.00000000000145
 21
-0.0000000000019043
 31
0.0
  0
LINE
  5
441D
  8
241
 10
56.00000000000145
 20
-3.0940288675439258
 30
0.0
 11
58.00000000000145
 21
-3.0940288675439258
 31
0.0
  0
LINE
  5
441E
  8
241
 10
56.00000000000145
 20
-6.164510307178289
 30
0.0
 11
59.00000000000145
 21
-6.164510307178289
 31
0.0
  0
LINE
  5
441F
  8
241
 10
56.00000000000145
 20
-9.1880761011418883
 30
0.0
 11
58.00000000000145
 21
-9.1880761011418883
 31
0.0
  0
LINE
  5
4420
  8
241
 10
56.00000000000145
 20
-12.095512196469739
 30
0.0
 11
59.00000000000145
 21
-12.095512196469739
 31
0.0
  0
LINE
  5
4421
  8
241
 10
56.00000000000145
 20
-14.888984043800599
 30
0.0
 11
58.00000000000145
 21
-14.888984043800599
 31
0.0
  0
LINE
  5
4422
  8
241
 10
56.00000000000145
 20
-17.750000000002931
 30
0.0
 11
59.00000000000145
 21
-17.750000000002931
 31
0.0
  0
LINE
  5
4423
  8
241
 10
56.00000000000145
 20
-20.361963490465168
 30
0.0
 11
58.00000000000145
 21
-20.361963490465168
 31
0.0
  0
LINE
  5
4424
  8
241
 10
56.00000000000145
 20
-22.732127111295512
 30
0.0
 11
59.00000000000145
 21
-22.732127111295512
 31
0.0
  0
LINE
  5
4425
  8
241
 10
56.00000000000145
 20
-25.102290732125741
 30
0.0
 11
58.00000000000145
 21
-25.102290732125741
 31
0.0
  0
LINE
  5
4426
  8
241
 10
56.00000000000145
 20
-27.194577730727161
 30
0.0
 11
59.000000000001513
 21
-27.194577730727161
 31
0.0
  0
LINE
  5
4427
  8
241
 10
56.00000000000145
 20
-29.079897572262809
 30
0.0
 11
58.000000000001499
 21
-29.079897572262809
 31
0.0
  0
LINE
  5
4428
  8
241
 10
56.00000000000145
 20
-30.743901834351188
 30
0.0
 11
59.000000000001513
 21
-30.743901834351188
 31
0.0
  0
LINE
  5
4429
  8
241
 10
56.000000000001499
 20
-32.173926439804831
 30
0.0
 11
58.000000000001499
 21
-32.173926439804831
 31
0.0
  0
LINE
  5
442A
  8
241
 10
56.000000000001499
 20
-33.359088037903547
 30
0.0
 11
59.000000000001513
 21
-33.359088037903547
 31
0.0
  0
LINE
  5
442B
  8
241
 10
56.000000000001499
 20
-34.290366833265722
 30
0.0
 11
58.000000000001499
 21
-34.290366833265722
 31
0.0
  0
LINE
  5
442C
  8
241
 10
56.000000000001499
 20
-34.960675231937302
 30
0.0
 11
59.000000000001513
 21
-34.960675231937302
 31
0.0
  0
CIRCLE
  5
442D
  8
241
 10
48.000000000001791
 20
29.000384114496679
 30
0.0
 40
4.0000000000000231
  0
ARC
  5
442F
  8
241
  6
CONTINUOUS
 10
48.000000000001791
 20
29.000384114496679
 30
0.0
 40
4.25
 50
180.0
 51
0.0
  0
LINE
  5
4430
  8
241
  6
CONTINUOUS
 10
43.750000000001791
 20
33.250384114496683
 30
0.0
 11
43.750000000001791
 21
29.000384114496679
 31
0.0
  0
LINE
  5
4431
  8
241
  6
CONTINUOUS
 10
52.250000000001791
 20
33.250384114496683
 30
0.0
 11
52.250000000001791
 21
29.000384114496679
 31
0.0
  0
LINE
  5
4432
  8
241
  6
CONTINUOUS
 10
43.750000000001791
 20
33.250384114496683
 30
0.0
 11
52.250000000001791
 21
33.250384114496683
 31
0.0
  0
LINE
  5
4433
  8
241
 10
55.50000000000145
 20
5.1457893831298227
 30
0.0
 11
41.500000000001137
 21
5.1457893831298227
 31
0.0
  0
LINE
  5
4434
  8
241
 10
56.00000000000145
 20
3.0940288675428458
 30
0.0
 11
58.00000000000145
 21
3.0940288675428458
 31
0.0
  0
LINE
  5
4435
  8
241
 10
56.00000000000145
 20
6.1645103071772089
 30
0.0
 11
59.00000000000145
 21
6.1645103071772089
 31
0.0
  0
LINE
  5
4436
  8
241
 10
56.00000000000145
 20
9.1880761011408083
 30
0.0
 11
58.00000000000145
 21
9.1880761011408083
 31
0.0
  0
LINE
  5
4437
  8
241
 10
56.00000000000145
 20
12.095512196468659
 30
0.0
 11
59.00000000000145
 21
12.095512196468659
 31
0.0
  0
LINE
  5
4438
  8
241
 10
56.00000000000145
 20
14.888984043799519
 30
0.0
 11
58.00000000000145
 21
14.888984043799519
 31
0.0
  0
LINE
  5
4439
  8
241
 10
56.00000000000145
 20
17.750000000001851
 30
0.0
 11
59.00000000000145
 21
17.750000000001851
 31
0.0
  0
LINE
  5
443A
  8
241
 10
56.00000000000145
 20
20.361963490464088
 30
0.0
 11
58.00000000000145
 21
20.361963490464088
 31
0.0
  0
LINE
  5
443B
  8
241
 10
56.00000000000145
 20
22.732127111294432
 30
0.0
 11
59.00000000000145
 21
22.732127111294432
 31
0.0
  0
LINE
  5
443C
  8
241
 10
56.00000000000145
 20
25.102290732124661
 30
0.0
 11
58.00000000000145
 21
25.102290732124661
 31
0.0
  0
LINE
  5
443D
  8
241
 10
56.00000000000145
 20
27.194577730726081
 30
0.0
 11
59.000000000001513
 21
27.194577730726081
 31
0.0
  0
LINE
  5
443E
  8
241
 10
56.00000000000145
 20
29.079897572261729
 30
0.0
 11
58.000000000001499
 21
29.079897572261729
 31
0.0
  0
LINE
  5
443F
  8
241
 10
56.00000000000145
 20
30.743901834350108
 30
0.0
 11
59.000000000001513
 21
30.743901834350108
 31
0.0
  0
LINE
  5
4440
  8
241
 10
56.000000000001499
 20
32.173926439803751
 30
0.0
 11
58.000000000001499
 21
32.173926439803751
 31
0.0
  0
LINE
  5
4441
  8
241
 10
56.000000000001499
 20
33.359088037902467
 30
0.0
 11
59.000000000001513
 21
33.359088037902467
 31
0.0
  0
LINE
  5
4442
  8
241
 10
56.000000000001499
 20
34.290366833264642
 30
0.0
 11
58.000000000001499
 21
34.290366833264642
 31
0.0
  0
LINE
  5
4443
  8
241
 10
56.000000000001499
 20
34.960675231936222
 30
0.0
 11
59.000000000001513
 21
34.960675231936222
 31
0.0
  0
ARC
  5
4445
  8
240
  6
CONTINUOUS
 10
80.500000000004647
 20
-21.40000000000256
 30
0.0
 40
0.5
 50
270.00000001286469
 51
0.0000000128647076
1001
GRPNAME
1000
PASTMD3D
  0
LINE
  5
4446
  8
240
  6
CONTINUOUS
 10
79.000000000002245
 20
-21.900000000002571
 30
0.0
 11
80.500000000004647
 21
-21.900000000002571
 31
0.0
1001
GRPNAME
1000
PASTMD3D
  0
LINE
  5
4447
  8
241
  6
CONTINUOUS
 10
79.000000000002245
 20
-21.900000000002571
 30
0.0
 11
79.000000000002245
 21
21.900000000001508
 31
0.0
  0
LINE
  5
4448
  8
240
 10
81.500000000003183
 20
-25.349999999999199
 30
0.0
 11
84.999999999999403
 21
-25.35000000000068
 31
0.0
  0
LINE
  5
4449
  8
240
  6
CONTINUOUS
 10
81.000000000003382
 20
-24.849999999999259
 30
0.0
 11
81.000000000003055
 21
-21.40000000000251
 31
0.0
1001
GRPNAME
1000
PASTMD0F
  0
ARC
  5
444A
  8
240
 10
81.500000000003368
 20
-24.849999999999199
 30
0.0
 40
0.5
 50
180.0000000000048
 51
269.9999999999755
1001
GRPNAME
1000
PASTMD0F
1001
ASK_MEN_XD
1005
4448
1070
     1
1005
4449
1070
     1
  0
LINE
  5
444B
  8
240
 10
118.47829568782829
 20
-23.887743264609782
 30
0.0
 11
111.56602540379021
 21
-24.249999999999918
 31
0.0
  0
LINE
  5
444C
  8
241
 10
99.700000000000685
 20
-25.000000000000309
 30
0.0
 11
99.700000000000685
 21
24.999999999999201
 31
0.0
  0
LINE
  5
444D
  8
241
 10
84.999999999999403
 20
-25.350000000001359
 30
0.0
 11
84.999999999999403
 21
25.35000000000025
 31
0.0
  0
LINE
  5
444E
  8
241
 10
87.000000000001393
 20
-25.000000000000199
 30
0.0
 11
87.000000000001393
 21
24.999999999999119
 31
0.0
  0
LINE
  5
444F
  8
240
  6
CONTINUOUS
 10
100.6500000000006
 20
-24.050000000000331
 30
0.0
 11
102.0000000000006
 21
-24.050000000000331
 31
0.0
  0
LINE
  5
4450
  8
240
  6
CONTINUOUS
 10
87.000000000001393
 20
-25.000000000000199
 30
0.0
 11
99.700000000000685
 21
-25.000000000000309
 31
0.0
  0
LINE
  5
4451
  8
241
 10
85.550000000001518
 20
-24.800000000000271
 30
0.0
 11
85.550000000001518
 21
-21.589685565644629
 31
0.0
  0
LINE
  5
4452
  8
241
 10
86.800000000001518
 20
-24.80000000000032
 30
0.0
 11
86.800000000001518
 21
-21.551481264506862
 31
0.0
  0
LINE
  5
4453
  8
240
  6
CONTINUOUS
 10
87.000000000001506
 20
-25.000000000000309
 30
0.0
 11
86.800000000001518
 21
-24.80000000000032
 31
0.0
  0
LINE
  5
4454
  8
240
  6
CONTINUOUS
 10
84.999999999999403
 20
-25.350000000001359
 30
0.0
 11
85.550000000001518
 21
-24.80000000000032
 31
0.0
  0
LINE
  5
4455
  8
240
  6
CONTINUOUS
 10
85.550000000001518
 20
-24.80000000000032
 30
0.0
 11
86.800000000001518
 21
-24.80000000000032
 31
0.0
  0
LINE
  5
4456
  8
241
 10
100.6500000000006
 20
-24.050000000000331
 30
0.0
 11
100.6500000000006
 21
-21.54880473162186
 31
0.0
  0
LINE
  5
4457
  8
241
 10
100.6500000000006
 20
-21.003369125892188
 30
0.0
 11
100.6500000000006
 21
-0.545435605730205
 31
0.0
  0
LINE
  5
4458
  8
240
  6
CONTINUOUS
 10
100.6500000000006
 20
-24.050000000000331
 30
0.0
 11
99.700000000000685
 21
-25.000000000000309
 31
0.0
  0
LINE
  5
4459
  8
240
  6
CONTINUOUS
 10
102.7000000000006
 20
-24.75000000000032
 30
0.0
 11
109.7000000000008
 21
-24.750000000000199
 31
0.0
  0
LINE
  5
445A
  8
241
 10
102.0000000000006
 20
-24.050000000000331
 30
0.0
 11
102.0000000000006
 21
-22.544944682801852
 31
0.0
  0
LINE
  5
445B
  8
241
 10
102.0000000000006
 20
-20.00722917471219
 30
0.0
 11
102.0000000000006
 21
-2.537715508090201
 31
0.0
  0
LINE
  5
445C
  8
241
 10
102.7000000000006
 20
-24.75000000000032
 30
0.0
 11
102.7000000000006
 21
-22.706995730882369
 31
0.0
  0
LINE
  5
445D
  8
241
 10
102.7000000000006
 20
-19.84517812663168
 30
0.0
 11
102.7000000000007
 21
-2.8618176042512569
 31
0.0
  0
LINE
  5
445E
  8
240
  6
CONTINUOUS
 10
102.0000000000006
 20
-24.050000000000331
 30
0.0
 11
102.7000000000006
 21
-24.75000000000032
 31
0.0
  0
LINE
  5
445F
  8
241
 10
109.7000000000008
 20
-24.750000000000199
 30
0.0
 11
109.7000000000007
 21
-22.667375852247378
 31
0.0
  0
LINE
  5
4460
  8
241
 10
109.7000000000007
 20
-19.884798005266671
 30
0.0
 11
109.7000000000005
 21
-2.7774271574881761
 31
0.0
  0
LINE
  5
4461
  8
240
  6
CONTINUOUS
 10
111.56602540379021
 20
-24.249999999999918
 30
0.0
 11
109.7000000000008
 21
-24.750000000000199
 31
0.0
  0
LINE
  5
4462
  8
241
 10
111.56602540378999
 20
-24.24999999999994
 30
0.0
 11
111.56602540378999
 21
-21.499937501345389
 31
0.0
  0
LINE
  5
4463
  8
241
 10
111.56602540378999
 20
-21.05223635616866
 30
0.0
 11
111.56602540378999
 21
21.05223635616758
 31
0.0
  0
LINE
  5
4486
  8
240
 10
124.5000000000008
 20
-20.788675134595309
 30
0.0
 11
119.8212878190996
 21
-23.489930871699379
 31
0.0
  0
ARC
  5
4487
  8
240
 10
118.3212878190996
 20
-20.89185466034607
 30
0.0
 40
3.0
 50
272.99999999999591
 51
299.99999999999972
1001
ASK_MEN_XD
1005
444B
1070
     1
1005
4486
1070
     1
  0
ARC
  5
4488
  8
240
 10
124.0000000000008
 20
-19.922649730810889
 30
0.0
 40
1.0
 50
299.99999999999972
 51
0.0
1001
ASK_MEN_XD
1005
0
1070
     1
1005
0
1070
     1
  0
LINE
  5
4489
  8
241
 10
119.1975449062822
 20
-23.761031113121678
 30
0.0
 11
119.1975449062822
 21
-0.1005458820950764
 31
0.0
  0
LINE
  5
448C
  8
241
 10
103.600000000001
 20
-19.776086928757021
 30
0.0
 11
108.56602540379021
 21
-19.776086928757021
 31
0.0
  0
LINE
  5
448D
  8
241
 10
103.600000000001
 20
-22.776086928757049
 30
0.0
 11
108.56602540379021
 21
-22.776086928757049
 31
0.0
  0
LINE
  5
448E
  8
241
 10
108.56602540379021
 20
-3.00000000000054
 30
0.0
 11
103.600000000001
 21
-3.00000000000054
 31
0.0
  0
LINE
  5
448F
  8
241
 10
108.56602540379021
 20
2.9999999999994591
 30
0.0
 11
103.600000000001
 21
2.9999999999994591
 31
0.0
  0
ARC
  5
4490
  8
241
 10
103.600000000001
 20
-0.00000000000054
 30
0.0
 40
3.0
 50
90.0
 51
270.0
  0
ARC
  5
4491
  8
241
 10
108.56602540379021
 20
-0.00000000000054
 30
0.0
 40
2.9999999999999849
 50
270.0
 51
90.0
  0
POLYLINE
  5
4492
  8
241
 10
103.600000000001
 20
-19.776086928757021
 30
0.0
 66
     1
 70
     8
  0
VERTEX
  8
241
  5
49E3
 10
103.600
 20
-19.7761
 30
0.000000
  70
    32
  0
VERTEX
  8
241
  5
49E4
 10
103.526
 20
-19.7765
 30
0.000000
  70
    32
  0
VERTEX
  8
241
  5
49E5
 10
103.453
 20
-19.7779
 30
0.000000
  70
    32
  0
VERTEX
  8
241
  5
49E6
 10
103.379
 20
-19.7802
 30
0.000000
  70
    32
  0
VERTEX
  8
241
  5
49E7
 10
103.306
 20
-19.7833
 30
0.000000
  70
    32
  0
VERTEX
  8
241
  5
49E8
 10
103.233
 20
-19.7874
 30
0.000000
  70
    32
  0
VERTEX
  8
241
  5
49E9
 10
103.160
 20
-19.7923
 30
0.000000
  70
    32
  0
VERTEX
  8
241
  5
49EA
 10
103.087
 20
-19.7982
 30
0.000000
  70
    32
  0
VERTEX
  8
241
  5
49EB
 10
103.015
 20
-19.8049
 30
0.000000
  70
    32
  0
VERTEX
  8
241
  5
49EC
 10
102.943
 20
-19.8125
 30
0.000000
  70
    32
  0
VERTEX
  8
241
  5
49ED
 10
102.871
 20
-19.8210
 30
0.000000
  70
    32
  0
VERTEX
  8
241
  5
49EE
 10
102.800
 20
-19.8304
 30
0.000000
  70
    32
  0
VERTEX
  8
241
  5
49EF
 10
102.729
 20
-19.8407
 30
0.000000
  70
    32
  0
VERTEX
  8
241
  5
49F0
 10
102.659
 20
-19.8518
 30
0.000000
  70
    32
  0
VERTEX
  8
241
  5
49F1
 10
102.589
 20
-19.8638
 30
0.000000
  70
    32
  0
VERTEX
  8
241
  5
49F2
 10
102.520
 20
-19.8766
 30
0.000000
  70
    32
  0
VERTEX
  8
241
  5
49F3
 10
102.452
 20
-19.8903
 30
0.000000
  70
    32
  0
VERTEX
  8
241
  5
49F4
 10
102.384
 20
-19.9048
 30
0.000000
  70
    32
  0
VERTEX
  8
241
  5
49F5
 10
102.317
 20
-19.9201
 30
0.000000
  70
    32
  0
VERTEX
  8
241
  5
49F6
 10
102.251
 20
-19.9363
 30
0.000000
  70
    32
  0
VERTEX
  8
241
  5
49F7
 10
102.186
 20
-19.9532
 30
0.000000
  70
    32
  0
VERTEX
  8
241
  5
49F8
 10
102.121
 20
-19.9710
 30
0.000000
  70
    32
  0
VERTEX
  8
241
  5
49F9
 10
102.058
 20
-19.9895
 30
0.000000
  70
    32
  0
VERTEX
  8
241
  5
49FA
 10
101.995
 20
-20.0088
 30
0.000000
  70
    32
  0
VERTEX
  8
241
  5
49FB
 10
101.933
 20
-20.0289
 30
0.000000
  70
    32
  0
VERTEX
  8
241
  5
49FC
 10
101.873
 20
-20.0497
 30
0.000000
  70
    32
  0
VERTEX
  8
241
  5
49FD
 10
101.813
 20
-20.0713
 30
0.000000
  70
    32
  0
VERTEX
  8
241
  5
49FE
 10
101.754
 20
-20.0936
 30
0.000000
  70
    32
  0
VERTEX
  8
241
  5
49FF
 10
101.697
 20
-20.1166
 30
0.000000
  70
    32
  0
VERTEX
  8
241
  5
4A00
 10
101.640
 20
-20.1403
 30
0.000000
  70
    32
  0
VERTEX
  8
241
  5
4A01
 10
101.585
 20
-20.1647
 30
0.000000
  70
    32
  0
VERTEX
  8
241
  5
4A02
 10
101.531
 20
-20.1897
 30
0.000000
  70
    32
  0
VERTEX
  8
241
  5
4A03
 10
101.479
 20
-20.2154
 30
0.000000
  70
    32
  0
VERTEX
  8
241
  5
4A04
 10
101.427
 20
-20.2418
 30
0.000000
  70
    32
  0
VERTEX
  8
241
  5
4A05
 10
101.377
 20
-20.2687
 30
0.000000
  70
    32
  0
VERTEX
  8
241
  5
4A06
 10
101.328
 20
-20.2963
 30
0.000000
  70
    32
  0
VERTEX
  8
241
  5
4A07
 10
101.281
 20
-20.3245
 30
0.000000
  70
    32
  0
VERTEX
  8
241
  5
4A08
 10
101.235
 20
-20.3532
 30
0.000000
  70
    32
  0
VERTEX
  8
241
  5
4A09
 10
101.190
 20
-20.3825
 30
0.000000
  70
    32
  0
VERTEX
  8
241
  5
4A0A
 10
101.147
 20
-20.4124
 30
0.000000
  70
    32
  0
VERTEX
  8
241
  5
4A0B
 10
101.106
 20
-20.4427
 30
0.000000
  70
    32
  0
VERTEX
  8
241
  5
4A0C
 10
101.065
 20
-20.4736
 30
0.000000
  70
    32
  0
VERTEX
  8
241
  5
4A0D
 10
101.027
 20
-20.5049
 30
0.000000
  70
    32
  0
VERTEX
  8
241
  5
4A0E
 10
100.990
 20
-20.5367
 30
0.000000
  70
    32
  0
VERTEX
  8
241
  5
4A0F
 10
100.954
 20
-20.5690
 30
0.000000
  70
    32
  0
VERTEX
  8
241
  5
4A10
 10
100.920
 20
-20.6017
 30
0.000000
  70
    32
  0
VERTEX
  8
241
  5
4A11
 10
100.888
 20
-20.6348
 30
0.000000
  70
    32
  0
VERTEX
  8
241
  5
4A12
 10
100.857
 20
-20.6682
 30
0.000000
  70
    32
  0
VERTEX
  8
241
  5
4A13
 10
100.828
 20
-20.7021
 30
0.000000
  70
    32
  0
VERTEX
  8
241
  5
4A14
 10
100.801
 20
-20.7362
 30
0.000000
  70
    32
  0
VERTEX
  8
241
  5
4A15
 10
100.775
 20
-20.7708
 30
0.000000
  70
    32
  0
VERTEX
  8
241
  5
4A16
 10
100.751
 20
-20.8056
 30
0.000000
  70
    32
  0
VERTEX
  8
241
  5
4A17
 10
100.729
 20
-20.8407
 30
0.000000
  70
    32
  0
VERTEX
  8
241
  5
4A18
 10
100.709
 20
-20.8760
 30
0.000000
  70
    32
  0
VERTEX
  8
241
  5
4A19
 10
100.690
 20
-20.9116
 30
0.000000
  70
    32
  0
VERTEX
  8
241
  5
4A1A
 10
100.673
 20
-20.9474
 30
0.000000
  70
    32
  0
VERTEX
  8
241
  5
4A1B
 10
100.658
 20
-20.9835
 30
0.000000
  70
    32
  0
VERTEX
  8
241
  5
4A1C
 10
100.644
 20
-21.0196
 30
0.000000
  70
    32
  0
VERTEX
  8
241
  5
4A1D
 10
100.632
 20
-21.0560
 30
0.000000
  70
    32
  0
VERTEX
  8
241
  5
4A1E
 10
100.623
 20
-21.0925
 30
0.000000
  70
    32
  0
VERTEX
  8
241
  5
4A1F
 10
100.614
 20
-21.1291
 30
0.000000
  70
    32
  0
VERTEX
  8
241
  5
4A20
 10
100.608
 20
-21.1657
 30
0.000000
  70
    32
  0
VERTEX
  8
241
  5
4A21
 10
100.604
 20
-21.2025
 30
0.000000
  70
    32
  0
VERTEX
  8
241
  5
4A22
 10
100.601
 20
-21.2393
 30
0.000000
  70
    32
  0
VERTEX
  8
241
  5
4A23
 10
100.600
 20
-21.2761
 30
0.000000
  70
    32
  0
VERTEX
  8
241
  5
4A24
 10
100.601
 20
-21.3129
 30
0.000000
  70
    32
  0
VERTEX
  8
241
  5
4A25
 10
100.604
 20
-21.3497
 30
0.000000
  70
    32
  0
VERTEX
  8
241
  5
4A26
 10
100.608
 20
-21.3864
 30
0.000000
  70
    32
  0
VERTEX
  8
241
  5
4A27
 10
100.614
 20
-21.4231
 30
0.000000
  70
    32
  0
VERTEX
  8
241
  5
4A28
 10
100.623
 20
-21.4597
 30
0.000000
  70
    32
  0
VERTEX
  8
241
  5
4A29
 10
100.632
 20
-21.4962
 30
0.000000
  70
    32
  0
VERTEX
  8
241
  5
4A2A
 10
100.644
 20
-21.5325
 30
0.000000
  70
    32
  0
VERTEX
  8
241
  5
4A2B
 10
100.658
 20
-21.5687
 30
0.000000
  70
    32
  0
VERTEX
  8
241
  5
4A2C
 10
100.673
 20
-21.6047
 30
0.000000
  70
    32
  0
VERTEX
  8
241
  5
4A2D
 10
100.690
 20
-21.6406
 30
0.000000
  70
    32
  0
VERTEX
  8
241
  5
4A2E
 10
100.709
 20
-21.6762
 30
0.000000
  70
    32
  0
VERTEX
  8
241
  5
4A2F
 10
100.729
 20
-21.7115
 30
0.000000
  70
    32
  0
VERTEX
  8
241
  5
4A30
 10
100.751
 20
-21.7466
 30
0.000000
  70
    32
  0
VERTEX
  8
241
  5
4A31
 10
100.775
 20
-21.7814
 30
0.000000
  70
    32
  0
VERTEX
  8
241
  5
4A32
 10
100.801
 20
-21.8159
 30
0.000000
  70
    32
  0
VERTEX
  8
241
  5
4A33
 10
100.828
 20
-21.8501
 30
0.000000
  70
    32
  0
VERTEX
  8
241
  5
4A34
 10
100.857
 20
-21.8839
 30
0.000000
  70
    32
  0
VERTEX
  8
241
  5
4A35
 10
100.888
 20
-21.9174
 30
0.000000
  70
    32
  0
VERTEX
  8
241
  5
4A36
 10
100.920
 20
-21.9505
 30
0.000000
  70
    32
  0
VERTEX
  8
241
  5
4A37
 10
100.954
 20
-21.9832
 30
0.000000
  70
    32
  0
VERTEX
  8
241
  5
4A38
 10
100.990
 20
-22.0154
 30
0.000000
  70
    32
  0
VERTEX
  8
241
  5
4A39
 10
101.027
 20
-22.0472
 30
0.000000
  70
    32
  0
VERTEX
  8
241
  5
4A3A
 10
101.065
 20
-22.0786
 30
0.000000
  70
    32
  0
VERTEX
  8
241
  5
4A3B
 10
101.106
 20
-22.1094
 30
0.000000
  70
    32
  0
VERTEX
  8
241
  5
4A3C
 10
101.147
 20
-22.1398
 30
0.000000
  70
    32
  0
VERTEX
  8
241
  5
4A3D
 10
101.190
 20
-22.1696
 30
0.000000
  70
    32
  0
VERTEX
  8
241
  5
4A3E
 10
101.235
 20
-22.1989
 30
0.000000
  70
    32
  0
VERTEX
  8
241
  5
4A3F
 10
101.281
 20
-22.2277
 30
0.000000
  70
    32
  0
VERTEX
  8
241
  5
4A40
 10
101.328
 20
-22.2558
 30
0.000000
  70
    32
  0
VERTEX
  8
241
  5
4A41
 10
101.377
 20
-22.2834
 30
0.000000
  70
    32
  0
VERTEX
  8
241
  5
4A42
 10
101.427
 20
-22.3104
 30
0.000000
  70
    32
  0
VERTEX
  8
241
  5
4A43
 10
101.479
 20
-22.3367
 30
0.000000
  70
    32
  0
VERTEX
  8
241
  5
4A44
 10
101.531
 20
-22.3625
 30
0.000000
  70
    32
  0
VERTEX
  8
241
  5
4A45
 10
101.585
 20
-22.3875
 30
0.000000
  70
    32
  0
VERTEX
  8
241
  5
4A46
 10
101.640
 20
-22.4119
 30
0.000000
  70
    32
  0
VERTEX
  8
241
  5
4A47
 10
101.697
 20
-22.4356
 30
0.000000
  70
    32
  0
VERTEX
  8
241
  5
4A48
 10
101.754
 20
-22.4586
 30
0.000000
  70
    32
  0
VERTEX
  8
241
  5
4A49
 10
101.813
 20
-22.4809
 30
0.000000
  70
    32
  0
VERTEX
  8
241
  5
4A4A
 10
101.873
 20
-22.5025
 30
0.000000
  70
    32
  0
VERTEX
  8
241
  5
4A4B
 10
101.933
 20
-22.5233
 30
0.000000
  70
    32
  0
VERTEX
  8
241
  5
4A4C
 10
101.995
 20
-22.5434
 30
0.000000
  70
    32
  0
VERTEX
  8
241
  5
4A4D
 10
102.058
 20
-22.5627
 30
0.000000
  70
    32
  0
VERTEX
  8
241
  5
4A4E
 10
102.121
 20
-22.5812
 30
0.000000
  70
    32
  0
VERTEX
  8
241
  5
4A4F
 10
102.186
 20
-22.5990
 30
0.000000
  70
    32
  0
VERTEX
  8
241
  5
4A50
 10
102.251
 20
-22.6159
 30
0.000000
  70
    32
  0
VERTEX
  8
241
  5
4A51
 10
102.317
 20
-22.6321
 30
0.000000
  70
    32
  0
VERTEX
  8
241
  5
4A52
 10
102.384
 20
-22.6474
 30
0.000000
  70
    32
  0
VERTEX
  8
241
  5
4A53
 10
102.452
 20
-22.6619
 30
0.000000
  70
    32
  0
VERTEX
  8
241
  5
4A54
 10
102.520
 20
-22.6756
 30
0.000000
  70
    32
  0
VERTEX
  8
241
  5
4A55
 10
102.589
 20
-22.6884
 30
0.000000
  70
    32
  0
VERTEX
  8
241
  5
4A56
 10
102.659
 20
-22.7004
 30
0.000000
  70
    32
  0
VERTEX
  8
241
  5
4A57
 10
102.729
 20
-22.7115
 30
0.000000
  70
    32
  0
VERTEX
  8
241
  5
4A58
 10
102.800
 20
-22.7218
 30
0.000000
  70
    32
  0
VERTEX
  8
241
  5
4A59
 10
102.871
 20
-22.7311
 30
0.000000
  70
    32
  0
VERTEX
  8
241
  5
4A5A
 10
102.943
 20
-22.7396
 30
0.000000
  70
    32
  0
VERTEX
  8
241
  5
4A5B
 10
103.015
 20
-22.7473
 30
0.000000
  70
    32
  0
VERTEX
  8
241
  5
4A5C
 10
103.087
 20
-22.7540
 30
0.000000
  70
    32
  0
VERTEX
  8
241
  5
4A5D
 10
103.160
 20
-22.7599
 30
0.000000
  70
    32
  0
VERTEX
  8
241
  5
4A5E
 10
103.233
 20
-22.7648
 30
0.000000
  70
    32
  0
VERTEX
  8
241
  5
4A5F
 10
103.306
 20
-22.7689
 30
0.000000
  70
    32
  0
VERTEX
  8
241
  5
4A60
 10
103.379
 20
-22.7720
 30
0.000000
  70
    32
  0
VERTEX
  8
241
  5
4A61
 10
103.453
 20
-22.7743
 30
0.000000
  70
    32
  0
VERTEX
  8
241
  5
4A62
 10
103.526
 20
-22.7756
 30
0.000000
  70
    32
  0
VERTEX
  8
241
  5
4A63
 10
103.600
 20
-22.7761
 30
0.000000
  70
    32
  0
SEQEND
  8
241
  5
4A64
  0
POLYLINE
  5
4493
  8
241
 10
108.56602540379021
 20
-22.776086928757021
 30
0.0
 66
     1
 70
     8
  0
VERTEX
  8
241
  5
4A65
 10
108.566
 20
-22.7761
 30
0.000000
  70
    32
  0
VERTEX
  8
241
  5
4A66
 10
108.640
 20
-22.7756
 30
0.000000
  70
    32
  0
VERTEX
  8
241
  5
4A67
 10
108.715
 20
-22.7743
 30
0.000000
  70
    32
  0
VERTEX
  8
241
  5
4A68
 10
108.789
 20
-22.7720
 30
0.000000
  70
    32
  0
VERTEX
  8
241
  5
4A69
 10
108.863
 20
-22.7689
 30
0.000000
  70
    32
  0
VERTEX
  8
241
  5
4A6A
 10
108.937
 20
-22.7648
 30
0.000000
  70
    32
  0
VERTEX
  8
241
  5
4A6B
 10
109.011
 20
-22.7599
 30
0.000000
  70
    32
  0
VERTEX
  8
241
  5
4A6C
 10
109.085
 20
-22.7540
 30
0.000000
  70
    32
  0
VERTEX
  8
241
  5
4A6D
 10
109.158
 20
-22.7473
 30
0.000000
  70
    32
  0
VERTEX
  8
241
  5
4A6E
 10
109.231
 20
-22.7396
 30
0.000000
  70
    32
  0
VERTEX
  8
241
  5
4A6F
 10
109.303
 20
-22.7311
 30
0.000000
  70
    32
  0
VERTEX
  8
241
  5
4A70
 10
109.375
 20
-22.7218
 30
0.000000
  70
    32
  0
VERTEX
  8
241
  5
4A71
 10
109.447
 20
-22.7115
 30
0.000000
  70
    32
  0
VERTEX
  8
241
  5
4A72
 10
109.518
 20
-22.7004
 30
0.000000
  70
    32
  0
VERTEX
  8
241
  5
4A73
 10
109.588
 20
-22.6884
 30
0.000000
  70
    32
  0
VERTEX
  8
241
  5
4A74
 10
109.658
 20
-22.6756
 30
0.000000
  70
    32
  0
VERTEX
  8
241
  5
4A75
 10
109.727
 20
-22.6619
 30
0.000000
  70
    32
  0
VERTEX
  8
241
  5
4A76
 10
109.796
 20
-22.6474
 30
0.000000
  70
    32
  0
VERTEX
  8
241
  5
4A77
 10
109.863
 20
-22.6321
 30
0.000000
  70
    32
  0
VERTEX
  8
241
  5
4A78
 10
109.930
 20
-22.6159
 30
0.000000
  70
    32
  0
VERTEX
  8
241
  5
4A79
 10
109.996
 20
-22.5990
 30
0.000000
  70
    32
  0
VERTEX
  8
241
  5
4A7A
 10
110.061
 20
-22.5812
 30
0.000000
  70
    32
  0
VERTEX
  8
241
  5
4A7B
 10
110.126
 20
-22.5627
 30
0.000000
  70
    32
  0
VERTEX
  8
241
  5
4A7C
 10
110.189
 20
-22.5434
 30
0.000000
  70
    32
  0
VERTEX
  8
241
  5
4A7D
 10
110.252
 20
-22.5233
 30
0.000000
  70
    32
  0
VERTEX
  8
241
  5
4A7E
 10
110.313
 20
-22.5025
 30
0.000000
  70
    32
  0
VERTEX
  8
241
  5
4A7F
 10
110.373
 20
-22.4809
 30
0.000000
  70
    32
  0
VERTEX
  8
241
  5
4A80
 10
110.433
 20
-22.4586
 30
0.000000
  70
    32
  0
VERTEX
  8
241
  5
4A81
 10
110.491
 20
-22.4356
 30
0.000000
  70
    32
  0
VERTEX
  8
241
  5
4A82
 10
110.548
 20
-22.4119
 30
0.000000
  70
    32
  0
VERTEX
  8
241
  5
4A83
 10
110.604
 20
-22.3875
 30
0.000000
  70
    32
  0
VERTEX
  8
241
  5
4A84
 10
110.658
 20
-22.3625
 30
0.000000
  70
    32
  0
VERTEX
  8
241
  5
4A85
 10
110.711
 20
-22.3367
 30
0.000000
  70
    32
  0
VERTEX
  8
241
  5
4A86
 10
110.763
 20
-22.3104
 30
0.000000
  70
    32
  0
VERTEX
  8
241
  5
4A87
 10
110.814
 20
-22.2834
 30
0.000000
  70
    32
  0
VERTEX
  8
241
  5
4A88
 10
110.863
 20
-22.2558
 30
0.000000
  70
    32
  0
VERTEX
  8
241
  5
4A89
 10
110.911
 20
-22.2277
 30
0.000000
  70
    32
  0
VERTEX
  8
241
  5
4A8A
 10
110.958
 20
-22.1989
 30
0.000000
  70
    32
  0
VERTEX
  8
241
  5
4A8B
 10
111.003
 20
-22.1696
 30
0.000000
  70
    32
  0
VERTEX
  8
241
  5
4A8C
 10
111.047
 20
-22.1398
 30
0.000000
  70
    32
  0
VERTEX
  8
241
  5
4A8D
 10
111.089
 20
-22.1094
 30
0.000000
  70
    32
  0
VERTEX
  8
241
  5
4A8E
 10
111.129
 20
-22.0786
 30
0.000000
  70
    32
  0
VERTEX
  8
241
  5
4A8F
 10
111.168
 20
-22.0472
 30
0.000000
  70
    32
  0
VERTEX
  8
241
  5
4A90
 10
111.206
 20
-22.0154
 30
0.000000
  70
    32
  0
VERTEX
  8
241
  5
4A91
 10
111.242
 20
-21.9832
 30
0.000000
  70
    32
  0
VERTEX
  8
241
  5
4A92
 10
111.276
 20
-21.9505
 30
0.000000
  70
    32
  0
VERTEX
  8
241
  5
4A93
 10
111.309
 20
-21.9174
 30
0.000000
  70
    32
  0
VERTEX
  8
241
  5
4A94
 10
111.340
 20
-21.8839
 30
0.000000
  70
    32
  0
VERTEX
  8
241
  5
4A95
 10
111.369
 20
-21.8501
 30
0.000000
  70
    32
  0
VERTEX
  8
241
  5
4A96
 10
111.397
 20
-21.8159
 30
0.000000
  70
    32
  0
VERTEX
  8
241
  5
4A97
 10
111.423
 20
-21.7814
 30
0.000000
  70
    32
  0
VERTEX
  8
241
  5
4A98
 10
111.447
 20
-21.7466
 30
0.000000
  70
    32
  0
VERTEX
  8
241
  5
4A99
 10
111.469
 20
-21.7115
 30
0.000000
  70
    32
  0
VERTEX
  8
241
  5
4A9A
 10
111.490
 20
-21.6762
 30
0.000000
  70
    32
  0
VERTEX
  8
241
  5
4A9B
 10
111.509
 20
-21.6406
 30
0.000000
  70
    32
  0
VERTEX
  8
241
  5
4A9C
 10
111.526
 20
-21.6047
 30
0.000000
  70
    32
  0
VERTEX
  8
241
  5
4A9D
 10
111.542
 20
-21.5687
 30
0.000000
  70
    32
  0
VERTEX
  8
241
  5
4A9E
 10
111.555
 20
-21.5325
 30
0.000000
  70
    32
  0
VERTEX
  8
241
  5
4A9F
 10
111.567
 20
-21.4962
 30
0.000000
  70
    32
  0
VERTEX
  8
241
  5
4AA0
 10
111.577
 20
-21.4597
 30
0.000000
  70
    32
  0
VERTEX
  8
241
  5
4AA1
 10
111.585
 20
-21.4231
 30
0.000000
  70
    32
  0
VERTEX
  8
241
  5
4AA2
 10
111.592
 20
-21.3864
 30
0.000000
  70
    32
  0
VERTEX
  8
241
  5
4AA3
 10
111.596
 20
-21.3497
 30
0.000000
  70
    32
  0
VERTEX
  8
241
  5
4AA4
 10
111.599
 20
-21.3129
 30
0.000000
  70
    32
  0
VERTEX
  8
241
  5
4AA5
 10
111.600
 20
-21.2761
 30
0.000000
  70
    32
  0
VERTEX
  8
241
  5
4AA6
 10
111.599
 20
-21.2393
 30
0.000000
  70
    32
  0
VERTEX
  8
241
  5
4AA7
 10
111.596
 20
-21.2025
 30
0.000000
  70
    32
  0
VERTEX
  8
241
  5
4AA8
 10
111.592
 20
-21.1657
 30
0.000000
  70
    32
  0
VERTEX
  8
241
  5
4AA9
 10
111.585
 20
-21.1291
 30
0.000000
  70
    32
  0
VERTEX
  8
241
  5
4AAA
 10
111.577
 20
-21.0925
 30
0.000000
  70
    32
  0
VERTEX
  8
241
  5
4AAB
 10
111.567
 20
-21.0560
 30
0.000000
  70
    32
  0
VERTEX
  8
241
  5
4AAC
 10
111.555
 20
-21.0196
 30
0.000000
  70
    32
  0
VERTEX
  8
241
  5
4AAD
 10
111.542
 20
-20.9835
 30
0.000000
  70
    32
  0
VERTEX
  8
241
  5
4AAE
 10
111.526
 20
-20.9474
 30
0.000000
  70
    32
  0
VERTEX
  8
241
  5
4AAF
 10
111.509
 20
-20.9116
 30
0.000000
  70
    32
  0
VERTEX
  8
241
  5
4AB0
 10
111.490
 20
-20.8760
 30
0.000000
  70
    32
  0
VERTEX
  8
241
  5
4AB1
 10
111.469
 20
-20.8407
 30
0.000000
  70
    32
  0
VERTEX
  8
241
  5
4AB2
 10
111.447
 20
-20.8056
 30
0.000000
  70
    32
  0
VERTEX
  8
241
  5
4AB3
 10
111.423
 20
-20.7708
 30
0.000000
  70
    32
  0
VERTEX
  8
241
  5
4AB4
 10
111.397
 20
-20.7362
 30
0.000000
  70
    32
  0
VERTEX
  8
241
  5
4AB5
 10
111.369
 20
-20.7021
 30
0.000000
  70
    32
  0
VERTEX
  8
241
  5
4AB6
 10
111.340
 20
-20.6682
 30
0.000000
  70
    32
  0
VERTEX
  8
241
  5
4AB7
 10
111.309
 20
-20.6348
 30
0.000000
  70
    32
  0
VERTEX
  8
241
  5
4AB8
 10
111.276
 20
-20.6017
 30
0.000000
  70
    32
  0
VERTEX
  8
241
  5
4AB9
 10
111.242
 20
-20.5690
 30
0.000000
  70
    32
  0
VERTEX
  8
241
  5
4ABA
 10
111.206
 20
-20.5367
 30
0.000000
  70
    32
  0
VERTEX
  8
241
  5
4ABB
 10
111.168
 20
-20.5049
 30
0.000000
  70
    32
  0
VERTEX
  8
241
  5
4ABC
 10
111.129
 20
-20.4736
 30
0.000000
  70
    32
  0
VERTEX
  8
241
  5
4ABD
 10
111.089
 20
-20.4427
 30
0.000000
  70
    32
  0
VERTEX
  8
241
  5
4ABE
 10
111.047
 20
-20.4124
 30
0.000000
  70
    32
  0
VERTEX
  8
241
  5
4ABF
 10
111.003
 20
-20.3825
 30
0.000000
  70
    32
  0
VERTEX
  8
241
  5
4AC0
 10
110.958
 20
-20.3532
 30
0.000000
  70
    32
  0
VERTEX
  8
241
  5
4AC1
 10
110.911
 20
-20.3245
 30
0.000000
  70
    32
  0
VERTEX
  8
241
  5
4AC2
 10
110.863
 20
-20.2963
 30
0.000000
  70
    32
  0
VERTEX
  8
241
  5
4AC3
 10
110.814
 20
-20.2687
 30
0.000000
  70
    32
  0
VERTEX
  8
241
  5
4AC4
 10
110.763
 20
-20.2418
 30
0.000000
  70
    32
  0
VERTEX
  8
241
  5
4AC5
 10
110.711
 20
-20.2154
 30
0.000000
  70
    32
  0
VERTEX
  8
241
  5
4AC6
 10
110.658
 20
-20.1897
 30
0.000000
  70
    32
  0
VERTEX
  8
241
  5
4AC7
 10
110.604
 20
-20.1647
 30
0.000000
  70
    32
  0
VERTEX
  8
241
  5
4AC8
 10
110.548
 20
-20.1403
 30
0.000000
  70
    32
  0
VERTEX
  8
241
  5
4AC9
 10
110.491
 20
-20.1166
 30
0.000000
  70
    32
  0
VERTEX
  8
241
  5
4ACA
 10
110.433
 20
-20.0936
 30
0.000000
  70
    32
  0
VERTEX
  8
241
  5
4ACB
 10
110.373
 20
-20.0713
 30
0.000000
  70
    32
  0
VERTEX
  8
241
  5
4ACC
 10
110.313
 20
-20.0497
 30
0.000000
  70
    32
  0
VERTEX
  8
241
  5
4ACD
 10
110.252
 20
-20.0289
 30
0.000000
  70
    32
  0
VERTEX
  8
241
  5
4ACE
 10
110.189
 20
-20.0088
 30
0.000000
  70
    32
  0
VERTEX
  8
241
  5
4ACF
 10
110.126
 20
-19.9895
 30
0.000000
  70
    32
  0
VERTEX
  8
241
  5
4AD0
 10
110.061
 20
-19.9710
 30
0.000000
  70
    32
  0
VERTEX
  8
241
  5
4AD1
 10
109.996
 20
-19.9532
 30
0.000000
  70
    32
  0
VERTEX
  8
241
  5
4AD2
 10
109.930
 20
-19.9363
 30
0.000000
  70
    32
  0
VERTEX
  8
241
  5
4AD3
 10
109.863
 20
-19.9201
 30
0.000000
  70
    32
  0
VERTEX
  8
241
  5
4AD4
 10
109.796
 20
-19.9048
 30
0.000000
  70
    32
  0
VERTEX
  8
241
  5
4AD5
 10
109.727
 20
-19.8903
 30
0.000000
  70
    32
  0
VERTEX
  8
241
  5
4AD6
 10
109.658
 20
-19.8766
 30
0.000000
  70
    32
  0
VERTEX
  8
241
  5
4AD7
 10
109.588
 20
-19.8638
 30
0.000000
  70
    32
  0
VERTEX
  8
241
  5
4AD8
 10
109.518
 20
-19.8518
 30
0.000000
  70
    32
  0
VERTEX
  8
241
  5
4AD9
 10
109.447
 20
-19.8407
 30
0.000000
  70
    32
  0
VERTEX
  8
241
  5
4ADA
 10
109.375
 20
-19.8304
 30
0.000000
  70
    32
  0
VERTEX
  8
241
  5
4ADB
 10
109.303
 20
-19.8210
 30
0.000000
  70
    32
  0
VERTEX
  8
241
  5
4ADC
 10
109.231
 20
-19.8125
 30
0.000000
  70
    32
  0
VERTEX
  8
241
  5
4ADD
 10
109.158
 20
-19.8049
 30
0.000000
  70
    32
  0
VERTEX
  8
241
  5
4ADE
 10
109.085
 20
-19.7982
 30
0.000000
  70
    32
  0
VERTEX
  8
241
  5
4ADF
 10
109.011
 20
-19.7923
 30
0.000000
  70
    32
  0
VERTEX
  8
241
  5
4AE0
 10
108.937
 20
-19.7874
 30
0.000000
  70
    32
  0
VERTEX
  8
241
  5
4AE1
 10
108.863
 20
-19.7833
 30
0.000000
  70
    32
  0
VERTEX
  8
241
  5
4AE2
 10
108.789
 20
-19.7802
 30
0.000000
  70
    32
  0
VERTEX
  8
241
  5
4AE3
 10
108.715
 20
-19.7779
 30
0.000000
  70
    32
  0
VERTEX
  8
241
  5
4AE4
 10
108.640
 20
-19.7765
 30
0.000000
  70
    32
  0
VERTEX
  8
241
  5
4AE5
 10
108.566
 20
-19.7761
 30
0.000000
  70
    32
  0
SEQEND
  8
241
  5
4AE6
  0
LINE
  5
4494
  8
241
 10
103.600000000001
 20
-20.769065234204358
 30
0.0
 11
108.56602540379021
 21
-20.769065234204358
 31
0.0
  0
POLYLINE
  5
4495
  8
241
 10
101.37023231757436
 20
-20.272576081480778
 30
0.0
 66
     1
 70
     8
  0
VERTEX
  8
241
  5
4AE7
 10
101.370
 20
-20.2726
 30
0.000000
  70
    32
  0
VERTEX
  8
241
  5
4AE8
 10
101.383
 20
-20.2799
 30
0.000000
  70
    32
  0
VERTEX
  8
241
  5
4AE9
 10
101.397
 20
-20.2871
 30
0.000000
  70
    32
  0
VERTEX
  8
241
  5
4AEA
 10
101.410
 20
-20.2943
 30
0.000000
  70
    32
  0
VERTEX
  8
241
  5
4AEB
 10
101.424
 20
-20.3014
 30
0.000000
  70
    32
  0
VERTEX
  8
241
  5
4AEC
 10
101.437
 20
-20.3085
 30
0.000000
  70
    32
  0
VERTEX
  8
241
  5
4AED
 10
101.451
 20
-20.3156
 30
0.000000
  70
    32
  0
VERTEX
  8
241
  5
4AEE
 10
101.465
 20
-20.3226
 30
0.000000
  70
    32
  0
VERTEX
  8
241
  5
4AEF
 10
101.478
 20
-20.3296
 30
0.000000
  70
    32
  0
VERTEX
  8
241
  5
4AF0
 10
101.492
 20
-20.3365
 30
0.000000
  70
    32
  0
VERTEX
  8
241
  5
4AF1
 10
101.506
 20
-20.3434
 30
0.000000
  70
    32
  0
VERTEX
  8
241
  5
4AF2
 10
101.520
 20
-20.3502
 30
0.000000
  70
    32
  0
VERTEX
  8
241
  5
4AF3
 10
101.535
 20
-20.3570
 30
0.000000
  70
    32
  0
VERTEX
  8
241
  5
4AF4
 10
101.549
 20
-20.3637
 30
0.000000
  70
    32
  0
VERTEX
  8
241
  5
4AF5
 10
101.563
 20
-20.3704
 30
0.000000
  70
    32
  0
VERTEX
  8
241
  5
4AF6
 10
101.578
 20
-20.3770
 30
0.000000
  70
    32
  0
VERTEX
  8
241
  5
4AF7
 10
101.592
 20
-20.3836
 30
0.000000
  70
    32
  0
VERTEX
  8
241
  5
4AF8
 10
101.607
 20
-20.3902
 30
0.000000
  70
    32
  0
VERTEX
  8
241
  5
4AF9
 10
101.622
 20
-20.3967
 30
0.000000
  70
    32
  0
VERTEX
  8
241
  5
4AFA
 10
101.636
 20
-20.4031
 30
0.000000
  70
    32
  0
VERTEX
  8
241
  5
4AFB
 10
101.651
 20
-20.4095
 30
0.000000
  70
    32
  0
VERTEX
  8
241
  5
4AFC
 10
101.666
 20
-20.4159
 30
0.000000
  70
    32
  0
VERTEX
  8
241
  5
4AFD
 10
101.681
 20
-20.4222
 30
0.000000
  70
    32
  0
VERTEX
  8
241
  5
4AFE
 10
101.697
 20
-20.4285
 30
0.000000
  70
    32
  0
VERTEX
  8
241
  5
4AFF
 10
101.712
 20
-20.4347
 30
0.000000
  70
    32
  0
VERTEX
  8
241
  5
4B00
 10
101.727
 20
-20.4408
 30
0.000000
  70
    32
  0
VERTEX
  8
241
  5
4B01
 10
101.742
 20
-20.4469
 30
0.000000
  70
    32
  0
VERTEX
  8
241
  5
4B02
 10
101.758
 20
-20.4530
 30
0.000000
  70
    32
  0
VERTEX
  8
241
  5
4B03
 10
101.773
 20
-20.4590
 30
0.000000
  70
    32
  0
VERTEX
  8
241
  5
4B04
 10
101.789
 20
-20.4649
 30
0.000000
  70
    32
  0
VERTEX
  8
241
  5
4B05
 10
101.805
 20
-20.4708
 30
0.000000
  70
    32
  0
VERTEX
  8
241
  5
4B06
 10
101.820
 20
-20.4767
 30
0.000000
  70
    32
  0
VERTEX
  8
241
  5
4B07
 10
101.836
 20
-20.4825
 30
0.000000
  70
    32
  0
VERTEX
  8
241
  5
4B08
 10
101.852
 20
-20.4882
 30
0.000000
  70
    32
  0
VERTEX
  8
241
  5
4B09
 10
101.868
 20
-20.4939
 30
0.000000
  70
    32
  0
VERTEX
  8
241
  5
4B0A
 10
101.884
 20
-20.4996
 30
0.000000
  70
    32
  0
VERTEX
  8
241
  5
4B0B
 10
101.900
 20
-20.5052
 30
0.000000
  70
    32
  0
VERTEX
  8
241
  5
4B0C
 10
101.917
 20
-20.5107
 30
0.000000
  70
    32
  0
VERTEX
  8
241
  5
4B0D
 10
101.933
 20
-20.5162
 30
0.000000
  70
    32
  0
VERTEX
  8
241
  5
4B0E
 10
101.949
 20
-20.5216
 30
0.000000
  70
    32
  0
VERTEX
  8
241
  5
4B0F
 10
101.966
 20
-20.5270
 30
0.000000
  70
    32
  0
VERTEX
  8
241
  5
4B10
 10
101.982
 20
-20.5323
 30
0.000000
  70
    32
  0
VERTEX
  8
241
  5
4B11
 10
101.999
 20
-20.5376
 30
0.000000
  70
    32
  0
VERTEX
  8
241
  5
4B12
 10
102.016
 20
-20.5428
 30
0.000000
  70
    32
  0
VERTEX
  8
241
  5
4B13
 10
102.032
 20
-20.5479
 30
0.000000
  70
    32
  0
VERTEX
  8
241
  5
4B14
 10
102.049
 20
-20.5530
 30
0.000000
  70
    32
  0
VERTEX
  8
241
  5
4B15
 10
102.066
 20
-20.5581
 30
0.000000
  70
    32
  0
VERTEX
  8
241
  5
4B16
 10
102.083
 20
-20.5631
 30
0.000000
  70
    32
  0
VERTEX
  8
241
  5
4B17
 10
102.100
 20
-20.5680
 30
0.000000
  70
    32
  0
VERTEX
  8
241
  5
4B18
 10
102.117
 20
-20.5729
 30
0.000000
  70
    32
  0
VERTEX
  8
241
  5
4B19
 10
102.134
 20
-20.5777
 30
0.000000
  70
    32
  0
VERTEX
  8
241
  5
4B1A
 10
102.151
 20
-20.5825
 30
0.000000
  70
    32
  0
VERTEX
  8
241
  5
4B1B
 10
102.168
 20
-20.5872
 30
0.000000
  70
    32
  0
VERTEX
  8
241
  5
4B1C
 10
102.186
 20
-20.5919
 30
0.000000
  70
    32
  0
VERTEX
  8
241
  5
4B1D
 10
102.203
 20
-20.5965
 30
0.000000
  70
    32
  0
VERTEX
  8
241
  5
4B1E
 10
102.220
 20
-20.6010
 30
0.000000
  70
    32
  0
VERTEX
  8
241
  5
4B1F
 10
102.238
 20
-20.6055
 30
0.000000
  70
    32
  0
VERTEX
  8
241
  5
4B20
 10
102.255
 20
-20.6099
 30
0.000000
  70
    32
  0
VERTEX
  8
241
  5
4B21
 10
102.273
 20
-20.6143
 30
0.000000
  70
    32
  0
VERTEX
  8
241
  5
4B22
 10
102.291
 20
-20.6186
 30
0.000000
  70
    32
  0
VERTEX
  8
241
  5
4B23
 10
102.308
 20
-20.6229
 30
0.000000
  70
    32
  0
VERTEX
  8
241
  5
4B24
 10
102.326
 20
-20.6271
 30
0.000000
  70
    32
  0
VERTEX
  8
241
  5
4B25
 10
102.344
 20
-20.6312
 30
0.000000
  70
    32
  0
VERTEX
  8
241
  5
4B26
 10
102.362
 20
-20.6353
 30
0.000000
  70
    32
  0
VERTEX
  8
241
  5
4B27
 10
102.380
 20
-20.6393
 30
0.000000
  70
    32
  0
VERTEX
  8
241
  5
4B28
 10
102.398
 20
-20.6433
 30
0.000000
  70
    32
  0
VERTEX
  8
241
  5
4B29
 10
102.416
 20
-20.6472
 30
0.000000
  70
    32
  0
VERTEX
  8
241
  5
4B2A
 10
102.434
 20
-20.6511
 30
0.000000
  70
    32
  0
VERTEX
  8
241
  5
4B2B
 10
102.452
 20
-20.6548
 30
0.000000
  70
    32
  0
VERTEX
  8
241
  5
4B2C
 10
102.470
 20
-20.6586
 30
0.000000
  70
    32
  0
VERTEX
  8
241
  5
4B2D
 10
102.488
 20
-20.6622
 30
0.000000
  70
    32
  0
VERTEX
  8
241
  5
4B2E
 10
102.506
 20
-20.6658
 30
0.000000
  70
    32
  0
VERTEX
  8
241
  5
4B2F
 10
102.525
 20
-20.6694
 30
0.000000
  70
    32
  0
VERTEX
  8
241
  5
4B30
 10
102.543
 20
-20.6729
 30
0.000000
  70
    32
  0
VERTEX
  8
241
  5
4B31
 10
102.561
 20
-20.6763
 30
0.000000
  70
    32
  0
VERTEX
  8
241
  5
4B32
 10
102.580
 20
-20.6797
 30
0.000000
  70
    32
  0
VERTEX
  8
241
  5
4B33
 10
102.598
 20
-20.6830
 30
0.000000
  70
    32
  0
VERTEX
  8
241
  5
4B34
 10
102.617
 20
-20.6862
 30
0.000000
  70
    32
  0
VERTEX
  8
241
  5
4B35
 10
102.635
 20
-20.6894
 30
0.000000
  70
    32
  0
VERTEX
  8
241
  5
4B36
 10
102.654
 20
-20.6926
 30
0.000000
  70
    32
  0
VERTEX
  8
241
  5
4B37
 10
102.673
 20
-20.6956
 30
0.000000
  70
    32
  0
VERTEX
  8
241
  5
4B38
 10
102.691
 20
-20.6986
 30
0.000000
  70
    32
  0
VERTEX
  8
241
  5
4B39
 10
102.710
 20
-20.7016
 30
0.000000
  70
    32
  0
VERTEX
  8
241
  5
4B3A
 10
102.729
 20
-20.7045
 30
0.000000
  70
    32
  0
VERTEX
  8
241
  5
4B3B
 10
102.748
 20
-20.7073
 30
0.000000
  70
    32
  0
VERTEX
  8
241
  5
4B3C
 10
102.767
 20
-20.7100
 30
0.000000
  70
    32
  0
VERTEX
  8
241
  5
4B3D
 10
102.786
 20
-20.7127
 30
0.000000
  70
    32
  0
VERTEX
  8
241
  5
4B3E
 10
102.804
 20
-20.7154
 30
0.000000
  70
    32
  0
VERTEX
  8
241
  5
4B3F
 10
102.823
 20
-20.7179
 30
0.000000
  70
    32
  0
VERTEX
  8
241
  5
4B40
 10
102.842
 20
-20.7204
 30
0.000000
  70
    32
  0
VERTEX
  8
241
  5
4B41
 10
102.861
 20
-20.7229
 30
0.000000
  70
    32
  0
VERTEX
  8
241
  5
4B42
 10
102.880
 20
-20.7253
 30
0.000000
  70
    32
  0
VERTEX
  8
241
  5
4B43
 10
102.900
 20
-20.7276
 30
0.000000
  70
    32
  0
VERTEX
  8
241
  5
4B44
 10
102.919
 20
-20.7299
 30
0.000000
  70
    32
  0
VERTEX
  8
241
  5
4B45
 10
102.938
 20
-20.7321
 30
0.000000
  70
    32
  0
VERTEX
  8
241
  5
4B46
 10
102.957
 20
-20.7342
 30
0.000000
  70
    32
  0
VERTEX
  8
241
  5
4B47
 10
102.976
 20
-20.7363
 30
0.000000
  70
    32
  0
VERTEX
  8
241
  5
4B48
 10
102.995
 20
-20.7383
 30
0.000000
  70
    32
  0
VERTEX
  8
241
  5
4B49
 10
103.015
 20
-20.7402
 30
0.000000
  70
    32
  0
VERTEX
  8
241
  5
4B4A
 10
103.034
 20
-20.7421
 30
0.000000
  70
    32
  0
VERTEX
  8
241
  5
4B4B
 10
103.053
 20
-20.7439
 30
0.000000
  70
    32
  0
VERTEX
  8
241
  5
4B4C
 10
103.073
 20
-20.7457
 30
0.000000
  70
    32
  0
VERTEX
  8
241
  5
4B4D
 10
103.092
 20
-20.7474
 30
0.000000
  70
    32
  0
VERTEX
  8
241
  5
4B4E
 10
103.111
 20
-20.7490
 30
0.000000
  70
    32
  0
VERTEX
  8
241
  5
4B4F
 10
103.131
 20
-20.7506
 30
0.000000
  70
    32
  0
VERTEX
  8
241
  5
4B50
 10
103.150
 20
-20.7521
 30
0.000000
  70
    32
  0
VERTEX
  8
241
  5
4B51
 10
103.169
 20
-20.7535
 30
0.000000
  70
    32
  0
VERTEX
  8
241
  5
4B52
 10
103.189
 20
-20.7549
 30
0.000000
  70
    32
  0
VERTEX
  8
241
  5
4B53
 10
103.208
 20
-20.7562
 30
0.000000
  70
    32
  0
VERTEX
  8
241
  5
4B54
 10
103.228
 20
-20.7575
 30
0.000000
  70
    32
  0
VERTEX
  8
241
  5
4B55
 10
103.247
 20
-20.7587
 30
0.000000
  70
    32
  0
VERTEX
  8
241
  5
4B56
 10
103.267
 20
-20.7598
 30
0.000000
  70
    32
  0
VERTEX
  8
241
  5
4B57
 10
103.286
 20
-20.7608
 30
0.000000
  70
    32
  0
VERTEX
  8
241
  5
4B58
 10
103.306
 20
-20.7618
 30
0.000000
  70
    32
  0
VERTEX
  8
241
  5
4B59
 10
103.325
 20
-20.7628
 30
0.000000
  70
    32
  0
VERTEX
  8
241
  5
4B5A
 10
103.345
 20
-20.7636
 30
0.000000
  70
    32
  0
VERTEX
  8
241
  5
4B5B
 10
103.365
 20
-20.7644
 30
0.000000
  70
    32
  0
VERTEX
  8
241
  5
4B5C
 10
103.384
 20
-20.7652
 30
0.000000
  70
    32
  0
VERTEX
  8
241
  5
4B5D
 10
103.404
 20
-20.7659
 30
0.000000
  70
    32
  0
VERTEX
  8
241
  5
4B5E
 10
103.423
 20
-20.7665
 30
0.000000
  70
    32
  0
VERTEX
  8
241
  5
4B5F
 10
103.443
 20
-20.7670
 30
0.000000
  70
    32
  0
VERTEX
  8
241
  5
4B60
 10
103.463
 20
-20.7675
 30
0.000000
  70
    32
  0
VERTEX
  8
241
  5
4B61
 10
103.482
 20
-20.7679
 30
0.000000
  70
    32
  0
VERTEX
  8
241
  5
4B62
 10
103.502
 20
-20.7683
 30
0.000000
  70
    32
  0
VERTEX
  8
241
  5
4B63
 10
103.521
 20
-20.7686
 30
0.000000
  70
    32
  0
VERTEX
  8
241
  5
4B64
 10
103.541
 20
-20.7688
 30
0.000000
  70
    32
  0
VERTEX
  8
241
  5
4B65
 10
103.561
 20
-20.7689
 30
0.000000
  70
    32
  0
VERTEX
  8
241
  5
4B66
 10
103.580
 20
-20.7690
 30
0.000000
  70
    32
  0
VERTEX
  8
241
  5
4B67
 10
103.600
 20
-20.7691
 30
0.000000
  70
    32
  0
SEQEND
  8
241
  5
4B68
  0
POLYLINE
  5
4496
  8
241
 10
108.56602540379021
 20
-20.769065234204358
 30
0.0
 66
     1
 70
     8
  0
VERTEX
  8
241
  5
4B69
 10
108.566
 20
-20.7691
 30
0.000000
  70
    32
  0
VERTEX
  8
241
  5
4B6A
 10
108.586
 20
-20.7690
 30
0.000000
  70
    32
  0
VERTEX
  8
241
  5
4B6B
 10
108.606
 20
-20.7689
 30
0.000000
  70
    32
  0
VERTEX
  8
241
  5
4B6C
 10
108.626
 20
-20.7688
 30
0.000000
  70
    32
  0
VERTEX
  8
241
  5
4B6D
 10
108.645
 20
-20.7686
 30
0.000000
  70
    32
  0
VERTEX
  8
241
  5
4B6E
 10
108.665
 20
-20.7683
 30
0.000000
  70
    32
  0
VERTEX
  8
241
  5
4B6F
 10
108.685
 20
-20.7679
 30
0.000000
  70
    32
  0
VERTEX
  8
241
  5
4B70
 10
108.705
 20
-20.7675
 30
0.000000
  70
    32
  0
VERTEX
  8
241
  5
4B71
 10
108.725
 20
-20.7670
 30
0.000000
  70
    32
  0
VERTEX
  8
241
  5
4B72
 10
108.745
 20
-20.7665
 30
0.000000
  70
    32
  0
VERTEX
  8
241
  5
4B73
 10
108.764
 20
-20.7659
 30
0.000000
  70
    32
  0
VERTEX
  8
241
  5
4B74
 10
108.784
 20
-20.7652
 30
0.000000
  70
    32
  0
VERTEX
  8
241
  5
4B75
 10
108.804
 20
-20.7644
 30
0.000000
  70
    32
  0
VERTEX
  8
241
  5
4B76
 10
108.824
 20
-20.7636
 30
0.000000
  70
    32
  0
VERTEX
  8
241
  5
4B77
 10
108.844
 20
-20.7628
 30
0.000000
  70
    32
  0
VERTEX
  8
241
  5
4B78
 10
108.863
 20
-20.7618
 30
0.000000
  70
    32
  0
VERTEX
  8
241
  5
4B79
 10
108.883
 20
-20.7608
 30
0.000000
  70
    32
  0
VERTEX
  8
241
  5
4B7A
 10
108.903
 20
-20.7598
 30
0.000000
  70
    32
  0
VERTEX
  8
241
  5
4B7B
 10
108.923
 20
-20.7587
 30
0.000000
  70
    32
  0
VERTEX
  8
241
  5
4B7C
 10
108.942
 20
-20.7575
 30
0.000000
  70
    32
  0
VERTEX
  8
241
  5
4B7D
 10
108.962
 20
-20.7562
 30
0.000000
  70
    32
  0
VERTEX
  8
241
  5
4B7E
 10
108.982
 20
-20.7549
 30
0.000000
  70
    32
  0
VERTEX
  8
241
  5
4B7F
 10
109.001
 20
-20.7535
 30
0.000000
  70
    32
  0
VERTEX
  8
241
  5
4B80
 10
109.021
 20
-20.7521
 30
0.000000
  70
    32
  0
VERTEX
  8
241
  5
4B81
 10
109.041
 20
-20.7506
 30
0.000000
  70
    32
  0
VERTEX
  8
241
  5
4B82
 10
109.060
 20
-20.7490
 30
0.000000
  70
    32
  0
VERTEX
  8
241
  5
4B83
 10
109.080
 20
-20.7474
 30
0.000000
  70
    32
  0
VERTEX
  8
241
  5
4B84
 10
109.099
 20
-20.7457
 30
0.000000
  70
    32
  0
VERTEX
  8
241
  5
4B85
 10
109.119
 20
-20.7439
 30
0.000000
  70
    32
  0
VERTEX
  8
241
  5
4B86
 10
109.139
 20
-20.7421
 30
0.000000
  70
    32
  0
VERTEX
  8
241
  5
4B87
 10
109.158
 20
-20.7402
 30
0.000000
  70
    32
  0
VERTEX
  8
241
  5
4B88
 10
109.178
 20
-20.7383
 30
0.000000
  70
    32
  0
VERTEX
  8
241
  5
4B89
 10
109.197
 20
-20.7363
 30
0.000000
  70
    32
  0
VERTEX
  8
241
  5
4B8A
 10
109.216
 20
-20.7342
 30
0.000000
  70
    32
  0
VERTEX
  8
241
  5
4B8B
 10
109.236
 20
-20.7321
 30
0.000000
  70
    32
  0
VERTEX
  8
241
  5
4B8C
 10
109.255
 20
-20.7299
 30
0.000000
  70
    32
  0
VERTEX
  8
241
  5
4B8D
 10
109.274
 20
-20.7276
 30
0.000000
  70
    32
  0
VERTEX
  8
241
  5
4B8E
 10
109.294
 20
-20.7253
 30
0.000000
  70
    32
  0
VERTEX
  8
241
  5
4B8F
 10
109.313
 20
-20.7229
 30
0.000000
  70
    32
  0
VERTEX
  8
241
  5
4B90
 10
109.332
 20
-20.7204
 30
0.000000
  70
    32
  0
VERTEX
  8
241
  5
4B91
 10
109.351
 20
-20.7179
 30
0.000000
  70
    32
  0
VERTEX
  8
241
  5
4B92
 10
109.371
 20
-20.7154
 30
0.000000
  70
    32
  0
VERTEX
  8
241
  5
4B93
 10
109.390
 20
-20.7127
 30
0.000000
  70
    32
  0
VERTEX
  8
241
  5
4B94
 10
109.409
 20
-20.7100
 30
0.000000
  70
    32
  0
VERTEX
  8
241
  5
4B95
 10
109.428
 20
-20.7073
 30
0.000000
  70
    32
  0
VERTEX
  8
241
  5
4B96
 10
109.447
 20
-20.7045
 30
0.000000
  70
    32
  0
VERTEX
  8
241
  5
4B97
 10
109.466
 20
-20.7016
 30
0.000000
  70
    32
  0
VERTEX
  8
241
  5
4B98
 10
109.485
 20
-20.6986
 30
0.000000
  70
    32
  0
VERTEX
  8
241
  5
4B99
 10
109.504
 20
-20.6956
 30
0.000000
  70
    32
  0
VERTEX
  8
241
  5
4B9A
 10
109.523
 20
-20.6926
 30
0.000000
  70
    32
  0
VERTEX
  8
241
  5
4B9B
 10
109.541
 20
-20.6894
 30
0.000000
  70
    32
  0
VERTEX
  8
241
  5
4B9C
 10
109.560
 20
-20.6862
 30
0.000000
  70
    32
  0
VERTEX
  8
241
  5
4B9D
 10
109.579
 20
-20.6830
 30
0.000000
  70
    32
  0
VERTEX
  8
241
  5
4B9E
 10
109.598
 20
-20.6797
 30
0.000000
  70
    32
  0
VERTEX
  8
241
  5
4B9F
 10
109.616
 20
-20.6763
 30
0.000000
  70
    32
  0
VERTEX
  8
241
  5
4BA0
 10
109.635
 20
-20.6729
 30
0.000000
  70
    32
  0
VERTEX
  8
241
  5
4BA1
 10
109.654
 20
-20.6694
 30
0.000000
  70
    32
  0
VERTEX
  8
241
  5
4BA2
 10
109.672
 20
-20.6658
 30
0.000000
  70
    32
  0
VERTEX
  8
241
  5
4BA3
 10
109.690
 20
-20.6622
 30
0.000000
  70
    32
  0
VERTEX
  8
241
  5
4BA4
 10
109.709
 20
-20.6586
 30
0.000000
  70
    32
  0
VERTEX
  8
241
  5
4BA5
 10
109.727
 20
-20.6548
 30
0.000000
  70
    32
  0
VERTEX
  8
241
  5
4BA6
 10
109.746
 20
-20.6511
 30
0.000000
  70
    32
  0
VERTEX
  8
241
  5
4BA7
 10
109.764
 20
-20.6472
 30
0.000000
  70
    32
  0
VERTEX
  8
241
  5
4BA8
 10
109.782
 20
-20.6433
 30
0.000000
  70
    32
  0
VERTEX
  8
241
  5
4BA9
 10
109.800
 20
-20.6393
 30
0.000000
  70
    32
  0
VERTEX
  8
241
  5
4BAA
 10
109.818
 20
-20.6353
 30
0.000000
  70
    32
  0
VERTEX
  8
241
  5
4BAB
 10
109.836
 20
-20.6312
 30
0.000000
  70
    32
  0
VERTEX
  8
241
  5
4BAC
 10
109.854
 20
-20.6271
 30
0.000000
  70
    32
  0
VERTEX
  8
241
  5
4BAD
 10
109.872
 20
-20.6229
 30
0.000000
  70
    32
  0
VERTEX
  8
241
  5
4BAE
 10
109.890
 20
-20.6186
 30
0.000000
  70
    32
  0
VERTEX
  8
241
  5
4BAF
 10
109.908
 20
-20.6143
 30
0.000000
  70
    32
  0
VERTEX
  8
241
  5
4BB0
 10
109.926
 20
-20.6099
 30
0.000000
  70
    32
  0
VERTEX
  8
241
  5
4BB1
 10
109.944
 20
-20.6055
 30
0.000000
  70
    32
  0
VERTEX
  8
241
  5
4BB2
 10
109.961
 20
-20.6010
 30
0.000000
  70
    32
  0
VERTEX
  8
241
  5
4BB3
 10
109.979
 20
-20.5965
 30
0.000000
  70
    32
  0
VERTEX
  8
241
  5
4BB4
 10
109.996
 20
-20.5919
 30
0.000000
  70
    32
  0
VERTEX
  8
241
  5
4BB5
 10
110.014
 20
-20.5872
 30
0.000000
  70
    32
  0
VERTEX
  8
241
  5
4BB6
 10
110.031
 20
-20.5825
 30
0.000000
  70
    32
  0
VERTEX
  8
241
  5
4BB7
 10
110.049
 20
-20.5777
 30
0.000000
  70
    32
  0
VERTEX
  8
241
  5
4BB8
 10
110.066
 20
-20.5729
 30
0.000000
  70
    32
  0
VERTEX
  8
241
  5
4BB9
 10
110.083
 20
-20.5680
 30
0.000000
  70
    32
  0
VERTEX
  8
241
  5
4BBA
 10
110.100
 20
-20.5631
 30
0.000000
  70
    32
  0
VERTEX
  8
241
  5
4BBB
 10
110.118
 20
-20.5581
 30
0.000000
  70
    32
  0
VERTEX
  8
241
  5
4BBC
 10
110.135
 20
-20.5530
 30
0.000000
  70
    32
  0
VERTEX
  8
241
  5
4BBD
 10
110.152
 20
-20.5479
 30
0.000000
  70
    32
  0
VERTEX
  8
241
  5
4BBE
 10
110.168
 20
-20.5428
 30
0.000000
  70
    32
  0
VERTEX
  8
241
  5
4BBF
 10
110.185
 20
-20.5376
 30
0.000000
  70
    32
  0
VERTEX
  8
241
  5
4BC0
 10
110.202
 20
-20.5323
 30
0.000000
  70
    32
  0
VERTEX
  8
241
  5
4BC1
 10
110.219
 20
-20.5270
 30
0.000000
  70
    32
  0
VERTEX
  8
241
  5
4BC2
 10
110.235
 20
-20.5216
 30
0.000000
  70
    32
  0
VERTEX
  8
241
  5
4BC3
 10
110.252
 20
-20.5162
 30
0.000000
  70
    32
  0
VERTEX
  8
241
  5
4BC4
 10
110.268
 20
-20.5107
 30
0.000000
  70
    32
  0
VERTEX
  8
241
  5
4BC5
 10
110.285
 20
-20.5052
 30
0.000000
  70
    32
  0
VERTEX
  8
241
  5
4BC6
 10
110.301
 20
-20.4996
 30
0.000000
  70
    32
  0
VERTEX
  8
241
  5
4BC7
 10
110.317
 20
-20.4939
 30
0.000000
  70
    32
  0
VERTEX
  8
241
  5
4BC8
 10
110.334
 20
-20.4882
 30
0.000000
  70
    32
  0
VERTEX
  8
241
  5
4BC9
 10
110.350
 20
-20.4825
 30
0.000000
  70
    32
  0
VERTEX
  8
241
  5
4BCA
 10
110.366
 20
-20.4767
 30
0.000000
  70
    32
  0
VERTEX
  8
241
  5
4BCB
 10
110.382
 20
-20.4708
 30
0.000000
  70
    32
  0
VERTEX
  8
241
  5
4BCC
 10
110.398
 20
-20.4649
 30
0.000000
  70
    32
  0
VERTEX
  8
241
  5
4BCD
 10
110.413
 20
-20.4590
 30
0.000000
  70
    32
  0
VERTEX
  8
241
  5
4BCE
 10
110.429
 20
-20.4530
 30
0.000000
  70
    32
  0
VERTEX
  8
241
  5
4BCF
 10
110.445
 20
-20.4469
 30
0.000000
  70
    32
  0
VERTEX
  8
241
  5
4BD0
 10
110.460
 20
-20.4408
 30
0.000000
  70
    32
  0
VERTEX
  8
241
  5
4BD1
 10
110.476
 20
-20.4347
 30
0.000000
  70
    32
  0
VERTEX
  8
241
  5
4BD2
 10
110.491
 20
-20.4285
 30
0.000000
  70
    32
  0
VERTEX
  8
241
  5
4BD3
 10
110.506
 20
-20.4222
 30
0.000000
  70
    32
  0
VERTEX
  8
241
  5
4BD4
 10
110.522
 20
-20.4159
 30
0.000000
  70
    32
  0
VERTEX
  8
241
  5
4BD5
 10
110.537
 20
-20.4095
 30
0.000000
  70
    32
  0
VERTEX
  8
241
  5
4BD6
 10
110.552
 20
-20.4031
 30
0.000000
  70
    32
  0
VERTEX
  8
241
  5
4BD7
 10
110.567
 20
-20.3967
 30
0.000000
  70
    32
  0
VERTEX
  8
241
  5
4BD8
 10
110.582
 20
-20.3902
 30
0.000000
  70
    32
  0
VERTEX
  8
241
  5
4BD9
 10
110.596
 20
-20.3836
 30
0.000000
  70
    32
  0
VERTEX
  8
241
  5
4BDA
 10
110.611
 20
-20.3770
 30
0.000000
  70
    32
  0
VERTEX
  8
241
  5
4BDB
 10
110.626
 20
-20.3704
 30
0.000000
  70
    32
  0
VERTEX
  8
241
  5
4BDC
 10
110.640
 20
-20.3637
 30
0.000000
  70
    32
  0
VERTEX
  8
241
  5
4BDD
 10
110.655
 20
-20.3570
 30
0.000000
  70
    32
  0
VERTEX
  8
241
  5
4BDE
 10
110.669
 20
-20.3502
 30
0.000000
  70
    32
  0
VERTEX
  8
241
  5
4BDF
 10
110.683
 20
-20.3434
 30
0.000000
  70
    32
  0
VERTEX
  8
241
  5
4BE0
 10
110.698
 20
-20.3365
 30
0.000000
  70
    32
  0
VERTEX
  8
241
  5
4BE1
 10
110.712
 20
-20.3296
 30
0.000000
  70
    32
  0
VERTEX
  8
241
  5
4BE2
 10
110.726
 20
-20.3226
 30
0.000000
  70
    32
  0
VERTEX
  8
241
  5
4BE3
 10
110.740
 20
-20.3156
 30
0.000000
  70
    32
  0
VERTEX
  8
241
  5
4BE4
 10
110.753
 20
-20.3085
 30
0.000000
  70
    32
  0
VERTEX
  8
241
  5
4BE5
 10
110.767
 20
-20.3014
 30
0.000000
  70
    32
  0
VERTEX
  8
241
  5
4BE6
 10
110.781
 20
-20.2943
 30
0.000000
  70
    32
  0
VERTEX
  8
241
  5
4BE7
 10
110.794
 20
-20.2871
 30
0.000000
  70
    32
  0
VERTEX
  8
241
  5
4BE8
 10
110.808
 20
-20.2799
 30
0.000000
  70
    32
  0
VERTEX
  8
241
  5
4BE9
 10
110.821
 20
-20.2726
 30
0.000000
  70
    32
  0
SEQEND
  8
241
  5
4BEA
  0
LINE
  5
4497
  8
240
 10
81.500000000003183
 20
25.349999999998118
 30
0.0
 11
84.999999999999403
 21
25.349999999999572
 31
0.0
  0
LINE
  5
4498
  8
240
  6
CONTINUOUS
 10
81.000000000003382
 20
24.849999999998179
 30
0.0
 11
81.000000000003055
 21
21.40000000000143
 31
0.0
1001
GRPNAME
1000
PASTMD0F
  0
LINE
  5
4499
  8
241
 10
81.000000000003013
 20
21.40000000000143
 30
0.0
 11
80.999999999998607
 21
-21.40000000000262
 31
0.0
1001
GRPNAME
1000
PASTMD0F
  0
ARC
  5
449A
  8
240
 10
81.500000000003368
 20
24.849999999998118
 30
0.0
 40
0.5
 50
90.000000000024414
 51
179.99999999999349
1001
GRPNAME
1000
PASTMD0F
1001
ASK_MEN_XD
1005
4448
1070
     1
1005
4449
1070
     1
  0
LINE
  5
449B
  8
240
 10
118.47829568782829
 20
23.88774326460867
 30
0.0
 11
111.56602540379021
 21
24.24999999999881
 31
0.0
  0
LINE
  5
449C
  8
240
  6
CONTINUOUS
 10
100.6500000000006
 20
24.049999999999219
 30
0.0
 11
102.0000000000006
 21
24.049999999999219
 31
0.0
  0
LINE
  5
449D
  8
240
  6
CONTINUOUS
 10
87.000000000001393
 20
24.999999999999119
 30
0.0
 11
99.700000000000685
 21
24.999999999999201
 31
0.0
  0
LINE
  5
449E
  8
241
 10
85.550000000001518
 20
24.799999999999191
 30
0.0
 11
85.550000000001518
 21
21.589685565643549
 31
0.0
  0
LINE
  5
449F
  8
241
 10
86.800000000001518
 20
24.799999999999219
 30
0.0
 11
86.800000000001518
 21
21.55148126450575
 31
0.0
  0
LINE
  5
44A0
  8
240
  6
CONTINUOUS
 10
87.000000000001506
 20
24.999999999999201
 30
0.0
 11
86.800000000001518
 21
24.799999999999219
 31
0.0
  0
LINE
  5
44A1
  8
240
  6
CONTINUOUS
 10
84.999999999999403
 20
25.35000000000025
 30
0.0
 11
85.550000000001518
 21
24.799999999999219
 31
0.0
  0
LINE
  5
44A2
  8
240
  6
CONTINUOUS
 10
85.550000000001518
 20
24.799999999999219
 30
0.0
 11
86.800000000001518
 21
24.799999999999219
 31
0.0
  0
LINE
  5
44A3
  8
241
 10
100.6500000000006
 20
24.049999999999219
 30
0.0
 11
100.6500000000006
 21
21.54880473162078
 31
0.0
  0
LINE
  5
44A4
  8
241
 10
100.6500000000006
 20
21.00336912589108
 30
0.0
 11
100.6500000000006
 21
0.545435605729125
 31
0.0
  0
LINE
  5
44A5
  8
240
  6
CONTINUOUS
 10
100.6500000000006
 20
24.049999999999219
 30
0.0
 11
99.700000000000685
 21
24.999999999999201
 31
0.0
  0
LINE
  5
44A6
  8
240
  6
CONTINUOUS
 10
102.7000000000006
 20
24.749999999999211
 30
0.0
 11
109.7000000000008
 21
24.749999999999091
 31
0.0
  0
LINE
  5
44A7
  8
241
 10
102.0000000000006
 20
24.049999999999251
 30
0.0
 11
102.0000000000006
 21
22.54494468280075
 31
0.0
  0
LINE
  5
44A8
  8
241
 10
102.0000000000006
 20
20.007229174711121
 30
0.0
 11
102.0000000000006
 21
2.5377155080891209
 31
0.0
  0
LINE
  5
44A9
  8
241
 10
102.7000000000006
 20
24.749999999999211
 30
0.0
 11
102.7000000000006
 21
22.70699573088126
 31
0.0
  0
LINE
  5
44AA
  8
241
 10
102.7000000000006
 20
19.845178126630572
 30
0.0
 11
102.7000000000007
 21
2.8618176042501768
 31
0.0
  0
LINE
  5
44AB
  8
240
  6
CONTINUOUS
 10
102.0000000000006
 20
24.049999999999219
 30
0.0
 11
102.7000000000006
 21
24.749999999999211
 31
0.0
  0
LINE
  5
44AC
  8
241
 10
109.7000000000008
 20
24.749999999999119
 30
0.0
 11
109.7000000000007
 21
22.667375852246259
 31
0.0
  0
LINE
  5
44AD
  8
241
 10
109.7000000000007
 20
19.884798005265559
 30
0.0
 11
109.7000000000005
 21
2.7774271574870961
 31
0.0
  0
LINE
  5
44AE
  8
240
  6
CONTINUOUS
 10
111.56602540379021
 20
24.24999999999881
 30
0.0
 11
109.7000000000008
 21
24.749999999999091
 31
0.0
  0
LINE
  5
44AF
  8
241
 10
111.56602540378999
 20
24.24999999999887
 30
0.0
 11
111.56602540378999
 21
21.499937501344309
 31
0.0
  0
LINE
  5
44B0
  8
242
  6
CONTINUOUS
 10
107.56848779718619
 20
24.749999999999151
 30
0.0
 11
109.6394130349684
 21
22.679074671693972
 31
0.0
1001
GRPNAME
1000
0000000F
  0
LINE
  5
44B1
  8
242
  6
CONTINUOUS
 10
106.43711697201449
 20
24.749999999999151
 30
0.0
 11
108.4110299569754
 21
22.776086928755941
 31
0.0
1001
GRPNAME
1000
0000000F
  0
LINE
  5
44B2
  8
242
  6
CONTINUOUS
 10
105.30574614684311
 20
24.749999999999179
 30
0.0
 11
107.2796591318038
 21
22.776086928755941
 31
0.0
1001
GRPNAME
1000
0000000F
  0
LINE
  5
44B3
  8
242
  6
CONTINUOUS
 10
104.17437532167141
 20
24.749999999999211
 30
0.0
 11
106.1482883066321
 21
22.776086928755941
 31
0.0
1001
GRPNAME
1000
0000000F
  0
LINE
  5
44B4
  8
242
  6
CONTINUOUS
 10
109.12281284073291
 20
19.801562264634669
 30
0.0
 11
109.7000000000008
 21
19.224375080137062
 31
0.0
1001
GRPNAME
1000
0000000F
  0
LINE
  5
44B5
  8
242
  6
CONTINUOUS
 10
103.0430044964998
 20
24.749999999999211
 30
0.0
 11
105.0169174814606
 21
22.776086928755941
 31
0.0
1001
GRPNAME
1000
0000000F
  0
LINE
  5
44B6
  8
242
  6
CONTINUOUS
 10
108.01691735032639
 20
19.776086928755941
 30
0.0
 11
109.7000000000008
 21
18.093004205511651
 31
0.0
1001
GRPNAME
1000
0000000F
  0
LINE
  5
44B7
  8
242
  6
CONTINUOUS
 10
102.7000000000006
 20
23.961633636866281
 30
0.0
 11
103.88554665628909
 21
22.776086928755941
 31
0.0
1001
GRPNAME
1000
0000000F
  0
LINE
  5
44B8
  8
242
  6
CONTINUOUS
 10
106.88554652515489
 20
19.776086928755909
 30
0.0
 11
109.7000000000008
 21
16.9616333308864
 31
0.0
1001
GRPNAME
1000
0000000F
  0
LINE
  5
44B9
  8
241
 10
102.7000000000007
 20
22.83026276224086
 30
0.0
 11
102.80746504671851
 21
22.722797710825521
 31
0.0
1001
GRPNAME
1000
0000000F
  0
LINE
  5
44BA
  8
242
  6
CONTINUOUS
 10
105.75417569998331
 20
19.776086928755909
 30
0.0
 11
109.7000000000006
 21
15.830262456261091
 31
0.0
1001
GRPNAME
1000
0000000F
  0
LINE
  5
44BB
  8
242
  6
CONTINUOUS
 10
104.62280487481171
 20
19.776086928755909
 30
0.0
 11
109.7000000000006
 21
14.698891581635589
 31
0.0
1001
GRPNAME
1000
0000000F
  0
LINE
  5
44BC
  8
242
  6
CONTINUOUS
 10
103.4904333109114
 20
19.777087667528459
 30
0.0
 11
108.79634716329041
 21
14.47117358322129
 31
0.0
1001
GRPNAME
1000
0000000F
  0
LINE
  5
44BD
  8
242
  6
CONTINUOUS
 10
102.7000000000007
 20
22.72437523312664
 30
0.0
 11
104.72562467833041
 21
24.749999999999211
 31
0.0
1001
GRPNAME
1000
0000000H
  0
LINE
  5
44BE
  8
242
  6
CONTINUOUS
 10
103.8830825185412
 20
22.776086928755941
 30
0.0
 11
105.85699550350181
 21
24.749999999999179
 31
0.0
1001
GRPNAME
1000
0000000H
  0
LINE
  5
44BF
  8
242
  6
CONTINUOUS
 10
105.0144533437128
 20
22.776086928755941
 30
0.0
 11
106.98836632867361
 21
24.749999999999151
 31
0.0
1001
GRPNAME
1000
0000000H
  0
LINE
  5
44C0
  8
242
  6
CONTINUOUS
 10
102.7000000000007
 20
19.33026260925044
 30
0.0
 11
103.1619044647246
 21
19.792167094164881
 31
0.0
1001
GRPNAME
1000
0000000H
  0
LINE
  5
44C1
  8
242
  6
CONTINUOUS
 10
106.1458241688844
 20
22.776086928755941
 30
0.0
 11
108.11973715384509
 21
24.749999999999151
 31
0.0
1001
GRPNAME
1000
0000000H
  0
LINE
  5
44C2
  8
242
  6
CONTINUOUS
 10
102.7000000000007
 20
18.198891734625079
 30
0.0
 11
104.27719512519
 21
19.776086928755941
 31
0.0
1001
GRPNAME
1000
0000000H
  0
LINE
  5
44C3
  8
242
  6
CONTINUOUS
 10
107.2771949940559
 20
22.776086928755941
 30
0.0
 11
109.2511079790166
 21
24.749999999999091
 31
0.0
1001
GRPNAME
1000
0000000H
  0
LINE
  5
44C4
  8
242
  6
CONTINUOUS
 10
102.7000000000007
 20
17.067520859999721
 30
0.0
 11
105.40856595036161
 21
19.776086928755941
 31
0.0
1001
GRPNAME
1000
0000000H
  0
LINE
  5
44C5
  8
242
  6
CONTINUOUS
 10
108.4085658192275
 20
22.776086928755941
 30
0.0
 11
109.7000000000008
 21
24.067521165979571
 31
0.0
1001
GRPNAME
1000
0000000H
  0
LINE
  5
44C6
  8
242
  6
CONTINUOUS
 10
102.7000000000006
 20
15.93614998537427
 30
0.0
 11
106.53993677553331
 21
19.776086928755941
 31
0.0
1001
GRPNAME
1000
0000000H
  0
LINE
  5
44C7
  8
242
  6
CONTINUOUS
 10
109.4715665955152
 20
22.70771687688347
 30
0.0
 11
109.7000000000009
 21
22.936150291354242
 31
0.0
1001
GRPNAME
1000
0000000H
  0
LINE
  5
44C8
  8
242
  6
CONTINUOUS
 10
102.7000000000006
 20
14.80477911074928
 30
0.0
 11
107.67130760070479
 21
19.776086928755941
 31
0.0
1001
GRPNAME
1000
0000000H
  0
LINE
  5
44C9
  8
242
  6
CONTINUOUS
 10
103.49776531222651
 20
14.47117358322129
 30
0.0
 11
108.807434329497
 21
19.780842832584369
 31
0.0
1001
GRPNAME
1000
0000000H
  0
LINE
  5
44CA
  8
242
  6
CONTINUOUS
 10
104.62913613739811
 20
14.47117358322131
 30
0.0
 11
109.7000000000008
 21
19.542037667478208
 31
0.0
1001
GRPNAME
1000
0000000H
  0
LINE
  5
44CB
  8
242
  6
CONTINUOUS
 10
105.76050696256959
 20
14.47117358322129
 30
0.0
 11
109.7000000000008
 21
18.410666792852961
 31
0.0
1001
GRPNAME
1000
0000000H
  0
LINE
  5
44CC
  8
242
  6
CONTINUOUS
 10
106.89187778774119
 20
14.47117358322129
 30
0.0
 11
109.7000000000008
 21
17.27929591822771
 31
0.0
1001
GRPNAME
1000
0000000H
  0
LINE
  5
44CD
  8
242
  6
CONTINUOUS
 10
102.7000000000007
 20
19.436150138365061
 30
0.0
 11
107.664976338119
 21
14.47117358322131
 31
0.0
1001
GRPNAME
1000
0000000F
  0
LINE
  5
44CE
  8
242
  6
CONTINUOUS
 10
102.7000000000007
 20
18.304779263739992
 30
0.0
 11
106.5336055129476
 21
14.47117358322129
 31
0.0
1001
GRPNAME
1000
0000000F
  0
LINE
  5
44CF
  8
242
  6
CONTINUOUS
 10
102.7000000000007
 20
17.173408389114961
 30
0.0
 11
105.4022346877761
 21
14.47117358322131
 31
0.0
1001
GRPNAME
1000
0000000F
  0
LINE
  5
44D0
  8
242
  6
CONTINUOUS
 10
102.7000000000006
 20
16.042037514489952
 30
0.0
 11
104.2708638626047
 21
14.47117358322129
 31
0.0
1001
GRPNAME
1000
0000000F
  0
LINE
  5
44D1
  8
242
  6
CONTINUOUS
 10
108.0232486129127
 20
14.47117358322129
 30
0.0
 11
109.7000000000007
 21
16.147925043602299
 31
0.0
1001
GRPNAME
1000
0000000H
  0
LINE
  5
44D2
  8
240
 10
125.0000000000009
 20
19.922649730809781
 30
0.0
 11
125.0000000000008
 21
-19.922649730810889
 31
0.0
  0
LINE
  5
44D3
  8
240
 10
124.5000000000008
 20
20.788675134594229
 30
0.0
 11
119.8212878190996
 21
23.489930871698281
 31
0.0
  0
ARC
  5
44D4
  8
240
 10
118.3212878190996
 20
20.891854660344961
 30
0.0
 40
3.0
 50
60.000000000000277
 51
87.000000000004164
1001
ASK_MEN_XD
1005
444B
1070
     1
1005
4486
1070
     1
  0
ARC
  5
44D5
  8
240
 10
124.0000000000008
 20
19.922649730809781
 30
0.0
 40
1.0
 50
0.0
 51
60.000000000000277
1001
ASK_MEN_XD
1005
0
1070
     1
1005
0
1070
     1
  0
LINE
  5
44D6
  8
241
 10
119.1975449062822
 20
23.761031113120598
 30
0.0
 11
119.1975449062822
 21
0.1005458820939964
 31
0.0
  0
LINE
  5
44D7
  8
242
 10
109.7000000000008
 20
23.749858578638559
 30
0.0
 11
108.69985862235779
 21
24.749999999999119
 31
0.0
  0
LINE
  5
44D8
  8
242
 10
102.7000000000006
 20
23.85574610775188
 30
0.0
 11
103.5942538531589
 21
24.749999999999211
 31
0.0
  0
LINE
  5
44D9
  8
241
 10
103.600000000001
 20
19.776086928755941
 30
0.0
 11
108.56602540379021
 21
19.776086928755941
 31
0.0
  0
LINE
  5
44DA
  8
241
 10
103.600000000001
 20
22.776086928755941
 30
0.0
 11
108.56602540379021
 21
22.776086928755941
 31
0.0
  0
POLYLINE
  5
44DB
  8
241
 10
103.600000000001
 20
19.776086928755952
 30
0.0
 66
     1
 70
     8
  0
VERTEX
  8
241
  5
4BEB
 10
103.600
 20
19.7761
 30
0.000000
  70
    32
  0
VERTEX
  8
241
  5
4BEC
 10
103.526
 20
19.7765
 30
0.000000
  70
    32
  0
VERTEX
  8
241
  5
4BED
 10
103.453
 20
19.7779
 30
0.000000
  70
    32
  0
VERTEX
  8
241
  5
4BEE
 10
103.379
 20
19.7802
 30
0.000000
  70
    32
  0
VERTEX
  8
241
  5
4BEF
 10
103.306
 20
19.7833
 30
0.000000
  70
    32
  0
VERTEX
  8
241
  5
4BF0
 10
103.233
 20
19.7874
 30
0.000000
  70
    32
  0
VERTEX
  8
241
  5
4BF1
 10
103.160
 20
19.7923
 30
0.000000
  70
    32
  0
VERTEX
  8
241
  5
4BF2
 10
103.087
 20
19.7982
 30
0.000000
  70
    32
  0
VERTEX
  8
241
  5
4BF3
 10
103.015
 20
19.8049
 30
0.000000
  70
    32
  0
VERTEX
  8
241
  5
4BF4
 10
102.943
 20
19.8125
 30
0.000000
  70
    32
  0
VERTEX
  8
241
  5
4BF5
 10
102.871
 20
19.8210
 30
0.000000
  70
    32
  0
VERTEX
  8
241
  5
4BF6
 10
102.800
 20
19.8304
 30
0.000000
  70
    32
  0
VERTEX
  8
241
  5
4BF7
 10
102.729
 20
19.8407
 30
0.000000
  70
    32
  0
VERTEX
  8
241
  5
4BF8
 10
102.659
 20
19.8518
 30
0.000000
  70
    32
  0
VERTEX
  8
241
  5
4BF9
 10
102.589
 20
19.8638
 30
0.000000
  70
    32
  0
VERTEX
  8
241
  5
4BFA
 10
102.520
 20
19.8766
 30
0.000000
  70
    32
  0
VERTEX
  8
241
  5
4BFB
 10
102.452
 20
19.8903
 30
0.000000
  70
    32
  0
VERTEX
  8
241
  5
4BFC
 10
102.384
 20
19.9048
 30
0.000000
  70
    32
  0
VERTEX
  8
241
  5
4BFD
 10
102.317
 20
19.9201
 30
0.000000
  70
    32
  0
VERTEX
  8
241
  5
4BFE
 10
102.251
 20
19.9363
 30
0.000000
  70
    32
  0
VERTEX
  8
241
  5
4BFF
 10
102.186
 20
19.9532
 30
0.000000
  70
    32
  0
VERTEX
  8
241
  5
4C00
 10
102.121
 20
19.9710
 30
0.000000
  70
    32
  0
VERTEX
  8
241
  5
4C01
 10
102.058
 20
19.9895
 30
0.000000
  70
    32
  0
VERTEX
  8
241
  5
4C02
 10
101.995
 20
20.0088
 30
0.000000
  70
    32
  0
VERTEX
  8
241
  5
4C03
 10
101.933
 20
20.0289
 30
0.000000
  70
    32
  0
VERTEX
  8
241
  5
4C04
 10
101.873
 20
20.0497
 30
0.000000
  70
    32
  0
VERTEX
  8
241
  5
4C05
 10
101.813
 20
20.0713
 30
0.000000
  70
    32
  0
VERTEX
  8
241
  5
4C06
 10
101.754
 20
20.0936
 30
0.000000
  70
    32
  0
VERTEX
  8
241
  5
4C07
 10
101.697
 20
20.1166
 30
0.000000
  70
    32
  0
VERTEX
  8
241
  5
4C08
 10
101.640
 20
20.1403
 30
0.000000
  70
    32
  0
VERTEX
  8
241
  5
4C09
 10
101.585
 20
20.1647
 30
0.000000
  70
    32
  0
VERTEX
  8
241
  5
4C0A
 10
101.531
 20
20.1897
 30
0.000000
  70
    32
  0
VERTEX
  8
241
  5
4C0B
 10
101.479
 20
20.2154
 30
0.000000
  70
    32
  0
VERTEX
  8
241
  5
4C0C
 10
101.427
 20
20.2418
 30
0.000000
  70
    32
  0
VERTEX
  8
241
  5
4C0D
 10
101.377
 20
20.2687
 30
0.000000
  70
    32
  0
VERTEX
  8
241
  5
4C0E
 10
101.328
 20
20.2963
 30
0.000000
  70
    32
  0
VERTEX
  8
241
  5
4C0F
 10
101.281
 20
20.3245
 30
0.000000
  70
    32
  0
VERTEX
  8
241
  5
4C10
 10
101.235
 20
20.3532
 30
0.000000
  70
    32
  0
VERTEX
  8
241
  5
4C11
 10
101.190
 20
20.3825
 30
0.000000
  70
    32
  0
VERTEX
  8
241
  5
4C12
 10
101.147
 20
20.4124
 30
0.000000
  70
    32
  0
VERTEX
  8
241
  5
4C13
 10
101.106
 20
20.4427
 30
0.000000
  70
    32
  0
VERTEX
  8
241
  5
4C14
 10
101.065
 20
20.4736
 30
0.000000
  70
    32
  0
VERTEX
  8
241
  5
4C15
 10
101.027
 20
20.5049
 30
0.000000
  70
    32
  0
VERTEX
  8
241
  5
4C16
 10
100.990
 20
20.5367
 30
0.000000
  70
    32
  0
VERTEX
  8
241
  5
4C17
 10
100.954
 20
20.5690
 30
0.000000
  70
    32
  0
VERTEX
  8
241
  5
4C18
 10
100.920
 20
20.6017
 30
0.000000
  70
    32
  0
VERTEX
  8
241
  5
4C19
 10
100.888
 20
20.6348
 30
0.000000
  70
    32
  0
VERTEX
  8
241
  5
4C1A
 10
100.857
 20
20.6682
 30
0.000000
  70
    32
  0
VERTEX
  8
241
  5
4C1B
 10
100.828
 20
20.7021
 30
0.000000
  70
    32
  0
VERTEX
  8
241
  5
4C1C
 10
100.801
 20
20.7362
 30
0.000000
  70
    32
  0
VERTEX
  8
241
  5
4C1D
 10
100.775
 20
20.7708
 30
0.000000
  70
    32
  0
VERTEX
  8
241
  5
4C1E
 10
100.751
 20
20.8056
 30
0.000000
  70
    32
  0
VERTEX
  8
241
  5
4C1F
 10
100.729
 20
20.8407
 30
0.000000
  70
    32
  0
VERTEX
  8
241
  5
4C20
 10
100.709
 20
20.8760
 30
0.000000
  70
    32
  0
VERTEX
  8
241
  5
4C21
 10
100.690
 20
20.9116
 30
0.000000
  70
    32
  0
VERTEX
  8
241
  5
4C22
 10
100.673
 20
20.9474
 30
0.000000
  70
    32
  0
VERTEX
  8
241
  5
4C23
 10
100.658
 20
20.9835
 30
0.000000
  70
    32
  0
VERTEX
  8
241
  5
4C24
 10
100.644
 20
21.0196
 30
0.000000
  70
    32
  0
VERTEX
  8
241
  5
4C25
 10
100.632
 20
21.0560
 30
0.000000
  70
    32
  0
VERTEX
  8
241
  5
4C26
 10
100.623
 20
21.0925
 30
0.000000
  70
    32
  0
VERTEX
  8
241
  5
4C27
 10
100.614
 20
21.1291
 30
0.000000
  70
    32
  0
VERTEX
  8
241
  5
4C28
 10
100.608
 20
21.1657
 30
0.000000
  70
    32
  0
VERTEX
  8
241
  5
4C29
 10
100.604
 20
21.2025
 30
0.000000
  70
    32
  0
VERTEX
  8
241
  5
4C2A
 10
100.601
 20
21.2393
 30
0.000000
  70
    32
  0
VERTEX
  8
241
  5
4C2B
 10
100.600
 20
21.2761
 30
0.000000
  70
    32
  0
VERTEX
  8
241
  5
4C2C
 10
100.601
 20
21.3129
 30
0.000000
  70
    32
  0
VERTEX
  8
241
  5
4C2D
 10
100.604
 20
21.3497
 30
0.000000
  70
    32
  0
VERTEX
  8
241
  5
4C2E
 10
100.608
 20
21.3864
 30
0.000000
  70
    32
  0
VERTEX
  8
241
  5
4C2F
 10
100.614
 20
21.4231
 30
0.000000
  70
    32
  0
VERTEX
  8
241
  5
4C30
 10
100.623
 20
21.4597
 30
0.000000
  70
    32
  0
VERTEX
  8
241
  5
4C31
 10
100.632
 20
21.4962
 30
0.000000
  70
    32
  0
VERTEX
  8
241
  5
4C32
 10
100.644
 20
21.5325
 30
0.000000
  70
    32
  0
VERTEX
  8
241
  5
4C33
 10
100.658
 20
21.5687
 30
0.000000
  70
    32
  0
VERTEX
  8
241
  5
4C34
 10
100.673
 20
21.6047
 30
0.000000
  70
    32
  0
VERTEX
  8
241
  5
4C35
 10
100.690
 20
21.6406
 30
0.000000
  70
    32
  0
VERTEX
  8
241
  5
4C36
 10
100.709
 20
21.6762
 30
0.000000
  70
    32
  0
VERTEX
  8
241
  5
4C37
 10
100.729
 20
21.7115
 30
0.000000
  70
    32
  0
VERTEX
  8
241
  5
4C38
 10
100.751
 20
21.7466
 30
0.000000
  70
    32
  0
VERTEX
  8
241
  5
4C39
 10
100.775
 20
21.7814
 30
0.000000
  70
    32
  0
VERTEX
  8
241
  5
4C3A
 10
100.801
 20
21.8159
 30
0.000000
  70
    32
  0
VERTEX
  8
241
  5
4C3B
 10
100.828
 20
21.8501
 30
0.000000
  70
    32
  0
VERTEX
  8
241
  5
4C3C
 10
100.857
 20
21.8839
 30
0.000000
  70
    32
  0
VERTEX
  8
241
  5
4C3D
 10
100.888
 20
21.9174
 30
0.000000
  70
    32
  0
VERTEX
  8
241
  5
4C3E
 10
100.920
 20
21.9505
 30
0.000000
  70
    32
  0
VERTEX
  8
241
  5
4C3F
 10
100.954
 20
21.9832
 30
0.000000
  70
    32
  0
VERTEX
  8
241
  5
4C40
 10
100.990
 20
22.0154
 30
0.000000
  70
    32
  0
VERTEX
  8
241
  5
4C41
 10
101.027
 20
22.0472
 30
0.000000
  70
    32
  0
VERTEX
  8
241
  5
4C42
 10
101.065
 20
22.0786
 30
0.000000
  70
    32
  0
VERTEX
  8
241
  5
4C43
 10
101.106
 20
22.1094
 30
0.000000
  70
    32
  0
VERTEX
  8
241
  5
4C44
 10
101.147
 20
22.1398
 30
0.000000
  70
    32
  0
VERTEX
  8
241
  5
4C45
 10
101.190
 20
22.1696
 30
0.000000
  70
    32
  0
VERTEX
  8
241
  5
4C46
 10
101.235
 20
22.1989
 30
0.000000
  70
    32
  0
VERTEX
  8
241
  5
4C47
 10
101.281
 20
22.2277
 30
0.000000
  70
    32
  0
VERTEX
  8
241
  5
4C48
 10
101.328
 20
22.2558
 30
0.000000
  70
    32
  0
VERTEX
  8
241
  5
4C49
 10
101.377
 20
22.2834
 30
0.000000
  70
    32
  0
VERTEX
  8
241
  5
4C4A
 10
101.427
 20
22.3104
 30
0.000000
  70
    32
  0
VERTEX
  8
241
  5
4C4B
 10
101.479
 20
22.3367
 30
0.000000
  70
    32
  0
VERTEX
  8
241
  5
4C4C
 10
101.531
 20
22.3625
 30
0.000000
  70
    32
  0
VERTEX
  8
241
  5
4C4D
 10
101.585
 20
22.3875
 30
0.000000
  70
    32
  0
VERTEX
  8
241
  5
4C4E
 10
101.640
 20
22.4119
 30
0.000000
  70
    32
  0
VERTEX
  8
241
  5
4C4F
 10
101.697
 20
22.4356
 30
0.000000
  70
    32
  0
VERTEX
  8
241
  5
4C50
 10
101.754
 20
22.4586
 30
0.000000
  70
    32
  0
VERTEX
  8
241
  5
4C51
 10
101.813
 20
22.4809
 30
0.000000
  70
    32
  0
VERTEX
  8
241
  5
4C52
 10
101.873
 20
22.5025
 30
0.000000
  70
    32
  0
VERTEX
  8
241
  5
4C53
 10
101.933
 20
22.5233
 30
0.000000
  70
    32
  0
VERTEX
  8
241
  5
4C54
 10
101.995
 20
22.5434
 30
0.000000
  70
    32
  0
VERTEX
  8
241
  5
4C55
 10
102.058
 20
22.5627
 30
0.000000
  70
    32
  0
VERTEX
  8
241
  5
4C56
 10
102.121
 20
22.5812
 30
0.000000
  70
    32
  0
VERTEX
  8
241
  5
4C57
 10
102.186
 20
22.5990
 30
0.000000
  70
    32
  0
VERTEX
  8
241
  5
4C58
 10
102.251
 20
22.6159
 30
0.000000
  70
    32
  0
VERTEX
  8
241
  5
4C59
 10
102.317
 20
22.6321
 30
0.000000
  70
    32
  0
VERTEX
  8
241
  5
4C5A
 10
102.384
 20
22.6474
 30
0.000000
  70
    32
  0
VERTEX
  8
241
  5
4C5B
 10
102.452
 20
22.6619
 30
0.000000
  70
    32
  0
VERTEX
  8
241
  5
4C5C
 10
102.520
 20
22.6756
 30
0.000000
  70
    32
  0
VERTEX
  8
241
  5
4C5D
 10
102.589
 20
22.6884
 30
0.000000
  70
    32
  0
VERTEX
  8
241
  5
4C5E
 10
102.659
 20
22.7004
 30
0.000000
  70
    32
  0
VERTEX
  8
241
  5
4C5F
 10
102.729
 20
22.7115
 30
0.000000
  70
    32
  0
VERTEX
  8
241
  5
4C60
 10
102.800
 20
22.7218
 30
0.000000
  70
    32
  0
VERTEX
  8
241
  5
4C61
 10
102.871
 20
22.7311
 30
0.000000
  70
    32
  0
VERTEX
  8
241
  5
4C62
 10
102.943
 20
22.7396
 30
0.000000
  70
    32
  0
VERTEX
  8
241
  5
4C63
 10
103.015
 20
22.7473
 30
0.000000
  70
    32
  0
VERTEX
  8
241
  5
4C64
 10
103.087
 20
22.7540
 30
0.000000
  70
    32
  0
VERTEX
  8
241
  5
4C65
 10
103.160
 20
22.7599
 30
0.000000
  70
    32
  0
VERTEX
  8
241
  5
4C66
 10
103.233
 20
22.7648
 30
0.000000
  70
    32
  0
VERTEX
  8
241
  5
4C67
 10
103.306
 20
22.7689
 30
0.000000
  70
    32
  0
VERTEX
  8
241
  5
4C68
 10
103.379
 20
22.7720
 30
0.000000
  70
    32
  0
VERTEX
  8
241
  5
4C69
 10
103.453
 20
22.7743
 30
0.000000
  70
    32
  0
VERTEX
  8
241
  5
4C6A
 10
103.526
 20
22.7756
 30
0.000000
  70
    32
  0
VERTEX
  8
241
  5
4C6B
 10
103.600
 20
22.7761
 30
0.000000
  70
    32
  0
SEQEND
  8
241
  5
4C6C
  0
POLYLINE
  5
44DC
  8
241
 10
108.56602540379021
 20
22.776086928755952
 30
0.0
 66
     1
 70
     8
  0
VERTEX
  8
241
  5
4C6D
 10
108.566
 20
22.7761
 30
0.000000
  70
    32
  0
VERTEX
  8
241
  5
4C6E
 10
108.640
 20
22.7756
 30
0.000000
  70
    32
  0
VERTEX
  8
241
  5
4C6F
 10
108.715
 20
22.7743
 30
0.000000
  70
    32
  0
VERTEX
  8
241
  5
4C70
 10
108.789
 20
22.7720
 30
0.000000
  70
    32
  0
VERTEX
  8
241
  5
4C71
 10
108.863
 20
22.7689
 30
0.000000
  70
    32
  0
VERTEX
  8
241
  5
4C72
 10
108.937
 20
22.7648
 30
0.000000
  70
    32
  0
VERTEX
  8
241
  5
4C73
 10
109.011
 20
22.7599
 30
0.000000
  70
    32
  0
VERTEX
  8
241
  5
4C74
 10
109.085
 20
22.7540
 30
0.000000
  70
    32
  0
VERTEX
  8
241
  5
4C75
 10
109.158
 20
22.7473
 30
0.000000
  70
    32
  0
VERTEX
  8
241
  5
4C76
 10
109.231
 20
22.7396
 30
0.000000
  70
    32
  0
VERTEX
  8
241
  5
4C77
 10
109.303
 20
22.7311
 30
0.000000
  70
    32
  0
VERTEX
  8
241
  5
4C78
 10
109.375
 20
22.7218
 30
0.000000
  70
    32
  0
VERTEX
  8
241
  5
4C79
 10
109.447
 20
22.7115
 30
0.000000
  70
    32
  0
VERTEX
  8
241
  5
4C7A
 10
109.518
 20
22.7004
 30
0.000000
  70
    32
  0
VERTEX
  8
241
  5
4C7B
 10
109.588
 20
22.6884
 30
0.000000
  70
    32
  0
VERTEX
  8
241
  5
4C7C
 10
109.658
 20
22.6756
 30
0.000000
  70
    32
  0
VERTEX
  8
241
  5
4C7D
 10
109.727
 20
22.6619
 30
0.000000
  70
    32
  0
VERTEX
  8
241
  5
4C7E
 10
109.796
 20
22.6474
 30
0.000000
  70
    32
  0
VERTEX
  8
241
  5
4C7F
 10
109.863
 20
22.6321
 30
0.000000
  70
    32
  0
VERTEX
  8
241
  5
4C80
 10
109.930
 20
22.6159
 30
0.000000
  70
    32
  0
VERTEX
  8
241
  5
4C81
 10
109.996
 20
22.5990
 30
0.000000
  70
    32
  0
VERTEX
  8
241
  5
4C82
 10
110.061
 20
22.5812
 30
0.000000
  70
    32
  0
VERTEX
  8
241
  5
4C83
 10
110.126
 20
22.5627
 30
0.000000
  70
    32
  0
VERTEX
  8
241
  5
4C84
 10
110.189
 20
22.5434
 30
0.000000
  70
    32
  0
VERTEX
  8
241
  5
4C85
 10
110.252
 20
22.5233
 30
0.000000
  70
    32
  0
VERTEX
  8
241
  5
4C86
 10
110.313
 20
22.5025
 30
0.000000
  70
    32
  0
VERTEX
  8
241
  5
4C87
 10
110.373
 20
22.4809
 30
0.000000
  70
    32
  0
VERTEX
  8
241
  5
4C88
 10
110.433
 20
22.4586
 30
0.000000
  70
    32
  0
VERTEX
  8
241
  5
4C89
 10
110.491
 20
22.4356
 30
0.000000
  70
    32
  0
VERTEX
  8
241
  5
4C8A
 10
110.548
 20
22.4119
 30
0.000000
  70
    32
  0
VERTEX
  8
241
  5
4C8B
 10
110.604
 20
22.3875
 30
0.000000
  70
    32
  0
VERTEX
  8
241
  5
4C8C
 10
110.658
 20
22.3625
 30
0.000000
  70
    32
  0
VERTEX
  8
241
  5
4C8D
 10
110.711
 20
22.3367
 30
0.000000
  70
    32
  0
VERTEX
  8
241
  5
4C8E
 10
110.763
 20
22.3104
 30
0.000000
  70
    32
  0
VERTEX
  8
241
  5
4C8F
 10
110.814
 20
22.2834
 30
0.000000
  70
    32
  0
VERTEX
  8
241
  5
4C90
 10
110.863
 20
22.2558
 30
0.000000
  70
    32
  0
VERTEX
  8
241
  5
4C91
 10
110.911
 20
22.2277
 30
0.000000
  70
    32
  0
VERTEX
  8
241
  5
4C92
 10
110.958
 20
22.1989
 30
0.000000
  70
    32
  0
VERTEX
  8
241
  5
4C93
 10
111.003
 20
22.1696
 30
0.000000
  70
    32
  0
VERTEX
  8
241
  5
4C94
 10
111.047
 20
22.1398
 30
0.000000
  70
    32
  0
VERTEX
  8
241
  5
4C95
 10
111.089
 20
22.1094
 30
0.000000
  70
    32
  0
VERTEX
  8
241
  5
4C96
 10
111.129
 20
22.0786
 30
0.000000
  70
    32
  0
VERTEX
  8
241
  5
4C97
 10
111.168
 20
22.0472
 30
0.000000
  70
    32
  0
VERTEX
  8
241
  5
4C98
 10
111.206
 20
22.0154
 30
0.000000
  70
    32
  0
VERTEX
  8
241
  5
4C99
 10
111.242
 20
21.9832
 30
0.000000
  70
    32
  0
VERTEX
  8
241
  5
4C9A
 10
111.276
 20
21.9505
 30
0.000000
  70
    32
  0
VERTEX
  8
241
  5
4C9B
 10
111.309
 20
21.9174
 30
0.000000
  70
    32
  0
VERTEX
  8
241
  5
4C9C
 10
111.340
 20
21.8839
 30
0.000000
  70
    32
  0
VERTEX
  8
241
  5
4C9D
 10
111.369
 20
21.8501
 30
0.000000
  70
    32
  0
VERTEX
  8
241
  5
4C9E
 10
111.397
 20
21.8159
 30
0.000000
  70
    32
  0
VERTEX
  8
241
  5
4C9F
 10
111.423
 20
21.7814
 30
0.000000
  70
    32
  0
VERTEX
  8
241
  5
4CA0
 10
111.447
 20
21.7466
 30
0.000000
  70
    32
  0
VERTEX
  8
241
  5
4CA1
 10
111.469
 20
21.7115
 30
0.000000
  70
    32
  0
VERTEX
  8
241
  5
4CA2
 10
111.490
 20
21.6762
 30
0.000000
  70
    32
  0
VERTEX
  8
241
  5
4CA3
 10
111.509
 20
21.6406
 30
0.000000
  70
    32
  0
VERTEX
  8
241
  5
4CA4
 10
111.526
 20
21.6047
 30
0.000000
  70
    32
  0
VERTEX
  8
241
  5
4CA5
 10
111.542
 20
21.5687
 30
0.000000
  70
    32
  0
VERTEX
  8
241
  5
4CA6
 10
111.555
 20
21.5325
 30
0.000000
  70
    32
  0
VERTEX
  8
241
  5
4CA7
 10
111.567
 20
21.4962
 30
0.000000
  70
    32
  0
VERTEX
  8
241
  5
4CA8
 10
111.577
 20
21.4597
 30
0.000000
  70
    32
  0
VERTEX
  8
241
  5
4CA9
 10
111.585
 20
21.4231
 30
0.000000
  70
    32
  0
VERTEX
  8
241
  5
4CAA
 10
111.592
 20
21.3864
 30
0.000000
  70
    32
  0
VERTEX
  8
241
  5
4CAB
 10
111.596
 20
21.3497
 30
0.000000
  70
    32
  0
VERTEX
  8
241
  5
4CAC
 10
111.599
 20
21.3129
 30
0.000000
  70
    32
  0
VERTEX
  8
241
  5
4CAD
 10
111.600
 20
21.2761
 30
0.000000
  70
    32
  0
VERTEX
  8
241
  5
4CAE
 10
111.599
 20
21.2393
 30
0.000000
  70
    32
  0
VERTEX
  8
241
  5
4CAF
 10
111.596
 20
21.2025
 30
0.000000
  70
    32
  0
VERTEX
  8
241
  5
4CB0
 10
111.592
 20
21.1657
 30
0.000000
  70
    32
  0
VERTEX
  8
241
  5
4CB1
 10
111.585
 20
21.1291
 30
0.000000
  70
    32
  0
VERTEX
  8
241
  5
4CB2
 10
111.577
 20
21.0925
 30
0.000000
  70
    32
  0
VERTEX
  8
241
  5
4CB3
 10
111.567
 20
21.0560
 30
0.000000
  70
    32
  0
VERTEX
  8
241
  5
4CB4
 10
111.555
 20
21.0196
 30
0.000000
  70
    32
  0
VERTEX
  8
241
  5
4CB5
 10
111.542
 20
20.9835
 30
0.000000
  70
    32
  0
VERTEX
  8
241
  5
4CB6
 10
111.526
 20
20.9474
 30
0.000000
  70
    32
  0
VERTEX
  8
241
  5
4CB7
 10
111.509
 20
20.9116
 30
0.000000
  70
    32
  0
VERTEX
  8
241
  5
4CB8
 10
111.490
 20
20.8760
 30
0.000000
  70
    32
  0
VERTEX
  8
241
  5
4CB9
 10
111.469
 20
20.8407
 30
0.000000
  70
    32
  0
VERTEX
  8
241
  5
4CBA
 10
111.447
 20
20.8056
 30
0.000000
  70
    32
  0
VERTEX
  8
241
  5
4CBB
 10
111.423
 20
20.7708
 30
0.000000
  70
    32
  0
VERTEX
  8
241
  5
4CBC
 10
111.397
 20
20.7362
 30
0.000000
  70
    32
  0
VERTEX
  8
241
  5
4CBD
 10
111.369
 20
20.7021
 30
0.000000
  70
    32
  0
VERTEX
  8
241
  5
4CBE
 10
111.340
 20
20.6682
 30
0.000000
  70
    32
  0
VERTEX
  8
241
  5
4CBF
 10
111.309
 20
20.6348
 30
0.000000
  70
    32
  0
VERTEX
  8
241
  5
4CC0
 10
111.276
 20
20.6017
 30
0.000000
  70
    32
  0
VERTEX
  8
241
  5
4CC1
 10
111.242
 20
20.5690
 30
0.000000
  70
    32
  0
VERTEX
  8
241
  5
4CC2
 10
111.206
 20
20.5367
 30
0.000000
  70
    32
  0
VERTEX
  8
241
  5
4CC3
 10
111.168
 20
20.5049
 30
0.000000
  70
    32
  0
VERTEX
  8
241
  5
4CC4
 10
111.129
 20
20.4736
 30
0.000000
  70
    32
  0
VERTEX
  8
241
  5
4CC5
 10
111.089
 20
20.4427
 30
0.000000
  70
    32
  0
VERTEX
  8
241
  5
4CC6
 10
111.047
 20
20.4124
 30
0.000000
  70
    32
  0
VERTEX
  8
241
  5
4CC7
 10
111.003
 20
20.3825
 30
0.000000
  70
    32
  0
VERTEX
  8
241
  5
4CC8
 10
110.958
 20
20.3532
 30
0.000000
  70
    32
  0
VERTEX
  8
241
  5
4CC9
 10
110.911
 20
20.3245
 30
0.000000
  70
    32
  0
VERTEX
  8
241
  5
4CCA
 10
110.863
 20
20.2963
 30
0.000000
  70
    32
  0
VERTEX
  8
241
  5
4CCB
 10
110.814
 20
20.2687
 30
0.000000
  70
    32
  0
VERTEX
  8
241
  5
4CCC
 10
110.763
 20
20.2418
 30
0.000000
  70
    32
  0
VERTEX
  8
241
  5
4CCD
 10
110.711
 20
20.2154
 30
0.000000
  70
    32
  0
VERTEX
  8
241
  5
4CCE
 10
110.658
 20
20.1897
 30
0.000000
  70
    32
  0
VERTEX
  8
241
  5
4CCF
 10
110.604
 20
20.1647
 30
0.000000
  70
    32
  0
VERTEX
  8
241
  5
4CD0
 10
110.548
 20
20.1403
 30
0.000000
  70
    32
  0
VERTEX
  8
241
  5
4CD1
 10
110.491
 20
20.1166
 30
0.000000
  70
    32
  0
VERTEX
  8
241
  5
4CD2
 10
110.433
 20
20.0936
 30
0.000000
  70
    32
  0
VERTEX
  8
241
  5
4CD3
 10
110.373
 20
20.0713
 30
0.000000
  70
    32
  0
VERTEX
  8
241
  5
4CD4
 10
110.313
 20
20.0497
 30
0.000000
  70
    32
  0
VERTEX
  8
241
  5
4CD5
 10
110.252
 20
20.0289
 30
0.000000
  70
    32
  0
VERTEX
  8
241
  5
4CD6
 10
110.189
 20
20.0088
 30
0.000000
  70
    32
  0
VERTEX
  8
241
  5
4CD7
 10
110.126
 20
19.9895
 30
0.000000
  70
    32
  0
VERTEX
  8
241
  5
4CD8
 10
110.061
 20
19.9710
 30
0.000000
  70
    32
  0
VERTEX
  8
241
  5
4CD9
 10
109.996
 20
19.9532
 30
0.000000
  70
    32
  0
VERTEX
  8
241
  5
4CDA
 10
109.930
 20
19.9363
 30
0.000000
  70
    32
  0
VERTEX
  8
241
  5
4CDB
 10
109.863
 20
19.9201
 30
0.000000
  70
    32
  0
VERTEX
  8
241
  5
4CDC
 10
109.796
 20
19.9048
 30
0.000000
  70
    32
  0
VERTEX
  8
241
  5
4CDD
 10
109.727
 20
19.8903
 30
0.000000
  70
    32
  0
VERTEX
  8
241
  5
4CDE
 10
109.658
 20
19.8766
 30
0.000000
  70
    32
  0
VERTEX
  8
241
  5
4CDF
 10
109.588
 20
19.8638
 30
0.000000
  70
    32
  0
VERTEX
  8
241
  5
4CE0
 10
109.518
 20
19.8518
 30
0.000000
  70
    32
  0
VERTEX
  8
241
  5
4CE1
 10
109.447
 20
19.8407
 30
0.000000
  70
    32
  0
VERTEX
  8
241
  5
4CE2
 10
109.375
 20
19.8304
 30
0.000000
  70
    32
  0
VERTEX
  8
241
  5
4CE3
 10
109.303
 20
19.8210
 30
0.000000
  70
    32
  0
VERTEX
  8
241
  5
4CE4
 10
109.231
 20
19.8125
 30
0.000000
  70
    32
  0
VERTEX
  8
241
  5
4CE5
 10
109.158
 20
19.8049
 30
0.000000
  70
    32
  0
VERTEX
  8
241
  5
4CE6
 10
109.085
 20
19.7982
 30
0.000000
  70
    32
  0
VERTEX
  8
241
  5
4CE7
 10
109.011
 20
19.7923
 30
0.000000
  70
    32
  0
VERTEX
  8
241
  5
4CE8
 10
108.937
 20
19.7874
 30
0.000000
  70
    32
  0
VERTEX
  8
241
  5
4CE9
 10
108.863
 20
19.7833
 30
0.000000
  70
    32
  0
VERTEX
  8
241
  5
4CEA
 10
108.789
 20
19.7802
 30
0.000000
  70
    32
  0
VERTEX
  8
241
  5
4CEB
 10
108.715
 20
19.7779
 30
0.000000
  70
    32
  0
VERTEX
  8
241
  5
4CEC
 10
108.640
 20
19.7765
 30
0.000000
  70
    32
  0
VERTEX
  8
241
  5
4CED
 10
108.566
 20
19.7761
 30
0.000000
  70
    32
  0
SEQEND
  8
241
  5
4CEE
  0
LINE
  5
44DD
  8
241
 10
103.600000000001
 20
20.769065234203278
 30
0.0
 11
108.56602540379021
 21
20.769065234203278
 31
0.0
  0
POLYLINE
  5
44DE
  8
241
 10
101.37023231757436
 20
20.27257608147967
 30
0.0
 66
     1
 70
     8
  0
VERTEX
  8
241
  5
4CEF
 10
101.370
 20
20.2726
 30
0.000000
  70
    32
  0
VERTEX
  8
241
  5
4CF0
 10
101.383
 20
20.2799
 30
0.000000
  70
    32
  0
VERTEX
  8
241
  5
4CF1
 10
101.397
 20
20.2871
 30
0.000000
  70
    32
  0
VERTEX
  8
241
  5
4CF2
 10
101.410
 20
20.2943
 30
0.000000
  70
    32
  0
VERTEX
  8
241
  5
4CF3
 10
101.424
 20
20.3014
 30
0.000000
  70
    32
  0
VERTEX
  8
241
  5
4CF4
 10
101.437
 20
20.3085
 30
0.000000
  70
    32
  0
VERTEX
  8
241
  5
4CF5
 10
101.451
 20
20.3156
 30
0.000000
  70
    32
  0
VERTEX
  8
241
  5
4CF6
 10
101.465
 20
20.3226
 30
0.000000
  70
    32
  0
VERTEX
  8
241
  5
4CF7
 10
101.478
 20
20.3296
 30
0.000000
  70
    32
  0
VERTEX
  8
241
  5
4CF8
 10
101.492
 20
20.3365
 30
0.000000
  70
    32
  0
VERTEX
  8
241
  5
4CF9
 10
101.506
 20
20.3434
 30
0.000000
  70
    32
  0
VERTEX
  8
241
  5
4CFA
 10
101.520
 20
20.3502
 30
0.000000
  70
    32
  0
VERTEX
  8
241
  5
4CFB
 10
101.535
 20
20.3570
 30
0.000000
  70
    32
  0
VERTEX
  8
241
  5
4CFC
 10
101.549
 20
20.3637
 30
0.000000
  70
    32
  0
VERTEX
  8
241
  5
4CFD
 10
101.563
 20
20.3704
 30
0.000000
  70
    32
  0
VERTEX
  8
241
  5
4CFE
 10
101.578
 20
20.3770
 30
0.000000
  70
    32
  0
VERTEX
  8
241
  5
4CFF
 10
101.592
 20
20.3836
 30
0.000000
  70
    32
  0
VERTEX
  8
241
  5
4D00
 10
101.607
 20
20.3902
 30
0.000000
  70
    32
  0
VERTEX
  8
241
  5
4D01
 10
101.622
 20
20.3967
 30
0.000000
  70
    32
  0
VERTEX
  8
241
  5
4D02
 10
101.636
 20
20.4031
 30
0.000000
  70
    32
  0
VERTEX
  8
241
  5
4D03
 10
101.651
 20
20.4095
 30
0.000000
  70
    32
  0
VERTEX
  8
241
  5
4D04
 10
101.666
 20
20.4159
 30
0.000000
  70
    32
  0
VERTEX
  8
241
  5
4D05
 10
101.681
 20
20.4222
 30
0.000000
  70
    32
  0
VERTEX
  8
241
  5
4D06
 10
101.697
 20
20.4285
 30
0.000000
  70
    32
  0
VERTEX
  8
241
  5
4D07
 10
101.712
 20
20.4347
 30
0.000000
  70
    32
  0
VERTEX
  8
241
  5
4D08
 10
101.727
 20
20.4408
 30
0.000000
  70
    32
  0
VERTEX
  8
241
  5
4D09
 10
101.742
 20
20.4469
 30
0.000000
  70
    32
  0
VERTEX
  8
241
  5
4D0A
 10
101.758
 20
20.4530
 30
0.000000
  70
    32
  0
VERTEX
  8
241
  5
4D0B
 10
101.773
 20
20.4590
 30
0.000000
  70
    32
  0
VERTEX
  8
241
  5
4D0C
 10
101.789
 20
20.4649
 30
0.000000
  70
    32
  0
VERTEX
  8
241
  5
4D0D
 10
101.805
 20
20.4708
 30
0.000000
  70
    32
  0
VERTEX
  8
241
  5
4D0E
 10
101.820
 20
20.4767
 30
0.000000
  70
    32
  0
VERTEX
  8
241
  5
4D0F
 10
101.836
 20
20.4825
 30
0.000000
  70
    32
  0
VERTEX
  8
241
  5
4D10
 10
101.852
 20
20.4882
 30
0.000000
  70
    32
  0
VERTEX
  8
241
  5
4D11
 10
101.868
 20
20.4939
 30
0.000000
  70
    32
  0
VERTEX
  8
241
  5
4D12
 10
101.884
 20
20.4996
 30
0.000000
  70
    32
  0
VERTEX
  8
241
  5
4D13
 10
101.900
 20
20.5052
 30
0.000000
  70
    32
  0
VERTEX
  8
241
  5
4D14
 10
101.917
 20
20.5107
 30
0.000000
  70
    32
  0
VERTEX
  8
241
  5
4D15
 10
101.933
 20
20.5162
 30
0.000000
  70
    32
  0
VERTEX
  8
241
  5
4D16
 10
101.949
 20
20.5216
 30
0.000000
  70
    32
  0
VERTEX
  8
241
  5
4D17
 10
101.966
 20
20.5270
 30
0.000000
  70
    32
  0
VERTEX
  8
241
  5
4D18
 10
101.982
 20
20.5323
 30
0.000000
  70
    32
  0
VERTEX
  8
241
  5
4D19
 10
101.999
 20
20.5376
 30
0.000000
  70
    32
  0
VERTEX
  8
241
  5
4D1A
 10
102.016
 20
20.5428
 30
0.000000
  70
    32
  0
VERTEX
  8
241
  5
4D1B
 10
102.032
 20
20.5479
 30
0.000000
  70
    32
  0
VERTEX
  8
241
  5
4D1C
 10
102.049
 20
20.5530
 30
0.000000
  70
    32
  0
VERTEX
  8
241
  5
4D1D
 10
102.066
 20
20.5581
 30
0.000000
  70
    32
  0
VERTEX
  8
241
  5
4D1E
 10
102.083
 20
20.5631
 30
0.000000
  70
    32
  0
VERTEX
  8
241
  5
4D1F
 10
102.100
 20
20.5680
 30
0.000000
  70
    32
  0
VERTEX
  8
241
  5
4D20
 10
102.117
 20
20.5729
 30
0.000000
  70
    32
  0
VERTEX
  8
241
  5
4D21
 10
102.134
 20
20.5777
 30
0.000000
  70
    32
  0
VERTEX
  8
241
  5
4D22
 10
102.151
 20
20.5825
 30
0.000000
  70
    32
  0
VERTEX
  8
241
  5
4D23
 10
102.168
 20
20.5872
 30
0.000000
  70
    32
  0
VERTEX
  8
241
  5
4D24
 10
102.186
 20
20.5919
 30
0.000000
  70
    32
  0
VERTEX
  8
241
  5
4D25
 10
102.203
 20
20.5965
 30
0.000000
  70
    32
  0
VERTEX
  8
241
  5
4D26
 10
102.220
 20
20.6010
 30
0.000000
  70
    32
  0
VERTEX
  8
241
  5
4D27
 10
102.238
 20
20.6055
 30
0.000000
  70
    32
  0
VERTEX
  8
241
  5
4D28
 10
102.255
 20
20.6099
 30
0.000000
  70
    32
  0
VERTEX
  8
241
  5
4D29
 10
102.273
 20
20.6143
 30
0.000000
  70
    32
  0
VERTEX
  8
241
  5
4D2A
 10
102.291
 20
20.6186
 30
0.000000
  70
    32
  0
VERTEX
  8
241
  5
4D2B
 10
102.308
 20
20.6229
 30
0.000000
  70
    32
  0
VERTEX
  8
241
  5
4D2C
 10
102.326
 20
20.6271
 30
0.000000
  70
    32
  0
VERTEX
  8
241
  5
4D2D
 10
102.344
 20
20.6312
 30
0.000000
  70
    32
  0
VERTEX
  8
241
  5
4D2E
 10
102.362
 20
20.6353
 30
0.000000
  70
    32
  0
VERTEX
  8
241
  5
4D2F
 10
102.380
 20
20.6393
 30
0.000000
  70
    32
  0
VERTEX
  8
241
  5
4D30
 10
102.398
 20
20.6433
 30
0.000000
  70
    32
  0
VERTEX
  8
241
  5
4D31
 10
102.416
 20
20.6472
 30
0.000000
  70
    32
  0
VERTEX
  8
241
  5
4D32
 10
102.434
 20
20.6511
 30
0.000000
  70
    32
  0
VERTEX
  8
241
  5
4D33
 10
102.452
 20
20.6548
 30
0.000000
  70
    32
  0
VERTEX
  8
241
  5
4D34
 10
102.470
 20
20.6586
 30
0.000000
  70
    32
  0
VERTEX
  8
241
  5
4D35
 10
102.488
 20
20.6622
 30
0.000000
  70
    32
  0
VERTEX
  8
241
  5
4D36
 10
102.506
 20
20.6658
 30
0.000000
  70
    32
  0
VERTEX
  8
241
  5
4D37
 10
102.525
 20
20.6694
 30
0.000000
  70
    32
  0
VERTEX
  8
241
  5
4D38
 10
102.543
 20
20.6729
 30
0.000000
  70
    32
  0
VERTEX
  8
241
  5
4D39
 10
102.561
 20
20.6763
 30
0.000000
  70
    32
  0
VERTEX
  8
241
  5
4D3A
 10
102.580
 20
20.6797
 30
0.000000
  70
    32
  0
VERTEX
  8
241
  5
4D3B
 10
102.598
 20
20.6830
 30
0.000000
  70
    32
  0
VERTEX
  8
241
  5
4D3C
 10
102.617
 20
20.6862
 30
0.000000
  70
    32
  0
VERTEX
  8
241
  5
4D3D
 10
102.635
 20
20.6894
 30
0.000000
  70
    32
  0
VERTEX
  8
241
  5
4D3E
 10
102.654
 20
20.6926
 30
0.000000
  70
    32
  0
VERTEX
  8
241
  5
4D3F
 10
102.673
 20
20.6956
 30
0.000000
  70
    32
  0
VERTEX
  8
241
  5
4D40
 10
102.691
 20
20.6986
 30
0.000000
  70
    32
  0
VERTEX
  8
241
  5
4D41
 10
102.710
 20
20.7016
 30
0.000000
  70
    32
  0
VERTEX
  8
241
  5
4D42
 10
102.729
 20
20.7045
 30
0.000000
  70
    32
  0
VERTEX
  8
241
  5
4D43
 10
102.748
 20
20.7073
 30
0.000000
  70
    32
  0
VERTEX
  8
241
  5
4D44
 10
102.767
 20
20.7100
 30
0.000000
  70
    32
  0
VERTEX
  8
241
  5
4D45
 10
102.786
 20
20.7127
 30
0.000000
  70
    32
  0
VERTEX
  8
241
  5
4D46
 10
102.804
 20
20.7154
 30
0.000000
  70
    32
  0
VERTEX
  8
241
  5
4D47
 10
102.823
 20
20.7179
 30
0.000000
  70
    32
  0
VERTEX
  8
241
  5
4D48
 10
102.842
 20
20.7204
 30
0.000000
  70
    32
  0
VERTEX
  8
241
  5
4D49
 10
102.861
 20
20.7229
 30
0.000000
  70
    32
  0
VERTEX
  8
241
  5
4D4A
 10
102.880
 20
20.7253
 30
0.000000
  70
    32
  0
VERTEX
  8
241
  5
4D4B
 10
102.900
 20
20.7276
 30
0.000000
  70
    32
  0
VERTEX
  8
241
  5
4D4C
 10
102.919
 20
20.7299
 30
0.000000
  70
    32
  0
VERTEX
  8
241
  5
4D4D
 10
102.938
 20
20.7321
 30
0.000000
  70
    32
  0
VERTEX
  8
241
  5
4D4E
 10
102.957
 20
20.7342
 30
0.000000
  70
    32
  0
VERTEX
  8
241
  5
4D4F
 10
102.976
 20
20.7363
 30
0.000000
  70
    32
  0
VERTEX
  8
241
  5
4D50
 10
102.995
 20
20.7383
 30
0.000000
  70
    32
  0
VERTEX
  8
241
  5
4D51
 10
103.015
 20
20.7402
 30
0.000000
  70
    32
  0
VERTEX
  8
241
  5
4D52
 10
103.034
 20
20.7421
 30
0.000000
  70
    32
  0
VERTEX
  8
241
  5
4D53
 10
103.053
 20
20.7439
 30
0.000000
  70
    32
  0
VERTEX
  8
241
  5
4D54
 10
103.073
 20
20.7457
 30
0.000000
  70
    32
  0
VERTEX
  8
241
  5
4D55
 10
103.092
 20
20.7474
 30
0.000000
  70
    32
  0
VERTEX
  8
241
  5
4D56
 10
103.111
 20
20.7490
 30
0.000000
  70
    32
  0
VERTEX
  8
241
  5
4D57
 10
103.131
 20
20.7506
 30
0.000000
  70
    32
  0
VERTEX
  8
241
  5
4D58
 10
103.150
 20
20.7521
 30
0.000000
  70
    32
  0
VERTEX
  8
241
  5
4D59
 10
103.169
 20
20.7535
 30
0.000000
  70
    32
  0
VERTEX
  8
241
  5
4D5A
 10
103.189
 20
20.7549
 30
0.000000
  70
    32
  0
VERTEX
  8
241
  5
4D5B
 10
103.208
 20
20.7562
 30
0.000000
  70
    32
  0
VERTEX
  8
241
  5
4D5C
 10
103.228
 20
20.7575
 30
0.000000
  70
    32
  0
VERTEX
  8
241
  5
4D5D
 10
103.247
 20
20.7587
 30
0.000000
  70
    32
  0
VERTEX
  8
241
  5
4D5E
 10
103.267
 20
20.7598
 30
0.000000
  70
    32
  0
VERTEX
  8
241
  5
4D5F
 10
103.286
 20
20.7608
 30
0.000000
  70
    32
  0
VERTEX
  8
241
  5
4D60
 10
103.306
 20
20.7618
 30
0.000000
  70
    32
  0
VERTEX
  8
241
  5
4D61
 10
103.325
 20
20.7628
 30
0.000000
  70
    32
  0
VERTEX
  8
241
  5
4D62
 10
103.345
 20
20.7636
 30
0.000000
  70
    32
  0
VERTEX
  8
241
  5
4D63
 10
103.365
 20
20.7644
 30
0.000000
  70
    32
  0
VERTEX
  8
241
  5
4D64
 10
103.384
 20
20.7652
 30
0.000000
  70
    32
  0
VERTEX
  8
241
  5
4D65
 10
103.404
 20
20.7659
 30
0.000000
  70
    32
  0
VERTEX
  8
241
  5
4D66
 10
103.423
 20
20.7665
 30
0.000000
  70
    32
  0
VERTEX
  8
241
  5
4D67
 10
103.443
 20
20.7670
 30
0.000000
  70
    32
  0
VERTEX
  8
241
  5
4D68
 10
103.463
 20
20.7675
 30
0.000000
  70
    32
  0
VERTEX
  8
241
  5
4D69
 10
103.482
 20
20.7679
 30
0.000000
  70
    32
  0
VERTEX
  8
241
  5
4D6A
 10
103.502
 20
20.7683
 30
0.000000
  70
    32
  0
VERTEX
  8
241
  5
4D6B
 10
103.521
 20
20.7686
 30
0.000000
  70
    32
  0
VERTEX
  8
241
  5
4D6C
 10
103.541
 20
20.7688
 30
0.000000
  70
    32
  0
VERTEX
  8
241
  5
4D6D
 10
103.561
 20
20.7689
 30
0.000000
  70
    32
  0
VERTEX
  8
241
  5
4D6E
 10
103.580
 20
20.7690
 30
0.000000
  70
    32
  0
VERTEX
  8
241
  5
4D6F
 10
103.600
 20
20.7691
 30
0.000000
  70
    32
  0
SEQEND
  8
241
  5
4D70
  0
POLYLINE
  5
44DF
  8
241
 10
108.56602540379021
 20
20.76906523420325
 30
0.0
 66
     1
 70
     8
  0
VERTEX
  8
241
  5
4D71
 10
108.566
 20
20.7691
 30
0.000000
  70
    32
  0
VERTEX
  8
241
  5
4D72
 10
108.586
 20
20.7690
 30
0.000000
  70
    32
  0
VERTEX
  8
241
  5
4D73
 10
108.606
 20
20.7689
 30
0.000000
  70
    32
  0
VERTEX
  8
241
  5
4D74
 10
108.626
 20
20.7688
 30
0.000000
  70
    32
  0
VERTEX
  8
241
  5
4D75
 10
108.645
 20
20.7686
 30
0.000000
  70
    32
  0
VERTEX
  8
241
  5
4D76
 10
108.665
 20
20.7683
 30
0.000000
  70
    32
  0
VERTEX
  8
241
  5
4D77
 10
108.685
 20
20.7679
 30
0.000000
  70
    32
  0
VERTEX
  8
241
  5
4D78
 10
108.705
 20
20.7675
 30
0.000000
  70
    32
  0
VERTEX
  8
241
  5
4D79
 10
108.725
 20
20.7670
 30
0.000000
  70
    32
  0
VERTEX
  8
241
  5
4D7A
 10
108.745
 20
20.7665
 30
0.000000
  70
    32
  0
VERTEX
  8
241
  5
4D7B
 10
108.764
 20
20.7659
 30
0.000000
  70
    32
  0
VERTEX
  8
241
  5
4D7C
 10
108.784
 20
20.7652
 30
0.000000
  70
    32
  0
VERTEX
  8
241
  5
4D7D
 10
108.804
 20
20.7644
 30
0.000000
  70
    32
  0
VERTEX
  8
241
  5
4D7E
 10
108.824
 20
20.7636
 30
0.000000
  70
    32
  0
VERTEX
  8
241
  5
4D7F
 10
108.844
 20
20.7628
 30
0.000000
  70
    32
  0
VERTEX
  8
241
  5
4D80
 10
108.863
 20
20.7618
 30
0.000000
  70
    32
  0
VERTEX
  8
241
  5
4D81
 10
108.883
 20
20.7608
 30
0.000000
  70
    32
  0
VERTEX
  8
241
  5
4D82
 10
108.903
 20
20.7598
 30
0.000000
  70
    32
  0
VERTEX
  8
241
  5
4D83
 10
108.923
 20
20.7587
 30
0.000000
  70
    32
  0
VERTEX
  8
241
  5
4D84
 10
108.942
 20
20.7575
 30
0.000000
  70
    32
  0
VERTEX
  8
241
  5
4D85
 10
108.962
 20
20.7562
 30
0.000000
  70
    32
  0
VERTEX
  8
241
  5
4D86
 10
108.982
 20
20.7549
 30
0.000000
  70
    32
  0
VERTEX
  8
241
  5
4D87
 10
109.001
 20
20.7535
 30
0.000000
  70
    32
  0
VERTEX
  8
241
  5
4D88
 10
109.021
 20
20.7521
 30
0.000000
  70
    32
  0
VERTEX
  8
241
  5
4D89
 10
109.041
 20
20.7506
 30
0.000000
  70
    32
  0
VERTEX
  8
241
  5
4D8A
 10
109.060
 20
20.7490
 30
0.000000
  70
    32
  0
VERTEX
  8
241
  5
4D8B
 10
109.080
 20
20.7474
 30
0.000000
  70
    32
  0
VERTEX
  8
241
  5
4D8C
 10
109.099
 20
20.7457
 30
0.000000
  70
    32
  0
VERTEX
  8
241
  5
4D8D
 10
109.119
 20
20.7439
 30
0.000000
  70
    32
  0
VERTEX
  8
241
  5
4D8E
 10
109.139
 20
20.7421
 30
0.000000
  70
    32
  0
VERTEX
  8
241
  5
4D8F
 10
109.158
 20
20.7402
 30
0.000000
  70
    32
  0
VERTEX
  8
241
  5
4D90
 10
109.178
 20
20.7383
 30
0.000000
  70
    32
  0
VERTEX
  8
241
  5
4D91
 10
109.197
 20
20.7363
 30
0.000000
  70
    32
  0
VERTEX
  8
241
  5
4D92
 10
109.216
 20
20.7342
 30
0.000000
  70
    32
  0
VERTEX
  8
241
  5
4D93
 10
109.236
 20
20.7321
 30
0.000000
  70
    32
  0
VERTEX
  8
241
  5
4D94
 10
109.255
 20
20.7299
 30
0.000000
  70
    32
  0
VERTEX
  8
241
  5
4D95
 10
109.274
 20
20.7276
 30
0.000000
  70
    32
  0
VERTEX
  8
241
  5
4D96
 10
109.294
 20
20.7253
 30
0.000000
  70
    32
  0
VERTEX
  8
241
  5
4D97
 10
109.313
 20
20.7229
 30
0.000000
  70
    32
  0
VERTEX
  8
241
  5
4D98
 10
109.332
 20
20.7204
 30
0.000000
  70
    32
  0
VERTEX
  8
241
  5
4D99
 10
109.351
 20
20.7179
 30
0.000000
  70
    32
  0
VERTEX
  8
241
  5
4D9A
 10
109.371
 20
20.7154
 30
0.000000
  70
    32
  0
VERTEX
  8
241
  5
4D9B
 10
109.390
 20
20.7127
 30
0.000000
  70
    32
  0
VERTEX
  8
241
  5
4D9C
 10
109.409
 20
20.7100
 30
0.000000
  70
    32
  0
VERTEX
  8
241
  5
4D9D
 10
109.428
 20
20.7073
 30
0.000000
  70
    32
  0
VERTEX
  8
241
  5
4D9E
 10
109.447
 20
20.7045
 30
0.000000
  70
    32
  0
VERTEX
  8
241
  5
4D9F
 10
109.466
 20
20.7016
 30
0.000000
  70
    32
  0
VERTEX
  8
241
  5
4DA0
 10
109.485
 20
20.6986
 30
0.000000
  70
    32
  0
VERTEX
  8
241
  5
4DA1
 10
109.504
 20
20.6956
 30
0.000000
  70
    32
  0
VERTEX
  8
241
  5
4DA2
 10
109.523
 20
20.6926
 30
0.000000
  70
    32
  0
VERTEX
  8
241
  5
4DA3
 10
109.541
 20
20.6894
 30
0.000000
  70
    32
  0
VERTEX
  8
241
  5
4DA4
 10
109.560
 20
20.6862
 30
0.000000
  70
    32
  0
VERTEX
  8
241
  5
4DA5
 10
109.579
 20
20.6830
 30
0.000000
  70
    32
  0
VERTEX
  8
241
  5
4DA6
 10
109.598
 20
20.6797
 30
0.000000
  70
    32
  0
VERTEX
  8
241
  5
4DA7
 10
109.616
 20
20.6763
 30
0.000000
  70
    32
  0
VERTEX
  8
241
  5
4DA8
 10
109.635
 20
20.6729
 30
0.000000
  70
    32
  0
VERTEX
  8
241
  5
4DA9
 10
109.654
 20
20.6694
 30
0.000000
  70
    32
  0
VERTEX
  8
241
  5
4DAA
 10
109.672
 20
20.6658
 30
0.000000
  70
    32
  0
VERTEX
  8
241
  5
4DAB
 10
109.690
 20
20.6622
 30
0.000000
  70
    32
  0
VERTEX
  8
241
  5
4DAC
 10
109.709
 20
20.6586
 30
0.000000
  70
    32
  0
VERTEX
  8
241
  5
4DAD
 10
109.727
 20
20.6548
 30
0.000000
  70
    32
  0
VERTEX
  8
241
  5
4DAE
 10
109.746
 20
20.6511
 30
0.000000
  70
    32
  0
VERTEX
  8
241
  5
4DAF
 10
109.764
 20
20.6472
 30
0.000000
  70
    32
  0
VERTEX
  8
241
  5
4DB0
 10
109.782
 20
20.6433
 30
0.000000
  70
    32
  0
VERTEX
  8
241
  5
4DB1
 10
109.800
 20
20.6393
 30
0.000000
  70
    32
  0
VERTEX
  8
241
  5
4DB2
 10
109.818
 20
20.6353
 30
0.000000
  70
    32
  0
VERTEX
  8
241
  5
4DB3
 10
109.836
 20
20.6312
 30
0.000000
  70
    32
  0
VERTEX
  8
241
  5
4DB4
 10
109.854
 20
20.6271
 30
0.000000
  70
    32
  0
VERTEX
  8
241
  5
4DB5
 10
109.872
 20
20.6229
 30
0.000000
  70
    32
  0
VERTEX
  8
241
  5
4DB6
 10
109.890
 20
20.6186
 30
0.000000
  70
    32
  0
VERTEX
  8
241
  5
4DB7
 10
109.908
 20
20.6143
 30
0.000000
  70
    32
  0
VERTEX
  8
241
  5
4DB8
 10
109.926
 20
20.6099
 30
0.000000
  70
    32
  0
VERTEX
  8
241
  5
4DB9
 10
109.944
 20
20.6055
 30
0.000000
  70
    32
  0
VERTEX
  8
241
  5
4DBA
 10
109.961
 20
20.6010
 30
0.000000
  70
    32
  0
VERTEX
  8
241
  5
4DBB
 10
109.979
 20
20.5965
 30
0.000000
  70
    32
  0
VERTEX
  8
241
  5
4DBC
 10
109.996
 20
20.5919
 30
0.000000
  70
    32
  0
VERTEX
  8
241
  5
4DBD
 10
110.014
 20
20.5872
 30
0.000000
  70
    32
  0
VERTEX
  8
241
  5
4DBE
 10
110.031
 20
20.5825
 30
0.000000
  70
    32
  0
VERTEX
  8
241
  5
4DBF
 10
110.049
 20
20.5777
 30
0.000000
  70
    32
  0
VERTEX
  8
241
  5
4DC0
 10
110.066
 20
20.5729
 30
0.000000
  70
    32
  0
VERTEX
  8
241
  5
4DC1
 10
110.083
 20
20.5680
 30
0.000000
  70
    32
  0
VERTEX
  8
241
  5
4DC2
 10
110.100
 20
20.5631
 30
0.000000
  70
    32
  0
VERTEX
  8
241
  5
4DC3
 10
110.118
 20
20.5581
 30
0.000000
  70
    32
  0
VERTEX
  8
241
  5
4DC4
 10
110.135
 20
20.5530
 30
0.000000
  70
    32
  0
VERTEX
  8
241
  5
4DC5
 10
110.152
 20
20.5479
 30
0.000000
  70
    32
  0
VERTEX
  8
241
  5
4DC6
 10
110.168
 20
20.5428
 30
0.000000
  70
    32
  0
VERTEX
  8
241
  5
4DC7
 10
110.185
 20
20.5376
 30
0.000000
  70
    32
  0
VERTEX
  8
241
  5
4DC8
 10
110.202
 20
20.5323
 30
0.000000
  70
    32
  0
VERTEX
  8
241
  5
4DC9
 10
110.219
 20
20.5270
 30
0.000000
  70
    32
  0
VERTEX
  8
241
  5
4DCA
 10
110.235
 20
20.5216
 30
0.000000
  70
    32
  0
VERTEX
  8
241
  5
4DCB
 10
110.252
 20
20.5162
 30
0.000000
  70
    32
  0
VERTEX
  8
241
  5
4DCC
 10
110.268
 20
20.5107
 30
0.000000
  70
    32
  0
VERTEX
  8
241
  5
4DCD
 10
110.285
 20
20.5052
 30
0.000000
  70
    32
  0
VERTEX
  8
241
  5
4DCE
 10
110.301
 20
20.4996
 30
0.000000
  70
    32
  0
VERTEX
  8
241
  5
4DCF
 10
110.317
 20
20.4939
 30
0.000000
  70
    32
  0
VERTEX
  8
241
  5
4DD0
 10
110.334
 20
20.4882
 30
0.000000
  70
    32
  0
VERTEX
  8
241
  5
4DD1
 10
110.350
 20
20.4825
 30
0.000000
  70
    32
  0
VERTEX
  8
241
  5
4DD2
 10
110.366
 20
20.4767
 30
0.000000
  70
    32
  0
VERTEX
  8
241
  5
4DD3
 10
110.382
 20
20.4708
 30
0.000000
  70
    32
  0
VERTEX
  8
241
  5
4DD4
 10
110.398
 20
20.4649
 30
0.000000
  70
    32
  0
VERTEX
  8
241
  5
4DD5
 10
110.413
 20
20.4590
 30
0.000000
  70
    32
  0
VERTEX
  8
241
  5
4DD6
 10
110.429
 20
20.4530
 30
0.000000
  70
    32
  0
VERTEX
  8
241
  5
4DD7
 10
110.445
 20
20.4469
 30
0.000000
  70
    32
  0
VERTEX
  8
241
  5
4DD8
 10
110.460
 20
20.4408
 30
0.000000
  70
    32
  0
VERTEX
  8
241
  5
4DD9
 10
110.476
 20
20.4347
 30
0.000000
  70
    32
  0
VERTEX
  8
241
  5
4DDA
 10
110.491
 20
20.4285
 30
0.000000
  70
    32
  0
VERTEX
  8
241
  5
4DDB
 10
110.506
 20
20.4222
 30
0.000000
  70
    32
  0
VERTEX
  8
241
  5
4DDC
 10
110.522
 20
20.4159
 30
0.000000
  70
    32
  0
VERTEX
  8
241
  5
4DDD
 10
110.537
 20
20.4095
 30
0.000000
  70
    32
  0
VERTEX
  8
241
  5
4DDE
 10
110.552
 20
20.4031
 30
0.000000
  70
    32
  0
VERTEX
  8
241
  5
4DDF
 10
110.567
 20
20.3967
 30
0.000000
  70
    32
  0
VERTEX
  8
241
  5
4DE0
 10
110.582
 20
20.3902
 30
0.000000
  70
    32
  0
VERTEX
  8
241
  5
4DE1
 10
110.596
 20
20.3836
 30
0.000000
  70
    32
  0
VERTEX
  8
241
  5
4DE2
 10
110.611
 20
20.3770
 30
0.000000
  70
    32
  0
VERTEX
  8
241
  5
4DE3
 10
110.626
 20
20.3704
 30
0.000000
  70
    32
  0
VERTEX
  8
241
  5
4DE4
 10
110.640
 20
20.3637
 30
0.000000
  70
    32
  0
VERTEX
  8
241
  5
4DE5
 10
110.655
 20
20.3570
 30
0.000000
  70
    32
  0
VERTEX
  8
241
  5
4DE6
 10
110.669
 20
20.3502
 30
0.000000
  70
    32
  0
VERTEX
  8
241
  5
4DE7
 10
110.683
 20
20.3434
 30
0.000000
  70
    32
  0
VERTEX
  8
241
  5
4DE8
 10
110.698
 20
20.3365
 30
0.000000
  70
    32
  0
VERTEX
  8
241
  5
4DE9
 10
110.712
 20
20.3296
 30
0.000000
  70
    32
  0
VERTEX
  8
241
  5
4DEA
 10
110.726
 20
20.3226
 30
0.000000
  70
    32
  0
VERTEX
  8
241
  5
4DEB
 10
110.740
 20
20.3156
 30
0.000000
  70
    32
  0
VERTEX
  8
241
  5
4DEC
 10
110.753
 20
20.3085
 30
0.000000
  70
    32
  0
VERTEX
  8
241
  5
4DED
 10
110.767
 20
20.3014
 30
0.000000
  70
    32
  0
VERTEX
  8
241
  5
4DEE
 10
110.781
 20
20.2943
 30
0.000000
  70
    32
  0
VERTEX
  8
241
  5
4DEF
 10
110.794
 20
20.2871
 30
0.000000
  70
    32
  0
VERTEX
  8
241
  5
4DF0
 10
110.808
 20
20.2799
 30
0.000000
  70
    32
  0
VERTEX
  8
241
  5
4DF1
 10
110.821
 20
20.2726
 30
0.000000
  70
    32
  0
SEQEND
  8
241
  5
4DF2
  0
ARC
  5
44E3
  8
240
  6
CONTINUOUS
 10
80.500000000004647
 20
21.40000000000148
 30
0.0
 40
0.5
 50
359.99999998713531
 51
89.999999987135297
1001
GRPNAME
1000
PASTMD3D
  0
LINE
  5
44E4
  8
240
  6
CONTINUOUS
 10
79.000000000002245
 20
21.90000000000148
 30
0.0
 11
80.500000000004647
 21
21.90000000000148
 31
0.0
1001
GRPNAME
1000
PASTMD3D
  0
LINE
  5
44E5
  8
243
 10
125.0000000000009
 20
-10.00000000000054
 30
0.0
 11
80.366025403785244
 21
-10.00000000000054
 31
0.0
  0
LINE
  5
44E6
  8
243
 10
125.0000000000009
 20
9.9999999999994884
 30
0.0
 11
80.36602540378513
 21
9.9999999999994582
 31
0.0
  0
LINE
  5
4513
  8
240
 10
79.000000000002217
 20
25.171572875251339
 30
0.0
 11
79.000000000002217
 21
21.90000000000148
 31
0.0
  0
LINE
  5
4519
  8
245
 10
-104.3360820532293
 20
-0.0000000000002558
 30
0.0
 11
130.4641036184108
 21
-0.0000000000002558
 31
0.0
  0
LINE
  5
4638
  8
250
 10
0.0000000000098566
 20
35.425000000000068
 30
0.0
 11
0.0000000000098583
 21
64.0
 31
0.0
  0
LINE
  5
4639
  8
250
 10
125.00000000000649
 20
20.422649730775639
 30
0.0
 11
125.00000000000649
 21
64.0
 31
0.0
  0
LINE
  5
463A
  8
250
 10
2.2300000000098579
 20
63.0
 30
0.0
 11
122.7700000000065
 21
63.0
 31
0.0
  0
LINE
  5
463F
  8
250
 10
125.0000000000009
 20
20.422649730809781
 30
0.0
 11
125.0000000000009
 21
49.999999999999972
 31
0.0
  0
LINE
  5
4640
  8
250
 10
80.366025403785187
 20
10.49999999999747
 30
0.0
 11
80.366025403785187
 21
49.999999999999972
 31
0.0
  0
LINE
  5
4641
  8
250
 10
122.77000000000091
 20
48.999999999999972
 30
0.0
 11
82.596025403785191
 21
48.999999999999972
 31
0.0
  0
LINE
  5
4645
  8
250
 10
125.0000000000008
 20
20.422649730809781
 30
0.0
 11
125.0000000000008
 21
56.999999999999972
 31
0.0
  0
LINE
  5
4646
  8
250
 10
40.000000000000988
 20
10.99999999999752
 30
0.0
 11
40.000000000000988
 21
56.999999999999972
 31
0.0
  0
LINE
  5
4647
  8
250
 10
122.77000000000081
 20
55.999999999999972
 30
0.0
 11
42.230000000000992
 21
55.999999999999972
 31
0.0
  0
LINE
  5
464B
  8
250
 10
125.5000000000009
 20
9.9999999999994884
 30
0.0
 11
138.00000000000091
 21
9.9999999999994866
 31
0.0
  0
LINE
  5
464C
  8
250
 10
125.5000000000008
 20
-10.00000000000054
 30
0.0
 11
138.00000000000091
 21
-10.00000000000054
 31
0.0
  0
LINE
  5
464D
  8
250
 10
137.00000000000091
 20
7.7699999999994862
 30
0.0
 11
137.00000000000091
 21
-7.7700000000005414
 31
0.0
  0
LINE
  5
4651
  8
250
 10
85.499999999999403
 20
25.35000000000025
 30
0.0
 11
144.29774686527651
 21
25.350000000000229
 31
0.0
  0
LINE
  5
4652
  8
250
 10
85.499999999978215
 20
-25.35000000000068
 30
0.0
 11
144.29774686527651
 21
-25.350000000000691
 31
0.0
  0
LINE
  5
4653
  8
250
 10
143.29774686527651
 20
23.120000000000228
 30
0.0
 11
143.29774686527651
 21
-23.12000000000069
 31
0.0
  0
TEXT
  5
4659
  8
250
 10
-67.354401241801455
 20
-42.570345964537843
 30
0.0
 40
3.0
  1
BBT50
  7
YOKO
1001
ITEMNAME
1000
LNSP3
  0
LINE
  5
465A
  8
250
 10
122.7700000000065
 20
63.37166666666667
 30
0.0
 11
125.00000000000649
 21
63.0
 31
0.0
  0
LINE
  5
465B
  8
250
 10
122.7700000000065
 20
62.62833333333333
 30
0.0
 11
125.00000000000649
 21
63.0
 31
0.0
  0
LINE
  5
465C
  8
250
 10
125.00000000000649
 20
63.0
 30
0.0
 11
122.7700000000065
 21
63.0
 31
0.0
  0
TEXT
  5
465D
  8
250
 10
91.816346035226374
 20
49.999999999999972
 30
0.0
 40
2.7999999999999989
  1
最低把握長45
  0
LINE
  5
465E
  8
250
 10
82.596025403785191
 20
48.628333333333302
 30
0.0
 11
80.366025403785187
 21
48.999999999999972
 31
0.0
  0
LINE
  5
465F
  8
250
 10
82.596025403785191
 20
49.371666666666641
 30
0.0
 11
80.366025403785187
 21
48.999999999999972
 31
0.0
  0
LINE
  5
4660
  8
250
 10
80.366025403785187
 20
48.999999999999972
 30
0.0
 11
82.596025403785191
 21
48.999999999999972
 31
0.0
  0
LINE
  5
4661
  8
250
 10
122.77000000000091
 20
49.371666666666641
 30
0.0
 11
125.0000000000009
 21
48.999999999999972
 31
0.0
  0
LINE
  5
4662
  8
250
 10
122.77000000000091
 20
48.628333333333302
 30
0.0
 11
125.0000000000009
 21
48.999999999999972
 31
0.0
  0
LINE
  5
4663
  8
250
 10
125.0000000000009
 20
48.999999999999972
 30
0.0
 11
122.77000000000091
 21
48.999999999999972
 31
0.0
  0
TEXT
  5
4664
  8
250
 10
71.633333333334264
 20
56.999999999999972
 30
0.0
 40
2.7999999999999989
  1
最大挿入量85
  0
LINE
  5
4665
  8
250
 10
122.77000000000081
 20
56.371666666666641
 30
0.0
 11
125.0000000000008
 21
55.999999999999972
 31
0.0
  0
LINE
  5
4666
  8
250
 10
122.77000000000081
 20
55.628333333333302
 30
0.0
 11
125.0000000000008
 21
55.999999999999972
 31
0.0
  0
LINE
  5
4667
  8
250
 10
125.0000000000008
 20
55.999999999999972
 30
0.0
 11
122.77000000000081
 21
55.999999999999972
 31
0.0
  0
TEXT
  5
4668
  8
250
 10
58.300000000008168
 20
64.000000000000014
 30
0.0
 40
2.7999999999999989
  1
125
  0
LINE
  5
4669
  8
250
 10
42.230000000000992
 20
55.628333333333302
 30
0.0
 11
40.000000000000988
 21
55.999999999999972
 31
0.0
  0
LINE
  5
466A
  8
250
 10
42.230000000000992
 20
56.371666666666641
 30
0.0
 11
40.000000000000988
 21
55.999999999999972
 31
0.0
  0
LINE
  5
466B
  8
250
 10
40.000000000000988
 20
55.999999999999972
 30
0.0
 11
42.230000000000992
 21
55.999999999999972
 31
0.0
  0
LINE
  5
466C
  8
250
 10
2.2300000000098579
 20
62.62833333333333
 30
0.0
 11
0.0000000000098583
 21
63.0
 31
0.0
  0
LINE
  5
466D
  8
250
 10
2.2300000000098579
 20
63.37166666666667
 30
0.0
 11
0.0000000000098583
 21
63.0
 31
0.0
  0
LINE
  5
466E
  8
250
 10
0.0000000000098583
 20
63.0
 30
0.0
 11
2.2300000000098579
 21
63.0
 31
0.0
  0
TEXT
  5
466F
  8
250
 10
136.00000000000091
 20
-3.9333333333338381
 30
0.0
 40
2.7999999999999989
  1
\U+220520
 50
90.0
  0
LINE
  5
4670
  8
250
 10
137.37166666666761
 20
-7.7700000000005414
 30
0.0
 11
137.00000000000091
 21
-10.00000000000054
 31
0.0
  0
LINE
  5
4671
  8
250
 10
136.62833333333421
 20
-7.7700000000005414
 30
0.0
 11
137.00000000000091
 21
-10.00000000000054
 31
0.0
  0
LINE
  5
4672
  8
250
 10
137.00000000000091
 20
-10.00000000000054
 30
0.0
 11
137.00000000000091
 21
-7.7700000000005414
 31
0.0
  0
LINE
  5
4673
  8
250
 10
136.62833333333421
 20
7.7699999999994862
 30
0.0
 11
137.00000000000091
 21
9.9999999999994866
 31
0.0
  0
LINE
  5
4674
  8
250
 10
137.37166666666761
 20
7.7699999999994862
 30
0.0
 11
137.00000000000091
 21
9.9999999999994866
 31
0.0
  0
LINE
  5
4675
  8
250
 10
137.00000000000091
 20
9.9999999999994866
 30
0.0
 11
137.00000000000091
 21
7.7699999999994862
 31
0.0
  0
TEXT
  5
4676
  8
250
 10
142.29774686527651
 20
-5.9333333333335387
 30
0.0
 40
2.7999999999999989
  1
\U+220550.7
 50
90.0
  0
LINE
  5
4677
  8
250
 10
143.66941353194321
 20
-23.12000000000069
 30
0.0
 11
143.29774686527651
 21
-25.350000000000691
 31
0.0
  0
LINE
  5
4678
  8
250
 10
142.92608019860981
 20
-23.12000000000069
 30
0.0
 11
143.29774686527651
 21
-25.350000000000691
 31
0.0
  0
LINE
  5
4679
  8
250
 10
143.29774686527651
 20
-25.350000000000691
 30
0.0
 11
143.29774686527651
 21
-23.12000000000069
 31
0.0
  0
LINE
  5
467A
  8
250
 10
142.92608019860981
 20
23.120000000000228
 30
0.0
 11
143.29774686527651
 21
25.350000000000229
 31
0.0
  0
LINE
  5
467B
  8
250
 10
143.66941353194321
 20
23.120000000000228
 30
0.0
 11
143.29774686527651
 21
25.350000000000229
 31
0.0
  0
LINE
  5
467C
  8
250
 10
143.29774686527651
 20
25.350000000000229
 30
0.0
 11
143.29774686527651
 21
23.120000000000228
 31
0.0
  0
LINE
  5
467D
  8
250
 10
-43.350482547834112
 20
-30.696895445546861
 30
0.0
 11
-50.782972670372892
 21
-43.570345964537829
 31
0.0
1001
ACAD
1000
DSTYLE
1002
{
1070
    78
1070
     8
1070
   140
1040
3.0
1002
}
  0
LINE
  5
467E
  8
250
 10
-43.672355322907329
 20
-30.511062112213519
 30
0.0
 11
-42.23548254783411
 21
-28.765658795107559
 31
0.0
  0
LINE
  5
467F
  8
250
 10
-43.028609772760888
 20
-30.882728778880189
 30
0.0
 11
-42.23548254783411
 21
-28.765658795107559
 31
0.0
  0
LINE
  5
4680
  8
250
 10
-42.23548254783411
 20
-28.765658795107559
 30
0.0
 11
-43.350482547834112
 21
-30.696895445546861
 31
0.0
  0
TEXT
  5
46D1
  8
241
 10
-64.745533141678607
 20
76.999999999999744
 30
0.0
 40
5.0
  1
BBT50-HMC20S-125NRA
  7
YOKO
  0
LINE
  5
46DA
  8
240
 10
0.0
 20
34.924999999999983
 30
0.0
 11
1.499999999999164
 21
34.924999999999983
 31
0.0
  0
LINE
  5
46DB
  8
240
 10
0.0
 20
-34.92500000000004
 30
0.0
 11
1.4999999999984079
 21
-34.92500000000004
 31
0.0
  0
VIEWPORT
  5
22
 67
     1
  8
0
 10
261.51769911504419
 20
148.5
 30
0.0
 40
523.0353982300885
 41
297.0
 68
     1
 69
     1
1001
ACAD
1000
MVIEW
1002
{
1070
    16
1010
0.0
1020
0.0
1030
0.0
1010
0.0
1020
0.0
1030
1.0
1040
0.0
1040
297.0
1040
261.51769911504419
1040
148.5
1040
50.0
1040
0.0
1040
0.0
1070
     0
1070
   100
1070
     1
1070
     1
1070
     0
1070
     0
1070
     0
1070
     0
1040
0.0
1040
0.0
1040
0.0
1040
1.0
1040
1.0
1040
10.0
1040
10.0
1070
     0
1002
{
1002
}
1002
}
1001
GENIUS_GENODEF_13
1002
{
1000
HIER
1070
     0
1002
}
1002
{
1000
MANEDIT
1070
     0
1002
}
1002
{
1000
NOSEL
1070
     0
1002
}
1002
{
1000
BEHIND
1070
     0
1002
}
1002
{
1000
OTHER
1070
     0
1002
}
1002
{
1000
REACTOR
1002
}
1001
GENIUS_GENOBJ-N-SDF_13
1002
{
1000
OWNER
1000
GEN
1002
}
1001
GENIUS_GENSCREG_15
1000
PF
1040
1.0
1000
DF
1040
1.0
1000
MIN
1011
0.0
1021
0.0
1031
0.0
1021
0.0
1031
0.0
1000
MAX
1011
523.0353982300885
1021
0.0
1031
0.0
1021
297.0
1031
0.0
1000
FLAGS
1070
     4
  0
ENDSEC
  0
EOF
