  0
SECTION
  2
HEADER
  9
$ACADVER
  1
AC1009
  9
$INSBASE
 10
0.0
 20
0.0
 30
0.0
  9
$EXTMIN
 10
-105.8349019972264
 20
-54.283582511617738
 30
0.0
  9
$EXTMAX
 10
106.0
 20
85.468000000000004
 30
0.0
  9
$LIMMIN
 10
0.0
 20
0.0
  9
$LIMMAX
 10
297.0
 20
210.0
  9
$ORTHOMODE
 70
     1
  9
$REGENMODE
 70
     1
  9
$FILLMODE
 70
     1
  9
$QTEXTMODE
 70
     0
  9
$MIRRTEXT
 70
     1
  9
$DRAGMODE
 70
     2
  9
$LTSCALE
 40
10.0
  9
$OSMODE
 70
    39
  9
$ATTMODE
 70
     1
  9
$TEXTSIZE
 40
3.0
  9
$TRACEWID
 40
1.0
  9
$TEXTSTYLE
  7
YOKO
  9
$CLAYER
  8
240
  9
$CELTYPE
  6
BYLAYER
  9
$CECOLOR
 62
   256
  9
$DIMSCALE
 40
1.0
  9
$DIMASZ
 40
2.2299999999999991
  9
$DIMEXO
 40
0.5
  9
$DIMDLI
 40
7.0
  9
$DIMRND
 40
0.0
  9
$DIMDLE
 40
0.0
  9
$DIMEXE
 40
1.0
  9
$DIMTP
 40
0.0
  9
$DIMTM
 40
0.01
  9
$DIMTXT
 40
2.7999999999999989
  9
$DIMCEN
 40
0.0
  9
$DIMTSZ
 40
0.0
  9
$DIMTOL
 70
     0
  9
$DIMLIM
 70
     0
  9
$DIMTIH
 70
     0
  9
$DIMTOH
 70
     0
  9
$DIMSE1
 70
     0
  9
$DIMSE2
 70
     0
  9
$DIMTAD
 70
     3
  9
$DIMZIN
 70
     9
  9
$DIMBLK
  1
OPEN
  9
$DIMASO
 70
     1
  9
$DIMSHO
 70
     1
  9
$DIMPOST
  1

  9
$DIMAPOST
  1

  9
$DIMALT
 70
     0
  9
$DIMALTD
 70
     2
  9
$DIMALTF
 40
25.399999999999999
  9
$DIMLFAC
 40
1.0
  9
$DIMTOFL
 70
     1
  9
$DIMTVP
 40
0.0
  9
$DIMTIX
 70
     1
  9
$DIMSOXD
 70
     0
  9
$DIMSAH
 70
     0
  9
$DIMBLK1
  1

  9
$DIMBLK2
  1

  9
$DIMSTYLE
  2
BIGT
  9
$DIMCLRD
 70
   256
  9
$DIMCLRE
 70
   256
  9
$DIMCLRT
 70
    40
  9
$DIMTFAC
 40
1.0
  9
$DIMGAP
 40
1.0
  9
$LUNITS
 70
     2
  9
$LUPREC
 70
     3
  9
$SKETCHINC
 40
1.0
  9
$FILLETRAD
 40
0.0
  9
$AUNITS
 70
     0
  9
$AUPREC
 70
     3
  9
$MENU
  1
.
  9
$ELEVATION
 40
0.0
  9
$PELEVATION
 40
0.0
  9
$THICKNESS
 40
0.0
  9
$LIMCHECK
 70
     0
  9
$BLIPMODE
 70
     0
  9
$CHAMFERA
 40
0.25
  9
$CHAMFERB
 40
0.25
  9
$SKPOLY
 70
     0
  9
$TDCREATE
 40
2456211.6573621989
  9
$TDUPDATE
 40
2456211.67172596
  9
$TDINDWG
 40
0.0075409144
  9
$TDUSRTIMER
 40
0.0075409144
  9
$USRTIMER
 70
     1
  9
$ANGBASE
 50
0.0
  9
$ANGDIR
 70
     0
  9
$PDMODE
 70
     1
  9
$PDSIZE
 40
0.0
  9
$PLINEWID
 40
0.0
  9
$COORDS
 70
     2
  9
$SPLFRAME
 70
     0
  9
$SPLINETYPE
 70
     6
  9
$SPLINESEGS
 70
     4
  9
$ATTDIA
 70
     1
  9
$ATTREQ
 70
     1
  9
$HANDLING
 70
     1
  9
$HANDSEED
  5
1756
  9
$SURFTAB1
 70
     6
  9
$SURFTAB2
 70
     6
  9
$SURFTYPE
 70
     6
  9
$SURFU
 70
     6
  9
$SURFV
 70
     6
  9
$UCSNAME
  2

  9
$UCSORG
 10
0.0
 20
0.0
 30
0.0
  9
$UCSXDIR
 10
1.0
 20
0.0
 30
0.0
  9
$UCSYDIR
 10
0.0
 20
1.0
 30
0.0
  9
$PUCSNAME
  2

  9
$PUCSORG
 10
0.0
 20
0.0
 30
0.0
  9
$PUCSXDIR
 10
1.0
 20
0.0
 30
0.0
  9
$PUCSYDIR
 10
0.0
 20
1.0
 30
0.0
  9
$USERI1
 70
     1
  9
$USERI2
 70
     0
  9
$USERI3
 70
     0
  9
$USERI4
 70
     0
  9
$USERI5
 70
     0
  9
$USERR1
 40
0.0
  9
$USERR2
 40
0.0
  9
$USERR3
 40
0.0
  9
$USERR4
 40
0.0
  9
$USERR5
 40
0.0
  9
$WORLDVIEW
 70
     1
  9
$SHADEDGE
 70
     3
  9
$SHADEDIF
 70
    70
  9
$TILEMODE
 70
     1
  9
$MAXACTVP
 70
    16
  9
$PLIMCHECK
 70
     0
  9
$PEXTMIN
 10
1.0000000000000000E+020
 20
1.0000000000000000E+020
 30
1.0000000000000000E+020
  9
$PEXTMAX
 10
-1.0000000000000000E+020
 20
-1.0000000000000000E+020
 30
-1.0000000000000000E+020
  9
$PLIMMIN
 10
0.0
 20
0.0
  9
$PLIMMAX
 10
420.0
 20
297.0
  9
$UNITMODE
 70
     0
  9
$VISRETAIN
 70
     1
  9
$PLINEGEN
 70
     0
  9
$PSLTSCALE
 70
     1
  0
ENDSEC
  0
SECTION
  2
TABLES
  0
TABLE
  2
VPORT
 70
     3
  0
VPORT
  2
*ACTIVE
 70
     0
 10
0.0
 20
0.0
 11
1.0
 21
1.0
 12
0.0815740050533123
 22
15.590744403413
 13
0.0
 23
0.0
 14
7.0
 24
7.0
 15
7.0
 25
7.0
 16
0.0
 26
0.0
 36
1.0
 17
0.0
 27
0.0
 37
0.0
 40
144.24794184478031
 41
1.4753018660812289
 42
50.0
 43
0.0
 44
0.0
 50
0.0
 51
0.0
 71
     0
 72
  2000
 73
     1
 74
     0
 75
     0
 76
     1
 77
     0
 78
     0
  0
ENDTAB
  0
TABLE
  2
LTYPE
 70
    13
  0
LTYPE
  2
CONTINUOUS
 70
     0
  3
Solid line
 72
    65
 73
     0
 40
0.0
  0
LTYPE
  2
CENTER2
 70
     0
  3
___ _ ___ _ ___ _ ___ _ ___ _ ___ _ ___ _ ___ _
 72
    65
 73
     4
 40
1.125
 49
0.75
 49
-0.125
 49
0.125
 49
-0.125
  0
LTYPE
  2
HIDDEN2
 70
     0
  3
_ _ _ _ _ _ _ _ _ _ _ _ _ _ _ _ _ _ _ _ _ _ _ _
 72
    65
 73
     2
 40
0.1875
 49
0.125
 49
-0.0625
  0
LTYPE
  2
PHANTOM2
 70
     0
  3
___ _ _ ___ _ _ ___ _ _ ___ _ _ ___ _ _ ___ _ _
 72
    65
 73
     6
 40
1.25
 49
0.625
 49
-0.125
 49
0.125
 49
-0.125
 49
0.125
 49
-0.125
  0
LTYPE
  2
CENTER
 70
     0
  3
____ _ ____ _ ____ _ ____ _ ____ _ ____ _ ____ 
 72
    65
 73
     4
 40
2.0
 49
1.25
 49
-0.25
 49
0.25
 49
-0.25
  0
LTYPE
  2
AM_ISO02W050
 70
     0
  3
__ __ __ __ __ __ __ __ __ __ __ __ __ __ __
 72
    65
 73
     2
 40
7.5
 49
6.0
 49
-1.5
  0
LTYPE
  2
AMCONSTR
 70
     0
  3
_______________________
 72
    65
 73
     2
 40
9999.0
 49
9999.0
 49
0.0
  0
LTYPE
  2
ACISOWELD
 70
     0
  3
_ _ _ _ _
 72
    65
 73
     2
 40
2.0
 49
2.0
 49
-1.0
  0
LTYPE
  2
ACISOTGB
 70
     0
  3
__ . . __ . .
 72
    65
 73
     6
 40
9.0
 49
4.0
 49
-1.0
 49
1.0
 49
-1.0
 49
1.0
 49
-1.0
  0
LTYPE
  2
ACISOTGL
 70
     0
  3
_ _ _ _ _
 72
    65
 73
     2
 40
3.0
 49
2.0
 49
-1.0
  0
LTYPE
  2
ACJISTGB
 70
     0
  3
__ . . __ . .
 72
    65
 73
     6
 40
9.0
 49
4.0
 49
-1.0
 49
1.0
 49
-1.0
 49
1.0
 49
-1.0
  0
LTYPE
  2
ACJISTGL
 70
     0
  3
_ _ _ _ _
 72
    65
 73
     2
 40
3.0
 49
2.0
 49
-1.0
  0
LTYPE
  2
HIDDEN
 70
     0
  3
Hidden __ __ __ __ __ __ __ __ __ __ __ __ __ _
 72
    65
 73
     2
 40
9.5249999999999986
 49
6.3499999999999988
 49
-3.1749999999999989
  0
ENDTAB
  0
TABLE
  2
LAYER
 70
     8
  0
LAYER
  2
0
 70
     0
 62
     7
  6
CONTINUOUS
  0
LAYER
  2
DEFPOINTS
 70
     0
 62
     7
  6
CONTINUOUS
  0
LAYER
  2
245
 70
     0
 62
     2
  6
CENTER2
  0
LAYER
  2
240
 70
     0
 62
     4
  6
CONTINUOUS
  0
LAYER
  2
241
 70
     0
 62
   211
  6
CONTINUOUS
  0
LAYER
  2
243
 70
     0
 62
   211
  6
HIDDEN2
  0
LAYER
  2
250
 70
     0
 62
     3
  6
CONTINUOUS
  0
LAYER
  2
251
 70
     0
 62
    40
  6
CONTINUOUS
  0
ENDTAB
  0
TABLE
  2
STYLE
 70
     6
  0
STYLE
  2
STANDARD
 70
     0
 40
0.0
 41
1.0
 50
0.0
 71
     0
 42
3.0
  3
romans.shx
  4
extfont.shx
  0
STYLE
  2
ACISOTS
 70
     0
 40
1.0
 41
1.0
 50
0.0
 71
     0
 42
3.0
  3
amgdt.shx
  4
extfont.shx
  0
STYLE
  2
ACISOGDT
 70
     0
 40
0.0
 41
1.0
 50
0.0
 71
     0
 42
3.0
  3
amgdt.shx
  4
extfont.shx
  0
STYLE
  2
ACJISTS
 70
     0
 40
1.0
 41
1.0
 50
0.0
 71
     0
 42
3.0
  3
amgdt.shx
  4
extfont.shx
  0
STYLE
  2
ACJISGDT
 70
     0
 40
0.0
 41
1.0
 50
0.0
 71
     0
 42
3.0
  3
amgdt.shx
  4
extfont.shx
  0
STYLE
  2
YOKO
 70
     0
 40
0.0
 41
1.0
 50
0.0
 71
     0
 42
3.0
  3
romans.shx
  4
extfont.shx
  0
ENDTAB
  0
TABLE
  2
VIEW
 70
     0
  0
ENDTAB
  0
TABLE
  2
UCS
 70
     0
  0
ENDTAB
  0
TABLE
  2
APPID
 70
    29
  0
APPID
  2
ACAD
 70
     0
  0
APPID
  2
GLOBAL
 70
     0
  0
APPID
  2
DETAIL
 70
     0
  0
APPID
  2
GRPNAME
 70
     0
  0
APPID
  2
GPARA
 70
     0
  0
APPID
  2
MCAD_NO_VIS
 70
     0
  0
APPID
  2
ACAD_TEMP_GRAPHIC
 70
     0
  0
APPID
  2
ACATTRIBSERVICES
 70
     0
  0
APPID
  2
GENIUS_GENSCREG_15
 70
     0
  0
APPID
  2
GENIUS_GENODEF_13
 70
     0
  0
APPID
  2
GENIUS_GENOBJ-N-SDF_13
 70
     0
  0
APPID
  2
GENIUS_GENREC_14
 70
     0
  0
APPID
  2
GENIUS_GENOBJ-N-REC_13
 70
     0
  0
APPID
  2
GENIUS_GENDIMSH_14
 70
     0
  0
APPID
  2
GENIUS_GENOBJ-N-DIM_13
 70
     0
  0
APPID
  2
GENIUS_GENDIM_13
 70
     0
  0
APPID
  2
GENIUS_GENDTOL_13
 70
     0
  0
APPID
  2
GENIUS_GENOLIS_13
 70
     0
  0
APPID
  2
GENIUS_GENOENT_13
 70
     0
  0
APPID
  2
GENIUS_GENOBJ-F-FEM_13
 70
     0
  0
APPID
  2
GENIUS_GENOREF_13
 70
     0
  0
APPID
  2
GENIUS_GEFFEM_13
 70
     0
  0
APPID
  2
GENIUS_GEFFEMP_13
 70
     0
  0
APPID
  2
AD_DRAW
 70
     0
  0
APPID
  2
DESIGNERASSEMBLIES
 70
     0
  0
APPID
  2
ACADM_DIM_EDIT
 70
     0
  0
APPID
  2
AMDT_DM_ADJ
 70
     0
  0
APPID
  2
ASK_MEN_XD
 70
     0
  0
APPID
  2
ITEMNAME
 70
     0
  0
ENDTAB
  0
TABLE
  2
DIMSTYLE
 70
    23
  0
DIMSTYLE
  2
BIGT
 70
     0
  3

  4

  5
OPEN
  6

  7

 40
1.0
 41
2.2299999999999991
 42
0.5
 43
7.0
 44
1.0
 45
0.0
 46
0.0
 47
0.0
 48
0.01
140
2.7999999999999989
141
0.0
142
0.0
143
25.399999999999999
144
1.0
145
0.0
146
1.0
147
1.0
 71
     0
 72
     0
 73
     0
 74
     0
 75
     0
 76
     0
 77
     3
 78
     9
170
     0
171
     2
172
     1
173
     0
174
     1
175
     0
176
   256
177
   256
178
    40
  0
DIMSTYLE
  2
AM_ISO
 70
     0
  3

  4
"
  5

  6

  7

 40
1.0
 41
2.5
 42
1.0
 43
10.0
 44
1.0
 45
0.0
 46
0.0
 47
0.1
 48
0.1
140
3.5
141
0.0
142
0.0
143
0.0393701
144
1.0
145
0.0
146
0.71
147
1.5
 71
     0
 72
     0
 73
     0
 74
     0
 75
     0
 76
     0
 77
     1
 78
     8
170
     0
171
     2
172
     1
173
     0
174
     0
175
     0
176
   256
177
   256
178
     2
  0
DIMSTYLE
  2
AM_ISO$3
 70
     0
  3

  4
"
  5

  6

  7

 40
1.0
 41
2.5
 42
1.0
 43
10.0
 44
1.0
 45
0.0
 46
0.0
 47
0.1
 48
0.1
140
3.5
141
0.0
142
0.0
143
0.0393701
144
1.0
145
0.0
146
0.71
147
1.5
 71
     0
 72
     0
 73
     0
 74
     1
 75
     0
 76
     0
 77
     1
 78
     8
170
     0
171
     2
172
     0
173
     0
174
     0
175
     0
176
   256
177
   256
178
     2
  0
DIMSTYLE
  2
AM_ISO$4
 70
     0
  3

  4
"
  5

  6

  7

 40
1.0
 41
2.5
 42
1.0
 43
10.0
 44
1.0
 45
0.0
 46
0.0
 47
0.1
 48
0.1
140
3.5
141
0.0
142
0.0
143
0.0393701
144
1.0
145
0.0
146
0.71
147
1.5
 71
     0
 72
     0
 73
     0
 74
     1
 75
     0
 76
     0
 77
     1
 78
     8
170
     0
171
     2
172
     0
173
     0
174
     0
175
     0
176
   256
177
   256
178
     2
  0
DIMSTYLE
  2
AM_ISO$6
 70
     0
  3

  4
"
  5

  6

  7

 40
1.0
 41
2.5
 42
1.0
 43
10.0
 44
1.0
 45
0.0
 46
0.0
 47
0.1
 48
0.1
140
3.5
141
0.0
142
0.0
143
0.0393701
144
1.0
145
0.0
146
0.71
147
1.5
 71
     0
 72
     0
 73
     0
 74
     0
 75
     0
 76
     0
 77
     0
 78
     8
170
     0
171
     2
172
     1
173
     0
174
     0
175
     0
176
   256
177
   256
178
     2
  0
DIMSTYLE
  2
AM_ISO$7
 70
     0
  3

  4
"
  5

  6

  7

 40
1.0
 41
2.5
 42
1.0
 43
10.0
 44
1.0
 45
0.0
 46
0.0
 47
0.1
 48
0.1
140
5.0
141
0.0
142
0.0
143
0.0393701
144
1.0
145
0.0
146
0.71
147
1.5
 71
     0
 72
     0
 73
     0
 74
     0
 75
     0
 76
     0
 77
     1
 78
     8
170
     0
171
     2
172
     1
173
     0
174
     0
175
     0
176
   256
177
   256
178
     2
  0
DIMSTYLE
  2
AM_ISO$SF
 70
     0
  3

  4
"
  5

  6

  7

 40
1.0
 41
2.5
 42
1.0
 43
10.0
 44
1.0
 45
0.0
 46
0.0
 47
0.1
 48
0.1
140
3.5
141
0.0
142
0.0
143
0.0393701
144
1.0
145
0.0
146
0.71
147
1.5
 71
     0
 72
     0
 73
     0
 74
     0
 75
     1
 76
     1
 77
     1
 78
     8
170
     0
171
     2
172
     1
173
     0
174
     0
175
     0
176
   256
177
   256
178
     2
  0
DIMSTYLE
  2
AM_ISO$SH
 70
     0
  3

  4
"
  5

  6
GENAXEH
  7

 40
1.0
 41
2.5
 42
1.0
 43
10.0
 44
1.0
 45
0.0
 46
0.0
 47
0.1
 48
0.1
140
3.5
141
0.0
142
0.0
143
0.0393701
144
2.0
145
0.0
146
0.71
147
1.5
 71
     0
 72
     0
 73
     0
 74
     0
 75
     1
 76
     1
 77
     1
 78
     8
170
     0
171
     2
172
     1
173
     1
174
     0
175
     0
176
   256
177
   256
178
     2
  0
DIMSTYLE
  2
BIGT$2
 70
     0
  3

  4

  5
OPEN
  6

  7

 40
1.0
 41
2.2299999999999991
 42
0.5
 43
7.0
 44
1.0
 45
0.0
 46
0.0
 47
0.0
 48
0.01
140
2.7999999999999989
141
0.0
142
0.0
143
25.399999999999999
144
1.0
145
0.0
146
1.0
147
1.0
 71
     0
 72
     0
 73
     0
 74
     0
 75
     0
 76
     0
 77
     3
 78
     9
170
     0
171
     2
172
     1
173
     0
174
     0
175
     0
176
   256
177
   256
178
    40
  0
DIMSTYLE
  2
BIGT$3
 70
     0
  3

  4

  5
OPEN
  6

  7

 40
1.0
 41
2.2299999999999991
 42
0.5
 43
2.5
 44
1.0
 45
0.0
 46
0.0
 47
0.0
 48
0.01
140
2.7999999999999989
141
0.0
142
0.0
143
25.399999999999999
144
1.0
145
0.0
146
1.0
147
1.0
 71
     0
 72
     0
 73
     0
 74
     0
 75
     0
 76
     0
 77
     3
 78
     9
170
     0
171
     2
172
     1
173
     0
174
     0
175
     0
176
   256
177
   256
178
    40
  0
DIMSTYLE
  2
BIGT$7
 70
     0
  3

  4

  5
OPEN
  6

  7

 40
0.0
 41
2.2299999999999991
 42
0.5
 43
7.0
 44
1.0
 45
0.0
 46
0.0
 47
0.0
 48
0.01
140
2.7999999999999989
141
0.0
142
0.0
143
25.399999999999999
144
1.0
145
0.0
146
1.0
147
1.0
 71
     0
 72
     0
 73
     0
 74
     0
 75
     0
 76
     0
 77
     3
 78
     9
170
     0
171
     2
172
     0
173
     0
174
     0
175
     0
176
   256
177
   256
178
    40
  0
DIMSTYLE
  2
BIGT$6
 70
     0
  3

  4

  5
OPEN
  6

  7

 40
1.0
 41
2.2299999999999991
 42
0.5
 43
2.5
 44
1.0
 45
0.0
 46
0.0
 47
0.0
 48
0.01
140
2.7999999999999989
141
0.0
142
0.0
143
25.399999999999999
144
1.0
145
0.0
146
1.0
147
1.0
 71
     0
 72
     0
 73
     0
 74
     0
 75
     0
 76
     0
 77
     3
 78
     9
170
     0
171
     2
172
     1
173
     0
174
     0
175
     0
176
   256
177
   256
178
    40
  0
DIMSTYLE
  2
BIGT$0
 70
     0
  3

  4

  5
OPEN
  6

  7

 40
1.0
 41
2.2299999999999991
 42
0.5
 43
7.0
 44
1.0
 45
0.0
 46
0.0
 47
0.0
 48
0.01
140
2.7999999999999989
141
0.0
142
0.0
143
25.399999999999999
144
1.0
145
0.0
146
1.0
147
1.0
 71
     0
 72
     0
 73
     0
 74
     0
 75
     0
 76
     0
 77
     3
 78
     9
170
     0
171
     2
172
     1
173
     0
174
     0
175
     0
176
   256
177
   256
178
    40
  0
DIMSTYLE
  2
BIGT$4
 70
     0
  3

  4

  5
OPEN
  6

  7

 40
1.0
 41
2.2299999999999991
 42
0.5
 43
2.5
 44
1.0
 45
0.0
 46
0.0
 47
0.0
 48
0.01
140
2.7999999999999989
141
0.0
142
0.0
143
25.399999999999999
144
1.0
145
0.0
146
1.0
147
1.0
 71
     0
 72
     0
 73
     0
 74
     0
 75
     0
 76
     0
 77
     3
 78
     9
170
     0
171
     2
172
     1
173
     0
174
     0
175
     0
176
   256
177
   256
178
    40
  0
DIMSTYLE
  2
BIGT$SH
 70
     0
  3

  4

  5
OPEN
  6

  7

 40
1.0
 41
2.2299999999999991
 42
0.5
 43
7.0
 44
1.0
 45
0.0
 46
0.0
 47
0.0
 48
0.0
140
2.7999999999999989
141
0.0
142
0.0
143
25.399999999999999
144
1.0
145
0.0
146
1.0
147
1.0
 71
     0
 72
     0
 73
     0
 74
     0
 75
     0
 76
     0
 77
     3
 78
     9
170
     0
171
     2
172
     1
173
     0
174
     0
175
     0
176
   256
177
   256
178
    40
  0
DIMSTYLE
  2
BIGT$SF
 70
     0
  3

  4

  5
OPEN
  6

  7

 40
1.0
 41
2.2299999999999991
 42
0.5
 43
7.0
 44
1.0
 45
0.0
 46
0.0
 47
0.0
 48
0.0
140
2.7999999999999989
141
0.0
142
0.0
143
25.399999999999999
144
1.0
145
0.0
146
1.0
147
1.0
 71
     0
 72
     0
 73
     0
 74
     0
 75
     0
 76
     0
 77
     3
 78
     9
170
     0
171
     2
172
     1
173
     0
174
     0
175
     0
176
   256
177
   256
178
    40
  0
DIMSTYLE
  2
TECHNICAL_OSAKA
 70
     0
  3

  4
"
  5
OPEN30
  6

  7

 40
1.0
 41
2.5
 42
1.0
 43
10.0
 44
1.0
 45
0.0
 46
0.0
 47
0.1
 48
0.1
140
2.7999999999999989
141
0.0
142
0.0
143
0.0393701
144
1.0
145
0.0
146
0.71
147
1.5
 71
     0
 72
     0
 73
     0
 74
     0
 75
     0
 76
     0
 77
     3
 78
     8
170
     0
171
     2
172
     1
173
     0
174
     0
175
     0
176
   256
177
   256
178
    40
  0
DIMSTYLE
  2
TECHNICAL_OSAKA$3
 70
     0
  3

  4
"
  5
OPEN30
  6

  7

 40
1.0
 41
2.5
 42
1.0
 43
10.0
 44
1.0
 45
0.0
 46
0.0
 47
0.1
 48
0.1
140
2.7999999999999989
141
0.0
142
0.0
143
0.0393701
144
1.0
145
0.0
146
0.71
147
1.5
 71
     0
 72
     0
 73
     0
 74
     1
 75
     0
 76
     0
 77
     3
 78
     8
170
     0
171
     2
172
     0
173
     0
174
     0
175
     0
176
   256
177
   256
178
    40
  0
DIMSTYLE
  2
TECHNICAL_OSAKA$4
 70
     0
  3

  4
"
  5
OPEN30
  6

  7

 40
1.0
 41
2.5
 42
1.0
 43
10.0
 44
1.0
 45
0.0
 46
0.0
 47
0.1
 48
0.1
140
2.7999999999999989
141
0.0
142
0.0
143
0.0393701
144
1.0
145
0.0
146
0.71
147
1.5
 71
     0
 72
     0
 73
     0
 74
     1
 75
     0
 76
     0
 77
     3
 78
     8
170
     0
171
     2
172
     0
173
     0
174
     0
175
     0
176
   256
177
   256
178
    40
  0
DIMSTYLE
  2
TECHNICAL_OSAKA$6
 70
     0
  3

  4
"
  5
OPEN30
  6

  7

 40
1.0
 41
2.5
 42
1.0
 43
10.0
 44
1.0
 45
0.0
 46
0.0
 47
0.1
 48
0.1
140
2.7999999999999989
141
0.0
142
0.0
143
0.0393701
144
1.0
145
0.0
146
0.71
147
1.5
 71
     0
 72
     0
 73
     0
 74
     0
 75
     0
 76
     0
 77
     0
 78
     8
170
     0
171
     2
172
     1
173
     0
174
     0
175
     0
176
   256
177
   256
178
    40
  0
DIMSTYLE
  2
TECHNICAL_OSAKA$7
 70
     0
  3

  4
"
  5
OPEN30
  6

  7

 40
1.0
 41
2.5
 42
1.0
 43
10.0
 44
1.0
 45
0.0
 46
0.0
 47
0.1
 48
0.1
140
2.7999999999999989
141
0.0
142
0.0
143
0.0393701
144
1.0
145
0.0
146
0.71
147
1.5
 71
     0
 72
     0
 73
     0
 74
     0
 75
     0
 76
     0
 77
     3
 78
     8
170
     0
171
     2
172
     1
173
     0
174
     0
175
     0
176
   256
177
   256
178
    40
  0
DIMSTYLE
  2
TECHNICAL_OSAKA$SF
 70
     0
  3

  4
"
  5
OPEN30
  6
OPEN30
  7
OPEN30
 40
1.0
 41
2.5
 42
1.0
 43
10.0
 44
1.0
 45
0.0
 46
0.0
 47
0.1
 48
0.1
140
3.5
141
0.0
142
0.0
143
0.0393701
144
1.0
145
0.0
146
0.71
147
1.5
 71
     0
 72
     0
 73
     0
 74
     0
 75
     1
 76
     1
 77
     3
 78
     8
170
     0
171
     2
172
     1
173
     0
174
     0
175
     0
176
   256
177
   256
178
    40
  0
DIMSTYLE
  2
TECHNICAL_OSAKA$SH
 70
     0
  3

  4
"
  5
OPEN30
  6
GENAXEH
  7
OPEN30
 40
1.0
 41
2.5
 42
1.0
 43
10.0
 44
1.0
 45
0.0
 46
0.0
 47
0.1
 48
0.1
140
3.5
141
0.0
142
0.0
143
0.0393701
144
2.0
145
0.0
146
0.71
147
1.5
 71
     0
 72
     0
 73
     0
 74
     0
 75
     1
 76
     1
 77
     3
 78
     8
170
     0
171
     2
172
     1
173
     1
174
     0
175
     0
176
   256
177
   256
178
    40
  0
ENDTAB
  0
ENDSEC
  0
SECTION
  2
BLOCKS
  0
BLOCK
  8
0
  2
$MODEL_SPACE
 70
     0
 10
0.0
 20
0.0
 30
0.0
  3
$MODEL_SPACE
  1

  0
ENDBLK
  5
1C
  8
0
  0
BLOCK
 67
     1
  8
0
  2
$PAPER_SPACE
 70
     0
 10
0.0
 20
0.0
 30
0.0
  3
$PAPER_SPACE
  1

  0
ENDBLK
  5
19
 67
     1
  8
0
  0
BLOCK
  8
0
  2
_OPEN
 70
     0
 10
0.0
 20
0.0
 30
0.0
  3
_OPEN
  1

  0
LINE
  5
166A
  8
0
  6
BYBLOCK
 62
     0
 10
-1.0
 20
0.1666666666666666
 30
0.0
 11
0.0
 21
0.0
 31
0.0
  0
LINE
  5
166B
  8
0
  6
BYBLOCK
 62
     0
 10
-1.0
 20
-0.1666666666666666
 30
0.0
 11
0.0
 21
0.0
 31
0.0
  0
LINE
  5
166C
  8
0
  6
BYBLOCK
 62
     0
 10
0.0
 20
0.0
 30
0.0
 11
-1.0
 21
0.0
 31
0.0
  0
ENDBLK
  5
166D
  8
0
  0
BLOCK
  8
0
  2
GENAXEH
 70
     0
 10
0.0
 20
0.0
 30
0.0
  3
GENAXEH
  1

  0
LINE
  5
1695
  8
0
 10
-1.0
 20
0.0
 30
0.0
 11
1.0
 21
0.0
 31
0.0
  0
ENDBLK
  5
1696
  8
0
  0
BLOCK
  8
0
  2
_OPEN30
 70
     0
 10
0.0
 20
0.0
 30
0.0
  3
_OPEN30
  1

  0
LINE
  5
16BA
  8
0
  6
BYBLOCK
 62
     0
 10
-1.0
 20
0.26794919
 30
0.0
 11
0.0
 21
0.0
 31
0.0
  0
LINE
  5
16BB
  8
0
  6
BYBLOCK
 62
     0
 10
0.0
 20
0.0
 30
0.0
 11
-1.0
 21
-0.26794919
 31
0.0
  0
LINE
  5
16BC
  8
0
  6
BYBLOCK
 62
     0
 10
0.0
 20
0.0
 30
0.0
 11
-1.0
 21
0.0
 31
0.0
  0
ENDBLK
  5
16BD
  8
0
  0
BLOCK
  8
0
  2
矢印なし
 70
     0
 10
0.0
 20
0.0
 30
0.0
  3
矢印なし
  1

  0
ENDBLK
  5
1578
  8
0
  0
BLOCK
  8
0
  2
HDC-CLAMPSCREW
 70
     0
 10
0.0
 20
0.0
 30
0.0
  3
HDC-CLAMPSCREW
  1

  0
INSERT
  5
157B
  8
245
  2
矢印なし
 10
175.62382697000001
 20
90.551235719999994
 30
0.0
  0
LINE
  5
157C
  8
241
  6
CONTINUOUS
 10
2.2299999999999991
 20
0.0
 30
0.0
 11
20.0
 21
0.0
 31
0.0
  0
INSERT
  5
157D
  8
241
  6
CONTINUOUS
  2
_OPEN
 10
0.0
 20
0.0
 30
0.0
 41
6.6900000000000004
 42
6.6900000000000004
 43
6.6900000000000004
 50
180.0
  0
POLYLINE
  5
157E
  8
251
 10
16.354101966251065
 20
1.9999999999995424
 30
0.0
 66
     1
 70
     8
  0
VERTEX
  8
251
  5
16D4
 10
16.3541
 20
2.00000
 30
0.000000
  70
    32
  0
VERTEX
  8
251
  5
16D5
 10
16.3062
 20
2.29683
 30
0.000000
  70
    32
  0
VERTEX
  8
251
  5
16D6
 10
16.2518
 20
2.58911
 30
0.000000
  70
    32
  0
VERTEX
  8
251
  5
16D7
 10
16.1909
 20
2.87624
 30
0.000000
  70
    32
  0
VERTEX
  8
251
  5
16D8
 10
16.1237
 20
3.15766
 30
0.000000
  70
    32
  0
VERTEX
  8
251
  5
16D9
 10
16.0502
 20
3.43282
 30
0.000000
  70
    32
  0
VERTEX
  8
251
  5
16DA
 10
15.9708
 20
3.70116
 30
0.000000
  70
    32
  0
VERTEX
  8
251
  5
16DB
 10
15.8854
 20
3.96215
 30
0.000000
  70
    32
  0
VERTEX
  8
251
  5
16DC
 10
15.7943
 20
4.21528
 30
0.000000
  70
    32
  0
VERTEX
  8
251
  5
16DD
 10
15.6976
 20
4.46003
 30
0.000000
  70
    32
  0
VERTEX
  8
251
  5
16DE
 10
15.5956
 20
4.69594
 30
0.000000
  70
    32
  0
VERTEX
  8
251
  5
16DF
 10
15.4884
 20
4.92252
 30
0.000000
  70
    32
  0
VERTEX
  8
251
  5
16E0
 10
15.3763
 20
5.13933
 30
0.000000
  70
    32
  0
VERTEX
  8
251
  5
16E1
 10
15.2595
 20
5.34593
 30
0.000000
  70
    32
  0
VERTEX
  8
251
  5
16E2
 10
15.1382
 20
5.54192
 30
0.000000
  70
    32
  0
VERTEX
  8
251
  5
16E3
 10
15.0126
 20
5.72691
 30
0.000000
  70
    32
  0
VERTEX
  8
251
  5
16E4
 10
14.8831
 20
5.90053
 30
0.000000
  70
    32
  0
VERTEX
  8
251
  5
16E5
 10
14.7498
 20
6.06244
 30
0.000000
  70
    32
  0
VERTEX
  8
251
  5
16E6
 10
14.6130
 20
6.21231
 30
0.000000
  70
    32
  0
VERTEX
  8
251
  5
16E7
 10
14.4730
 20
6.34985
 30
0.000000
  70
    32
  0
VERTEX
  8
251
  5
16E8
 10
14.3302
 20
6.47478
 30
0.000000
  70
    32
  0
VERTEX
  8
251
  5
16E9
 10
14.1846
 20
6.58685
 30
0.000000
  70
    32
  0
VERTEX
  8
251
  5
16EA
 10
14.0367
 20
6.68586
 30
0.000000
  70
    32
  0
VERTEX
  8
251
  5
16EB
 10
13.8868
 20
6.77158
 30
0.000000
  70
    32
  0
VERTEX
  8
251
  5
16EC
 10
13.7351
 20
6.84387
 30
0.000000
  70
    32
  0
VERTEX
  8
251
  5
16ED
 10
13.5819
 20
6.90256
 30
0.000000
  70
    32
  0
VERTEX
  8
251
  5
16EE
 10
13.4276
 20
6.94756
 30
0.000000
  70
    32
  0
VERTEX
  8
251
  5
16EF
 10
13.2725
 20
6.97876
 30
0.000000
  70
    32
  0
VERTEX
  8
251
  5
16F0
 10
13.1168
 20
6.99610
 30
0.000000
  70
    32
  0
VERTEX
  8
251
  5
16F1
 10
12.9608
 20
6.99956
 30
0.000000
  70
    32
  0
VERTEX
  8
251
  5
16F2
 10
12.8050
 20
6.98912
 30
0.000000
  70
    32
  0
VERTEX
  8
251
  5
16F3
 10
12.6495
 20
6.96481
 30
0.000000
  70
    32
  0
VERTEX
  8
251
  5
16F4
 10
12.4947
 20
6.92667
 30
0.000000
  70
    32
  0
VERTEX
  8
251
  5
16F5
 10
12.3409
 20
6.87477
 30
0.000000
  70
    32
  0
VERTEX
  8
251
  5
16F6
 10
12.1885
 20
6.80923
 30
0.000000
  70
    32
  0
VERTEX
  8
251
  5
16F7
 10
12.0376
 20
6.73017
 30
0.000000
  70
    32
  0
VERTEX
  8
251
  5
16F8
 10
11.8887
 20
6.63775
 30
0.000000
  70
    32
  0
VERTEX
  8
251
  5
16F9
 10
11.7419
 20
6.53216
 30
0.000000
  70
    32
  0
VERTEX
  8
251
  5
16FA
 10
11.5977
 20
6.41359
 30
0.000000
  70
    32
  0
VERTEX
  8
251
  5
16FB
 10
11.4562
 20
6.28229
 30
0.000000
  70
    32
  0
VERTEX
  8
251
  5
16FC
 10
11.3178
 20
6.13852
 30
0.000000
  70
    32
  0
VERTEX
  8
251
  5
16FD
 10
11.1828
 20
5.98256
 30
0.000000
  70
    32
  0
VERTEX
  8
251
  5
16FE
 10
11.0514
 20
5.81473
 30
0.000000
  70
    32
  0
VERTEX
  8
251
  5
16FF
 10
10.9238
 20
5.63535
 30
0.000000
  70
    32
  0
VERTEX
  8
251
  5
1700
 10
10.8003
 20
5.44479
 30
0.000000
  70
    32
  0
VERTEX
  8
251
  5
1701
 10
10.6812
 20
5.24341
 30
0.000000
  70
    32
  0
VERTEX
  8
251
  5
1702
 10
10.5668
 20
5.03163
 30
0.000000
  70
    32
  0
VERTEX
  8
251
  5
1703
 10
10.4571
 20
4.80985
 30
0.000000
  70
    32
  0
VERTEX
  8
251
  5
1704
 10
10.3525
 20
4.57853
 30
0.000000
  70
    32
  0
VERTEX
  8
251
  5
1705
 10
10.2532
 20
4.33812
 30
0.000000
  70
    32
  0
VERTEX
  8
251
  5
1706
 10
10.1593
 20
4.08909
 30
0.000000
  70
    32
  0
VERTEX
  8
251
  5
1707
 10
10.0710
 20
3.83195
 30
0.000000
  70
    32
  0
VERTEX
  8
251
  5
1708
 10
9.98856
 20
3.56720
 30
0.000000
  70
    32
  0
VERTEX
  8
251
  5
1709
 10
9.91210
 20
3.29537
 30
0.000000
  70
    32
  0
VERTEX
  8
251
  5
170A
 10
9.84177
 20
3.01700
 30
0.000000
  70
    32
  0
VERTEX
  8
251
  5
170B
 10
9.77771
 20
2.73263
 30
0.000000
  70
    32
  0
VERTEX
  8
251
  5
170C
 10
9.72004
 20
2.44284
 30
0.000000
  70
    32
  0
VERTEX
  8
251
  5
170D
 10
9.66889
 20
2.14821
 30
0.000000
  70
    32
  0
VERTEX
  8
251
  5
170E
 10
9.62435
 20
1.84930
 30
0.000000
  70
    32
  0
VERTEX
  8
251
  5
170F
 10
9.58651
 20
1.54673
 30
0.000000
  70
    32
  0
VERTEX
  8
251
  5
1710
 10
9.55545
 20
1.24108
 30
0.000000
  70
    32
  0
VERTEX
  8
251
  5
1711
 10
9.53123
 20
0.932976
 30
0.000000
  70
    32
  0
VERTEX
  8
251
  5
1712
 10
9.51389
 20
0.623015
 30
0.000000
  70
    32
  0
VERTEX
  8
251
  5
1713
 10
9.50347
 20
0.311817
 30
0.000000
  70
    32
  0
VERTEX
  8
251
  5
1714
 10
9.50000
 20
3.37017e-013
 30
0.000000
  70
    32
  0
VERTEX
  8
251
  5
1715
 10
9.50347
 20
-0.311817
 30
0.000000
  70
    32
  0
VERTEX
  8
251
  5
1716
 10
9.51389
 20
-0.623015
 30
0.000000
  70
    32
  0
VERTEX
  8
251
  5
1717
 10
9.53123
 20
-0.932976
 30
0.000000
  70
    32
  0
VERTEX
  8
251
  5
1718
 10
9.55545
 20
-1.24108
 30
0.000000
  70
    32
  0
VERTEX
  8
251
  5
1719
 10
9.58651
 20
-1.54673
 30
0.000000
  70
    32
  0
VERTEX
  8
251
  5
171A
 10
9.62435
 20
-1.84930
 30
0.000000
  70
    32
  0
VERTEX
  8
251
  5
171B
 10
9.66889
 20
-2.14821
 30
0.000000
  70
    32
  0
VERTEX
  8
251
  5
171C
 10
9.72004
 20
-2.44284
 30
0.000000
  70
    32
  0
VERTEX
  8
251
  5
171D
 10
9.77771
 20
-2.73263
 30
0.000000
  70
    32
  0
VERTEX
  8
251
  5
171E
 10
9.84177
 20
-3.01700
 30
0.000000
  70
    32
  0
VERTEX
  8
251
  5
171F
 10
9.91210
 20
-3.29537
 30
0.000000
  70
    32
  0
VERTEX
  8
251
  5
1720
 10
9.98856
 20
-3.56720
 30
0.000000
  70
    32
  0
VERTEX
  8
251
  5
1721
 10
10.0710
 20
-3.83195
 30
0.000000
  70
    32
  0
VERTEX
  8
251
  5
1722
 10
10.1593
 20
-4.08909
 30
0.000000
  70
    32
  0
VERTEX
  8
251
  5
1723
 10
10.2532
 20
-4.33812
 30
0.000000
  70
    32
  0
VERTEX
  8
251
  5
1724
 10
10.3525
 20
-4.57853
 30
0.000000
  70
    32
  0
VERTEX
  8
251
  5
1725
 10
10.4571
 20
-4.80985
 30
0.000000
  70
    32
  0
VERTEX
  8
251
  5
1726
 10
10.5668
 20
-5.03163
 30
0.000000
  70
    32
  0
VERTEX
  8
251
  5
1727
 10
10.6812
 20
-5.24341
 30
0.000000
  70
    32
  0
VERTEX
  8
251
  5
1728
 10
10.8003
 20
-5.44479
 30
0.000000
  70
    32
  0
VERTEX
  8
251
  5
1729
 10
10.9238
 20
-5.63535
 30
0.000000
  70
    32
  0
VERTEX
  8
251
  5
172A
 10
11.0514
 20
-5.81473
 30
0.000000
  70
    32
  0
VERTEX
  8
251
  5
172B
 10
11.1828
 20
-5.98256
 30
0.000000
  70
    32
  0
VERTEX
  8
251
  5
172C
 10
11.3178
 20
-6.13852
 30
0.000000
  70
    32
  0
VERTEX
  8
251
  5
172D
 10
11.4562
 20
-6.28229
 30
0.000000
  70
    32
  0
VERTEX
  8
251
  5
172E
 10
11.5977
 20
-6.41359
 30
0.000000
  70
    32
  0
VERTEX
  8
251
  5
172F
 10
11.7419
 20
-6.53216
 30
0.000000
  70
    32
  0
VERTEX
  8
251
  5
1730
 10
11.8887
 20
-6.63775
 30
0.000000
  70
    32
  0
VERTEX
  8
251
  5
1731
 10
12.0376
 20
-6.73017
 30
0.000000
  70
    32
  0
VERTEX
  8
251
  5
1732
 10
12.1885
 20
-6.80923
 30
0.000000
  70
    32
  0
VERTEX
  8
251
  5
1733
 10
12.3409
 20
-6.87477
 30
0.000000
  70
    32
  0
VERTEX
  8
251
  5
1734
 10
12.4947
 20
-6.92667
 30
0.000000
  70
    32
  0
VERTEX
  8
251
  5
1735
 10
12.6495
 20
-6.96481
 30
0.000000
  70
    32
  0
VERTEX
  8
251
  5
1736
 10
12.8050
 20
-6.98912
 30
0.000000
  70
    32
  0
VERTEX
  8
251
  5
1737
 10
12.9608
 20
-6.99956
 30
0.000000
  70
    32
  0
VERTEX
  8
251
  5
1738
 10
13.1168
 20
-6.99610
 30
0.000000
  70
    32
  0
VERTEX
  8
251
  5
1739
 10
13.2725
 20
-6.97876
 30
0.000000
  70
    32
  0
VERTEX
  8
251
  5
173A
 10
13.4276
 20
-6.94756
 30
0.000000
  70
    32
  0
VERTEX
  8
251
  5
173B
 10
13.5819
 20
-6.90256
 30
0.000000
  70
    32
  0
VERTEX
  8
251
  5
173C
 10
13.7351
 20
-6.84387
 30
0.000000
  70
    32
  0
VERTEX
  8
251
  5
173D
 10
13.8868
 20
-6.77158
 30
0.000000
  70
    32
  0
VERTEX
  8
251
  5
173E
 10
14.0367
 20
-6.68586
 30
0.000000
  70
    32
  0
VERTEX
  8
251
  5
173F
 10
14.1846
 20
-6.58685
 30
0.000000
  70
    32
  0
VERTEX
  8
251
  5
1740
 10
14.3302
 20
-6.47478
 30
0.000000
  70
    32
  0
VERTEX
  8
251
  5
1741
 10
14.4730
 20
-6.34985
 30
0.000000
  70
    32
  0
VERTEX
  8
251
  5
1742
 10
14.6130
 20
-6.21231
 30
0.000000
  70
    32
  0
VERTEX
  8
251
  5
1743
 10
14.7498
 20
-6.06244
 30
0.000000
  70
    32
  0
VERTEX
  8
251
  5
1744
 10
14.8831
 20
-5.90053
 30
0.000000
  70
    32
  0
VERTEX
  8
251
  5
1745
 10
15.0126
 20
-5.72691
 30
0.000000
  70
    32
  0
VERTEX
  8
251
  5
1746
 10
15.1382
 20
-5.54192
 30
0.000000
  70
    32
  0
VERTEX
  8
251
  5
1747
 10
15.2595
 20
-5.34593
 30
0.000000
  70
    32
  0
VERTEX
  8
251
  5
1748
 10
15.3763
 20
-5.13933
 30
0.000000
  70
    32
  0
VERTEX
  8
251
  5
1749
 10
15.4884
 20
-4.92252
 30
0.000000
  70
    32
  0
VERTEX
  8
251
  5
174A
 10
15.5956
 20
-4.69594
 30
0.000000
  70
    32
  0
VERTEX
  8
251
  5
174B
 10
15.6976
 20
-4.46003
 30
0.000000
  70
    32
  0
VERTEX
  8
251
  5
174C
 10
15.7943
 20
-4.21528
 30
0.000000
  70
    32
  0
VERTEX
  8
251
  5
174D
 10
15.8854
 20
-3.96215
 30
0.000000
  70
    32
  0
VERTEX
  8
251
  5
174E
 10
15.9708
 20
-3.70116
 30
0.000000
  70
    32
  0
VERTEX
  8
251
  5
174F
 10
16.0502
 20
-3.43282
 30
0.000000
  70
    32
  0
VERTEX
  8
251
  5
1750
 10
16.1237
 20
-3.15766
 30
0.000000
  70
    32
  0
VERTEX
  8
251
  5
1751
 10
16.1909
 20
-2.87624
 30
0.000000
  70
    32
  0
VERTEX
  8
251
  5
1752
 10
16.2518
 20
-2.58911
 30
0.000000
  70
    32
  0
VERTEX
  8
251
  5
1753
 10
16.3062
 20
-2.29683
 30
0.000000
  70
    32
  0
VERTEX
  8
251
  5
1754
 10
16.3541
 20
-2.00000
 30
0.000000
  70
    32
  0
SEQEND
  8
251
  5
1755
  0
INSERT
  5
157F
  8
251
  6
CONTINUOUS
  2
_OPEN
 10
16.354101969999999
 20
2.0
 30
0.0
 41
2.2299999999999991
 42
2.2299999999999991
 43
2.2299999999999991
 50
283.18143907000001
  0
ENDBLK
  5
1580
  8
0
  0
ENDSEC
  0
SECTION
  2
ENTITIES
  0
ARC
  5
13B8
  8
240
  6
CONTINUOUS
 10
2.8000000000000389
 20
-48.699999999999989
 30
0.0
 40
1.3
 50
180.0
 51
270.0
  0
LINE
  5
13B9
  8
240
  6
CONTINUOUS
 10
-101.04082247369939
 20
-20.056831500772091
 30
0.0
 11
-100.4308910289152
 21
-20.278828391616571
 31
0.0
  0
ARC
  5
13BA
  8
240
  6
CONTINUOUS
 10
-100.2
 20
-18.695575621915388
 30
0.0
 40
1.6000000000000001
 50
180.0
 51
238.2971273697537
  0
LINE
  5
13BB
  8
240
  6
CONTINUOUS
 10
36.871148246863562
 20
-50.0
 30
0.0
 11
37.03646475863323
 21
-49.9557035741758
 31
0.0
  0
LINE
  5
13BD
  8
240
  6
CONTINUOUS
 10
36.871148246863562
 20
-50.0
 30
0.0
 11
30.69999999999996
 21
-50.0
 31
0.0
  0
LINE
  5
13BF
  8
240
  6
CONTINUOUS
 10
26.369872981077751
 20
-42.5
 30
0.0
 11
30.69999999999996
 21
-50.0
 31
0.0
  0
LINE
  5
13C2
  8
240
  6
CONTINUOUS
 10
20.030127018922169
 20
-42.5
 30
0.0
 11
15.69999999999996
 21
-50.0
 31
0.0
  0
LINE
  5
13C3
  8
240
  6
CONTINUOUS
 10
26.369872981077751
 20
-42.5
 30
0.0
 11
20.030127018922169
 21
-42.5
 31
0.0
  0
LINE
  5
13C8
  8
240
  6
CONTINUOUS
 10
2.8000000000000389
 20
-50.0
 30
0.0
 11
15.69999999999996
 21
-50.0
 31
0.0
  0
LINE
  5
13C9
  8
240
  6
CONTINUOUS
 10
0.0
 20
-34.925000000000011
 30
0.0
 11
-100.4308910289148
 21
-20.278828391616631
 31
0.0
  0
LINE
  5
13CA
  8
245
  6
CENTER2
 10
23.199999999999928
 20
-54.283582511617738
 30
0.0
 11
23.199999999999871
 21
54.28358251161778
 31
0.0
  0
LINE
  5
13CB
  8
241
  6
CONTINUOUS
 10
0.0
 20
-34.925000000000011
 30
0.0
 11
0.0
 21
34.92500000000004
 31
0.0
  0
LINE
  5
13CC
  8
241
  6
CONTINUOUS
 10
15.69999999999993
 20
-49.858600000000017
 30
0.0
 11
15.69999999999993
 21
0.0
 31
0.0
  0
LINE
  5
13CD
  8
241
  6
CONTINUOUS
 10
20.030127018922151
 20
-42.5
 30
0.0
 11
20.030127018922151
 21
42.500000000000043
 31
0.0
  0
LINE
  5
13CE
  8
241
  6
CONTINUOUS
 10
26.369872981077719
 20
-42.5
 30
0.0
 11
26.36987298107773
 21
42.500000000000043
 31
0.0
  0
LINE
  5
13CF
  8
241
  6
CONTINUOUS
 10
30.699999999999928
 20
-49.858600000000017
 30
0.0
 11
30.699999999999989
 21
49.85860000000006
 31
0.0
  0
LINE
  5
13D0
  8
240
  6
CONTINUOUS
 10
1.500000000000028
 20
-48.699999999999989
 30
0.0
 11
1.500000000000012
 21
-34.925000000000011
 31
0.0
  0
LINE
  5
13D1
  8
240
  6
CONTINUOUS
 10
38.0
 20
-48.699999999999989
 30
0.0
 11
38.00000000000005
 21
-44.571067811863813
 31
0.0
  0
ARC
  5
13D2
  8
240
  6
CONTINUOUS
 10
36.699999999999989
 20
-48.699999999999989
 30
0.0
 40
1.2999999999999841
 50
284.9999999999996
 51
0.0
  0
LINE
  5
13D3
  8
243
 10
-46.090923810367713
 20
12.000000000000769
 30
0.0
 11
89.999999999998892
 21
12.00000000000002
 31
0.0
  0
ARC
  5
13D4
  8
240
  6
CONTINUOUS
 10
42.999999999999062
 20
-44.571067811863877
 30
0.0
 40
5.0
 50
135.0
 51
180.0
1001
ASK_MEN_XD
1005
0
1070
     1
1005
0
1070
     1
  0
LINE
  5
13D5
  8
240
  6
CONTINUOUS
 10
48.121320343557841
 20
-32.378679656439772
 30
0.0
 11
39.46446609406641
 21
-41.035533905931118
 31
0.0
  0
ARC
  5
13D6
  8
240
 10
50.242640687117472
 20
-34.499999999999488
 30
0.0
 40
3.0
 50
89.999999999998366
 51
135.0
1001
ASK_MEN_XD
1005
0
1070
     1
1005
0
1070
     1
  0
LINE
  5
13D7
  8
240
 10
89.299999999998477
 20
-15.500000000008811
 30
0.0
 11
89.707106781187207
 21
-15.092893218804701
 31
0.0
  0
ARC
  5
13D8
  8
240
  6
CONTINUOUS
 10
88.999999999998906
 20
-14.385786437622411
 30
0.0
 40
1.0
 50
315.00000000000227
 51
0.0
  0
LINE
  5
13DA
  8
240
 10
52.214213562406819
 20
-31.09999999999707
 30
0.0
 11
61.185786437656809
 21
-31.099999999997241
 31
0.0
  0
LINE
  5
13DB
  8
240
 10
51.507106781220379
 20
-31.39289321881034
 30
0.0
 11
51.400000000031071
 21
-31.499999999999549
 31
0.0
  0
ARC
  5
13DC
  8
240
 10
52.21421356240679
 20
-32.099999999997067
 30
0.0
 40
1.0
 50
89.999999999998366
 51
135.0000000000023
  0
LINE
  5
13DD
  8
240
 10
61.892893218845408
 20
-31.392893218809661
 30
0.0
 11
62.000000000035378
 21
-31.499999999999719
 31
0.0
  0
ARC
  5
13DE
  8
240
 10
61.185786437656787
 20
-32.099999999997237
 30
0.0
 40
1.0
 50
44.999999999990777
 51
89.999999999995111
  0
LINE
  5
13DF
  8
240
 10
64.814213562374789
 20
-31.100000000000591
 30
0.0
 11
69.185786437624756
 21
-31.100000000000652
 31
0.0
  0
LINE
  5
13E0
  8
240
 10
64.107106781188349
 20
-31.392893218813871
 30
0.0
 11
64.000000000002643
 21
-31.499999999999719
 31
0.0
  0
ARC
  5
13E1
  8
240
 10
64.814213562374761
 20
-32.100000000000591
 30
0.0
 40
1.0
 50
89.999999999998366
 51
135.0000000000023
  0
LINE
  5
13E2
  8
240
 10
69.892893218811423
 20
-31.392893218813981
 30
0.0
 11
69.999999999998408
 21
-31.50000000000119
 31
0.0
  0
ARC
  5
13E3
  8
240
 10
69.185786437624714
 20
-32.100000000000648
 30
0.0
 40
1.0
 50
44.999999999990777
 51
89.999999999995111
  0
LINE
  5
13E4
  8
240
 10
51.400000000031071
 20
-31.499999999999549
 30
0.0
 11
50.242640687117529
 21
-31.499999999999488
 31
0.0
  0
LINE
  5
13E5
  8
240
 10
64.000000000002643
 20
-31.499999999999719
 30
0.0
 11
62.000000000035378
 21
-31.499999999999719
 31
0.0
  0
LINE
  5
13E6
  8
241
  6
HIDDEN2
 10
34.000001907349287
 20
-35.399999999999181
 30
0.0
 11
34.000001907349628
 21
-49.999999999999432
 31
0.0
  0
LINE
  5
13E7
  8
241
  6
HIDDEN2
 10
1.500000000000012
 20
-35.399999999999807
 30
0.0
 11
34.000001907349287
 21
-35.399999999999181
 31
0.0
  0
LINE
  5
13FE
  8
240
 10
73.829234185502202
 20
-31.23205080756901
 30
0.0
 11
88.549999999998988
 21
-22.73301270189225
 31
0.0
  0
LINE
  5
13FF
  8
240
 10
72.82923418550223
 20
-31.50000000000011
 30
0.0
 11
69.999999999997584
 21
-31.50000000000011
 31
0.0
  0
ARC
  5
1400
  8
240
 10
72.82923418550223
 20
-29.500000000000121
 30
0.0
 40
2.0
 50
270.0
 51
299.99999999999841
1001
ASK_MEN_XD
1005
0
1070
     1
1005
0
1070
     1
  0
LINE
  5
1401
  8
240
  6
CONTINUOUS
 10
89.299999999999017
 20
-21.43397459621557
 30
0.0
 11
89.299999999998946
 21
-15.50000000000832
 31
0.0
  0
ARC
  5
1402
  8
240
 10
87.799999999999017
 20
-21.43397459621557
 30
0.0
 40
1.5
 50
299.99999999999841
 51
0.0
1001
ASK_MEN_XD
1005
0
1070
     1
1005
0
1070
     1
  0
LINE
  5
1410
  8
245
 10
-105.8349019972264
 20
0.0000000000000121
 30
0.0
 11
92.426309333291783
 21
0.0
 31
0.0
  0
LINE
  5
1413
  8
240
 10
0.0
 20
-34.925000000000011
 30
0.0
 11
1.500000000000012
 21
-34.925000000000011
 31
0.0
  0
LINE
  5
141C
  8
241
 10
62.000000000035378
 20
-31.499999999999719
 30
0.0
 11
62.000000000035399
 21
31.499999999999751
 31
0.0
  0
LINE
  5
141E
  8
241
 10
69.999999999998408
 20
-31.50000000000119
 30
0.0
 11
69.99999999999838
 21
31.500000000001229
 31
0.0
  0
LINE
  5
1420
  8
241
 10
89.299999999998477
 20
-15.500000000008811
 30
0.0
 11
89.299999999998477
 21
15.500000000008839
 31
0.0
  0
LINE
  5
1421
  8
241
 10
49.09459039002224
 20
-31.728361402465609
 30
0.0
 11
49.09459039002224
 21
31.728361402465652
 31
0.0
  0
ARC
  5
1422
  8
240
  6
CONTINUOUS
 10
2.8000000000000389
 20
48.700000000000031
 30
0.0
 40
1.3
 50
90.000000000000028
 51
180.0
  0
LINE
  5
1423
  8
240
  6
CONTINUOUS
 10
-101.04082247369939
 20
20.05683150077212
 30
0.0
 11
-100.4308910289152
 21
20.27882839161661
 31
0.0
  0
ARC
  5
1424
  8
240
  6
CONTINUOUS
 10
-100.2
 20
18.69557562191542
 30
0.0
 40
1.6000000000000001
 50
121.7028726302462
 51
180.0
  0
LINE
  5
1425
  8
240
  6
CONTINUOUS
 10
36.871148246863562
 20
50.000000000000043
 30
0.0
 11
37.03646475863323
 21
49.955703574175843
 31
0.0
  0
LINE
  5
1426
  8
240
  6
CONTINUOUS
 10
36.871148246863562
 20
50.000000000000043
 30
0.0
 11
30.69999999999996
 21
50.000000000000043
 31
0.0
  0
LINE
  5
1427
  8
240
  6
CONTINUOUS
 10
26.369872981077751
 20
42.500000000000043
 30
0.0
 11
30.69999999999996
 21
50.000000000000043
 31
0.0
  0
LINE
  5
1428
  8
240
  6
CONTINUOUS
 10
20.030127018922169
 20
42.500000000000043
 30
0.0
 11
15.69999999999996
 21
50.000000000000043
 31
0.0
  0
LINE
  5
1429
  8
240
  6
CONTINUOUS
 10
26.369872981077751
 20
42.500000000000043
 30
0.0
 11
20.030127018922169
 21
42.500000000000043
 31
0.0
  0
LINE
  5
142A
  8
240
  6
CONTINUOUS
 10
2.8000000000000389
 20
50.000000000000043
 30
0.0
 11
15.69999999999996
 21
50.000000000000043
 31
0.0
  0
LINE
  5
142B
  8
240
  6
CONTINUOUS
 10
0.0
 20
34.925000000000047
 30
0.0
 11
-100.4308910289148
 21
20.27882839161666
 31
0.0
  0
LINE
  5
142E
  8
241
  6
CONTINUOUS
 10
15.69999999999993
 20
49.85860000000006
 30
0.0
 11
15.69999999999993
 21
0.0000000000000213
 31
0.0
  0
LINE
  5
1432
  8
240
  6
CONTINUOUS
 10
1.500000000000028
 20
48.700000000000031
 30
0.0
 11
1.500000000000012
 21
34.925000000000047
 31
0.0
  0
LINE
  5
1433
  8
240
  6
CONTINUOUS
 10
38.0
 20
48.700000000000031
 30
0.0
 11
38.00000000000005
 21
44.571067811863848
 31
0.0
  0
ARC
  5
1434
  8
240
  6
CONTINUOUS
 10
36.699999999999989
 20
48.700000000000031
 30
0.0
 40
1.2999999999999841
 50
0.0
 51
75.000000000000455
  0
ARC
  5
1435
  8
240
  6
CONTINUOUS
 10
42.999999999999062
 20
44.571067811863919
 30
0.0
 40
5.0
 50
180.0
 51
225.0
1001
ASK_MEN_XD
1005
0
1070
     1
1005
0
1070
     1
  0
LINE
  5
1436
  8
240
  6
CONTINUOUS
 10
48.121320343557841
 20
32.378679656439807
 30
0.0
 11
39.46446609406641
 21
41.035533905931153
 31
0.0
  0
ARC
  5
1437
  8
240
 10
50.242640687117472
 20
34.499999999999531
 30
0.0
 40
3.0
 50
225.0
 51
270.00000000000171
1001
ASK_MEN_XD
1005
0
1070
     1
1005
0
1070
     1
  0
LINE
  5
1438
  8
240
 10
89.299999999998477
 20
15.500000000008839
 30
0.0
 11
89.707106781187207
 21
15.092893218804729
 31
0.0
  0
ARC
  5
1439
  8
240
  6
CONTINUOUS
 10
88.999999999998906
 20
14.385786437622439
 30
0.0
 40
1.0
 50
0.0
 51
44.999999999997733
  0
LINE
  5
143A
  8
240
  6
CONTINUOUS
 10
89.999999999998892
 20
14.3857864376225
 30
0.0
 11
89.999999999998892
 21
-14.385786437622469
 31
0.0
  0
LINE
  5
143B
  8
240
 10
52.214213562406819
 20
31.099999999997099
 30
0.0
 11
61.185786437656809
 21
31.09999999999728
 31
0.0
  0
LINE
  5
143C
  8
240
 10
51.507106781220379
 20
31.392893218810379
 30
0.0
 11
51.400000000031071
 21
31.499999999999581
 31
0.0
  0
ARC
  5
143D
  8
240
 10
52.21421356240679
 20
32.099999999997102
 30
0.0
 40
1.0
 50
224.9999999999977
 51
270.00000000000171
  0
LINE
  5
143E
  8
240
 10
61.892893218845408
 20
31.3928932188097
 30
0.0
 11
62.000000000035378
 21
31.499999999999751
 31
0.0
  0
ARC
  5
143F
  8
240
 10
61.185786437656787
 20
32.099999999997273
 30
0.0
 40
1.0
 50
270.00000000000489
 51
315.00000000000921
  0
LINE
  5
1440
  8
240
 10
64.814213562374789
 20
31.10000000000063
 30
0.0
 11
69.185786437624756
 21
31.100000000000691
 31
0.0
  0
LINE
  5
1441
  8
240
 10
64.107106781188349
 20
31.39289321881391
 30
0.0
 11
64.000000000002643
 21
31.499999999999751
 31
0.0
  0
ARC
  5
1442
  8
240
 10
64.814213562374761
 20
32.100000000000627
 30
0.0
 40
1.0
 50
224.9999999999977
 51
270.00000000000171
  0
LINE
  5
1443
  8
240
 10
69.892893218811423
 20
31.39289321881402
 30
0.0
 11
69.999999999998408
 21
31.500000000001229
 31
0.0
  0
ARC
  5
1444
  8
240
 10
69.185786437624714
 20
32.100000000000684
 30
0.0
 40
1.0
 50
270.00000000000489
 51
315.00000000000921
  0
LINE
  5
1445
  8
240
 10
51.400000000031071
 20
31.499999999999581
 30
0.0
 11
50.242640687117529
 21
31.49999999999952
 31
0.0
  0
LINE
  5
1446
  8
240
 10
64.000000000002643
 20
31.499999999999751
 30
0.0
 11
62.000000000035378
 21
31.499999999999751
 31
0.0
  0
LINE
  5
1447
  8
241
  6
HIDDEN2
 10
34.000001907349287
 20
35.399999999999217
 30
0.0
 11
34.000001907349628
 21
49.999999999999467
 31
0.0
  0
LINE
  5
1448
  8
241
  6
HIDDEN2
 10
1.500000000000012
 20
35.399999999999842
 30
0.0
 11
34.000001907349287
 21
35.399999999999217
 31
0.0
  0
LINE
  5
1449
  8
240
 10
73.829234185502202
 20
31.232050807569049
 30
0.0
 11
88.549999999998988
 21
22.733012701892282
 31
0.0
  0
LINE
  5
144A
  8
240
 10
72.82923418550223
 20
31.500000000000149
 30
0.0
 11
69.999999999997584
 21
31.500000000000149
 31
0.0
  0
ARC
  5
144B
  8
240
 10
72.82923418550223
 20
29.500000000000149
 30
0.0
 40
2.0
 50
60.000000000001691
 51
90.000000000000028
1001
ASK_MEN_XD
1005
0
1070
     1
1005
0
1070
     1
  0
LINE
  5
144C
  8
240
  6
CONTINUOUS
 10
89.299999999999017
 20
21.433974596215599
 30
0.0
 11
89.299999999998946
 21
15.500000000008351
 31
0.0
  0
ARC
  5
144D
  8
240
 10
87.799999999999017
 20
21.433974596215599
 30
0.0
 40
1.5
 50
0.0
 51
60.000000000001691
1001
ASK_MEN_XD
1005
0
1070
     1
1005
0
1070
     1
  0
LINE
  5
144E
  8
240
 10
-101.8
 20
18.69557562191542
 30
0.0
 11
-101.8
 21
-18.695575621915388
 31
0.0
  0
LINE
  5
144F
  8
240
 10
0.0
 20
34.925000000000047
 30
0.0
 11
1.500000000000012
 21
34.925000000000047
 31
0.0
  0
LINE
  5
1450
  8
241
 10
1.500000000000012
 20
34.925000000000047
 30
0.0
 11
1.500000000000012
 21
-34.925000000000011
 31
0.0
  0
LINE
  5
1451
  8
241
 10
38.00000000000005
 20
44.57106781186387
 30
0.0
 11
38.00000000000005
 21
-44.57106781186382
 31
0.0
  0
LINE
  5
1452
  8
241
 10
51.400000000031071
 20
31.499999999999581
 30
0.0
 11
51.400000000031071
 21
-31.499999999999549
 31
0.0
  0
LINE
  5
1454
  8
241
 10
64.000000000002643
 20
31.499999999999751
 30
0.0
 11
64.000000000002643
 21
-31.499999999999719
 31
0.0
  0
LINE
  5
1456
  8
241
 10
73.346872275707241
 20
31.431851652578288
 30
0.0
 11
73.346872275707241
 21
-31.43185165257826
 31
0.0
  0
TEXT
  5
158F
  8
241
 10
-102.273
 20
80.468000000000004
 30
0.0
 40
5.0
  1
BBT50-HDC24L-90
  7
YOKO
 11
-102.273
 21
80.468000000000004
 31
0.0
 73
     1
  0
LINE
  5
1590
  8
250
 10
-53.781569849999997
 20
-37.791071780000003
 30
0.0
 11
-71.514903180000005
 21
-37.791071780000003
 31
0.0
1001
ITEMNAME
1000
LNSP2
  0
INSERT
  5
1593
  8
245
  2
HDC-CLAMPSCREW
 10
49.0
 20
37.888329640000009
 30
0.0
 50
35.0
  0
TEXT
  5
1594
  8
251
 10
59.978594739999998
 20
60.068623030000012
 30
0.0
 40
3.0
  1
クランプスクリュ
 50
305.0
  7
YOKO
 11
59.978594739999998
 21
60.068623030000012
 31
0.0
 73
     1
  0
LINE
  5
15A7
  8
250
 10
89.999999999998892
 20
14.885786437622439
 30
0.0
 11
89.999999999998892
 21
64.0
 31
0.0
  0
LINE
  5
15A8
  8
250
 10
0.0
 20
35.42500000000004
 30
0.0
 11
0.0000000000000018
 21
64.0
 31
0.0
  0
LINE
  5
15A9
  8
250
 10
87.769999999998888
 20
63.0
 30
0.0
 11
2.2300000000000009
 21
63.0
 31
0.0
  0
LINE
  5
15AD
  8
250
 10
89.999999999998892
 20
14.885786437622439
 30
0.0
 11
89.999999999998892
 21
71.0
 31
0.0
  0
LINE
  5
15AE
  8
250
 10
-59.000000000001108
 20
14.8857864376225
 30
0.0
 11
-59.000000000001108
 21
71.0
 31
0.0
  0
LINE
  5
15AF
  8
250
 10
87.769999999998888
 20
70.0
 30
0.0
 11
-56.770000000001112
 21
70.0
 31
0.0
  0
LINE
  5
15B3
  8
250
 10
90.499999999998877
 20
12.00000000000002
 30
0.0
 11
99.0
 21
12.00000000000002
 31
0.0
  0
LINE
  5
15B4
  8
250
 10
98.0
 20
9.7700000000000227
 30
0.0
 11
98.0
 21
-4.5999999999999872
 31
0.0
  0
LINE
  5
15B7
  8
250
 10
73.32923418550223
 20
31.500000000000149
 30
0.0
 11
106.0
 21
31.500000000000139
 31
0.0
  0
LINE
  5
15B8
  8
250
 10
73.32923418550223
 20
-31.50000000000011
 30
0.0
 11
106.0
 21
-31.500000000000131
 31
0.0
  0
LINE
  5
15B9
  8
250
 10
105.0
 20
29.270000000000142
 30
0.0
 11
105.0
 21
-29.27000000000012
 31
0.0
  0
TEXT
  5
15BF
  8
250
 10
-69.248236513333325
 20
-36.791071780000003
 30
0.0
 40
2.7999999999999989
  1
BBT50
  7
YOKO
1001
ITEMNAME
1000
LNSP3
  0
LINE
  5
15C0
  8
250
 10
-49.078759359591253
 20
-29.64556506780486
 30
0.0
 11
-53.781569849999997
 21
-37.791071780000003
 31
0.0
1001
ACAD
1000
DSTYLE
1002
{
1070
     6
1000
OPEN
1070
    41
1040
2.0
1070
   343
1005
594
1002
}
  0
LINE
  5
15C1
  8
250
 10
-49.367434494225392
 20
-29.478898401206319
 30
0.0
 11
-48.078759359999999
 21
-27.913514259999989
 31
0.0
  0
LINE
  5
15C2
  8
250
 10
-48.790084224957113
 20
-29.812231734403401
 30
0.0
 11
-48.078759359999999
 21
-27.913514259999989
 31
0.0
  0
LINE
  5
15C3
  8
250
 10
-48.078759359999999
 20
-27.913514259999989
 30
0.0
 11
-49.078759359591253
 21
-29.64556506780486
 31
0.0
  0
TEXT
  5
15C4
  8
250
 10
97.0
 20
-3.8666666666666369
 30
0.0
 40
2.7999999999999989
  1
\U+220524
 50
90.0
  0
LINE
  5
15C5
  8
250
 10
97.62833333333333
 20
9.7700000000000227
 30
0.0
 11
98.0
 21
12.00000000000002
 31
0.0
  0
LINE
  5
15C6
  8
250
 10
98.371666666666684
 20
9.7700000000000227
 30
0.0
 11
98.0
 21
12.00000000000002
 31
0.0
  0
LINE
  5
15C7
  8
250
 10
98.0
 20
12.00000000000002
 30
0.0
 11
98.0
 21
9.7700000000000227
 31
0.0
  0
TEXT
  5
15C8
  8
250
 10
104.0
 20
-3.7999999999999732
 30
0.0
 40
2.7999999999999989
  1
\U+220563
 50
90.0
  0
LINE
  5
15C9
  8
250
 10
105.3716666666667
 20
-29.27000000000012
 30
0.0
 11
105.0
 21
-31.500000000000131
 31
0.0
  0
LINE
  5
15CA
  8
250
 10
104.6283333333333
 20
-29.27000000000012
 30
0.0
 11
105.0
 21
-31.500000000000131
 31
0.0
  0
LINE
  5
15CB
  8
250
 10
105.0
 20
-31.500000000000131
 30
0.0
 11
105.0
 21
-29.27000000000012
 31
0.0
  0
LINE
  5
15CC
  8
250
 10
104.6283333333333
 20
29.270000000000142
 30
0.0
 11
105.0
 21
31.500000000000139
 31
0.0
  0
LINE
  5
15CD
  8
250
 10
105.3716666666667
 20
29.270000000000142
 30
0.0
 11
105.0
 21
31.500000000000139
 31
0.0
  0
LINE
  5
15CE
  8
250
 10
105.0
 20
31.500000000000139
 30
0.0
 11
105.0
 21
29.270000000000142
 31
0.0
  0
TEXT
  5
15CF
  8
250
 10
42.333333333332781
 20
64.0
 30
0.0
 40
2.7999999999999989
  1
90
  0
TEXT
  5
15D0
  8
250
 10
4.5666666666655518
 20
72.200000000000003
 30
0.0
 40
2.7999999999999989
  1
(max.149)
  0
LINE
  5
15D1
  8
250
 10
-56.770000000001112
 20
69.62833333333333
 30
0.0
 11
-59.000000000001108
 21
70.0
 31
0.0
  0
LINE
  5
15D2
  8
250
 10
-56.770000000001112
 20
70.37166666666667
 30
0.0
 11
-59.000000000001108
 21
70.0
 31
0.0
  0
LINE
  5
15D3
  8
250
 10
-59.000000000001108
 20
70.0
 30
0.0
 11
-56.770000000001112
 21
70.0
 31
0.0
  0
LINE
  5
15D4
  8
250
 10
87.769999999998888
 20
70.37166666666667
 30
0.0
 11
89.999999999998892
 21
70.0
 31
0.0
  0
LINE
  5
15D5
  8
250
 10
87.769999999998888
 20
69.62833333333333
 30
0.0
 11
89.999999999998892
 21
70.0
 31
0.0
  0
LINE
  5
15D6
  8
250
 10
89.999999999998892
 20
70.0
 30
0.0
 11
87.769999999998888
 21
70.0
 31
0.0
  0
LINE
  5
15D7
  8
250
 10
2.2300000000000009
 20
62.62833333333333
 30
0.0
 11
0.0000000000000017
 21
63.0
 31
0.0
  0
LINE
  5
15D8
  8
250
 10
2.2300000000000009
 20
63.37166666666667
 30
0.0
 11
0.0000000000000017
 21
63.0
 31
0.0
  0
LINE
  5
15D9
  8
250
 10
0.0000000000000017
 20
63.0
 30
0.0
 11
2.2300000000000009
 21
63.0
 31
0.0
  0
LINE
  5
15DA
  8
250
 10
87.769999999998888
 20
63.37166666666667
 30
0.0
 11
89.999999999998892
 21
63.0
 31
0.0
  0
LINE
  5
15DB
  8
250
 10
87.769999999998888
 20
62.62833333333333
 30
0.0
 11
89.999999999998892
 21
63.0
 31
0.0
  0
LINE
  5
15DC
  8
250
 10
89.999999999998892
 20
63.0
 30
0.0
 11
87.769999999998888
 21
63.0
 31
0.0
  0
VIEWPORT
  5
22
 67
     1
  8
0
 10
261.51769911504419
 20
148.5
 30
0.0
 40
523.0353982300885
 41
297.0
 68
     1
 69
     1
1001
ACAD
1000
MVIEW
1002
{
1070
    16
1010
0.0
1020
0.0
1030
0.0
1010
0.0
1020
0.0
1030
1.0
1040
0.0
1040
297.0
1040
261.51769911504419
1040
148.5
1040
50.0
1040
0.0
1040
0.0
1070
     0
1070
   100
1070
     1
1070
     1
1070
     0
1070
     0
1070
     0
1070
     0
1040
0.0
1040
0.0
1040
0.0
1040
1.0
1040
1.0
1040
10.0
1040
10.0
1070
     0
1002
{
1002
}
1002
}
1001
GENIUS_GENODEF_13
1002
{
1000
HIER
1070
     0
1002
}
1002
{
1000
MANEDIT
1070
     0
1002
}
1002
{
1000
NOSEL
1070
     0
1002
}
1002
{
1000
BEHIND
1070
     0
1002
}
1002
{
1000
OTHER
1070
     0
1002
}
1002
{
1000
REACTOR
1002
}
1001
GENIUS_GENOBJ-N-SDF_13
1002
{
1000
OWNER
1000
GEN
1002
}
1001
GENIUS_GENSCREG_15
1000
PF
1040
1.0
1000
DF
1040
1.0
1000
MIN
1011
0.0
1021
0.0
1031
0.0
1021
0.0
1031
0.0
1000
MAX
1011
523.0353982300885
1021
0.0
1031
0.0
1021
297.0
1031
0.0
1000
FLAGS
1070
     2
  0
ENDSEC
  0
EOF
