  0
SECTION
  2
HEADER
  9
$ACADVER
  1
AC1009
  9
$INSBASE
 10
0.0
 20
0.0
 30
0.0
  9
$EXTMIN
 10
-103.8
 20
-53.460736299874718
 30
0.0
  9
$EXTMAX
 10
113.0
 20
85.468000000000004
 30
0.0
  9
$LIMMIN
 10
0.0
 20
0.0
  9
$LIMMAX
 10
297.0
 20
210.0
  9
$ORTHOMODE
 70
     1
  9
$REGENMODE
 70
     1
  9
$FILLMODE
 70
     1
  9
$QTEXTMODE
 70
     0
  9
$MIRRTEXT
 70
     1
  9
$DRAGMODE
 70
     2
  9
$LTSCALE
 40
10.0
  9
$OSMODE
 70
    39
  9
$ATTMODE
 70
     1
  9
$TEXTSIZE
 40
3.0
  9
$TRACEWID
 40
1.0
  9
$TEXTSTYLE
  7
YOKO
  9
$CLAYER
  8
240
  9
$CELTYPE
  6
BYLAYER
  9
$CECOLOR
 62
   256
  9
$DIMSCALE
 40
1.0
  9
$DIMASZ
 40
2.2299999999999991
  9
$DIMEXO
 40
0.5
  9
$DIMDLI
 40
7.0
  9
$DIMRND
 40
0.0
  9
$DIMDLE
 40
0.0
  9
$DIMEXE
 40
1.0
  9
$DIMTP
 40
0.0
  9
$DIMTM
 40
0.01
  9
$DIMTXT
 40
2.7999999999999989
  9
$DIMCEN
 40
0.0
  9
$DIMTSZ
 40
0.0
  9
$DIMTOL
 70
     0
  9
$DIMLIM
 70
     0
  9
$DIMTIH
 70
     0
  9
$DIMTOH
 70
     0
  9
$DIMSE1
 70
     0
  9
$DIMSE2
 70
     0
  9
$DIMTAD
 70
     3
  9
$DIMZIN
 70
     9
  9
$DIMBLK
  1
OPEN
  9
$DIMASO
 70
     1
  9
$DIMSHO
 70
     1
  9
$DIMPOST
  1

  9
$DIMAPOST
  1

  9
$DIMALT
 70
     0
  9
$DIMALTD
 70
     2
  9
$DIMALTF
 40
25.399999999999999
  9
$DIMLFAC
 40
1.0
  9
$DIMTOFL
 70
     1
  9
$DIMTVP
 40
0.0
  9
$DIMTIX
 70
     1
  9
$DIMSOXD
 70
     0
  9
$DIMSAH
 70
     0
  9
$DIMBLK1
  1

  9
$DIMBLK2
  1

  9
$DIMSTYLE
  2
BIGT
  9
$DIMCLRD
 70
   256
  9
$DIMCLRE
 70
   256
  9
$DIMCLRT
 70
    40
  9
$DIMTFAC
 40
1.0
  9
$DIMGAP
 40
1.0
  9
$LUNITS
 70
     2
  9
$LUPREC
 70
     3
  9
$SKETCHINC
 40
1.0
  9
$FILLETRAD
 40
1.3
  9
$AUNITS
 70
     0
  9
$AUPREC
 70
     3
  9
$MENU
  1
.
  9
$ELEVATION
 40
0.0
  9
$PELEVATION
 40
0.0
  9
$THICKNESS
 40
0.0
  9
$LIMCHECK
 70
     0
  9
$BLIPMODE
 70
     0
  9
$CHAMFERA
 40
0.25
  9
$CHAMFERB
 40
0.25
  9
$SKPOLY
 70
     0
  9
$TDCREATE
 40
2456211.641336123
  9
$TDUPDATE
 40
2456211.6718796408
  9
$TDINDWG
 40
0.016245
  9
$TDUSRTIMER
 40
0.016245
  9
$USRTIMER
 70
     1
  9
$ANGBASE
 50
0.0
  9
$ANGDIR
 70
     0
  9
$PDMODE
 70
     1
  9
$PDSIZE
 40
0.0
  9
$PLINEWID
 40
0.0
  9
$COORDS
 70
     2
  9
$SPLFRAME
 70
     0
  9
$SPLINETYPE
 70
     6
  9
$SPLINESEGS
 70
     4
  9
$ATTDIA
 70
     1
  9
$ATTREQ
 70
     1
  9
$HANDLING
 70
     1
  9
$HANDSEED
  5
177F
  9
$SURFTAB1
 70
     6
  9
$SURFTAB2
 70
     6
  9
$SURFTYPE
 70
     6
  9
$SURFU
 70
     6
  9
$SURFV
 70
     6
  9
$UCSNAME
  2

  9
$UCSORG
 10
0.0
 20
0.0
 30
0.0
  9
$UCSXDIR
 10
1.0
 20
0.0
 30
0.0
  9
$UCSYDIR
 10
0.0
 20
1.0
 30
0.0
  9
$PUCSNAME
  2

  9
$PUCSORG
 10
0.0
 20
0.0
 30
0.0
  9
$PUCSXDIR
 10
1.0
 20
0.0
 30
0.0
  9
$PUCSYDIR
 10
0.0
 20
1.0
 30
0.0
  9
$USERI1
 70
     1
  9
$USERI2
 70
     0
  9
$USERI3
 70
     0
  9
$USERI4
 70
     0
  9
$USERI5
 70
     0
  9
$USERR1
 40
0.0
  9
$USERR2
 40
0.0
  9
$USERR3
 40
0.0
  9
$USERR4
 40
0.0
  9
$USERR5
 40
0.0
  9
$WORLDVIEW
 70
     1
  9
$SHADEDGE
 70
     3
  9
$SHADEDIF
 70
    70
  9
$TILEMODE
 70
     1
  9
$MAXACTVP
 70
    16
  9
$PLIMCHECK
 70
     0
  9
$PEXTMIN
 10
1.0000000000000000E+020
 20
1.0000000000000000E+020
 30
1.0000000000000000E+020
  9
$PEXTMAX
 10
-1.0000000000000000E+020
 20
-1.0000000000000000E+020
 30
-1.0000000000000000E+020
  9
$PLIMMIN
 10
0.0
 20
0.0
  9
$PLIMMAX
 10
420.0
 20
297.0
  9
$UNITMODE
 70
     0
  9
$VISRETAIN
 70
     1
  9
$PLINEGEN
 70
     0
  9
$PSLTSCALE
 70
     1
  0
ENDSEC
  0
SECTION
  2
TABLES
  0
TABLE
  2
VPORT
 70
     3
  0
VPORT
  2
*ACTIVE
 70
     0
 10
0.0
 20
0.0
 11
1.0
 21
1.0
 12
4.6021047109995399
 22
15.999298481037041
 13
0.0
 23
0.0
 14
7.0
 24
7.0
 15
7.0
 25
7.0
 16
0.0
 26
0.0
 36
1.0
 17
0.0
 27
0.0
 37
0.0
 40
147.64114487577001
 41
1.4753018660812289
 42
50.0
 43
0.0
 44
0.0
 50
0.0
 51
0.0
 71
     0
 72
  2000
 73
     1
 74
     0
 75
     0
 76
     0
 77
     0
 78
     0
  0
ENDTAB
  0
TABLE
  2
LTYPE
 70
    13
  0
LTYPE
  2
CONTINUOUS
 70
     0
  3
Solid line
 72
    65
 73
     0
 40
0.0
  0
LTYPE
  2
CENTER2
 70
     0
  3
___ _ ___ _ ___ _ ___ _ ___ _ ___ _ ___ _ ___ _
 72
    65
 73
     4
 40
1.125
 49
0.75
 49
-0.125
 49
0.125
 49
-0.125
  0
LTYPE
  2
HIDDEN2
 70
     0
  3
_ _ _ _ _ _ _ _ _ _ _ _ _ _ _ _ _ _ _ _ _ _ _ _
 72
    65
 73
     2
 40
0.1875
 49
0.125
 49
-0.0625
  0
LTYPE
  2
PHANTOM2
 70
     0
  3
___ _ _ ___ _ _ ___ _ _ ___ _ _ ___ _ _ ___ _ _
 72
    65
 73
     6
 40
1.25
 49
0.625
 49
-0.125
 49
0.125
 49
-0.125
 49
0.125
 49
-0.125
  0
LTYPE
  2
CENTER
 70
     0
  3
____ _ ____ _ ____ _ ____ _ ____ _ ____ _ ____ 
 72
    65
 73
     4
 40
2.0
 49
1.25
 49
-0.25
 49
0.25
 49
-0.25
  0
LTYPE
  2
AM_ISO02W050
 70
     0
  3
__ __ __ __ __ __ __ __ __ __ __ __ __ __ __
 72
    65
 73
     2
 40
7.5
 49
6.0
 49
-1.5
  0
LTYPE
  2
AMCONSTR
 70
     0
  3
_______________________
 72
    65
 73
     2
 40
9999.0
 49
9999.0
 49
0.0
  0
LTYPE
  2
ACISOWELD
 70
     0
  3
_ _ _ _ _
 72
    65
 73
     2
 40
2.0
 49
2.0
 49
-1.0
  0
LTYPE
  2
ACISOTGB
 70
     0
  3
__ . . __ . .
 72
    65
 73
     6
 40
9.0
 49
4.0
 49
-1.0
 49
1.0
 49
-1.0
 49
1.0
 49
-1.0
  0
LTYPE
  2
ACISOTGL
 70
     0
  3
_ _ _ _ _
 72
    65
 73
     2
 40
3.0
 49
2.0
 49
-1.0
  0
LTYPE
  2
ACJISTGB
 70
     0
  3
__ . . __ . .
 72
    65
 73
     6
 40
9.0
 49
4.0
 49
-1.0
 49
1.0
 49
-1.0
 49
1.0
 49
-1.0
  0
LTYPE
  2
ACJISTGL
 70
     0
  3
_ _ _ _ _
 72
    65
 73
     2
 40
3.0
 49
2.0
 49
-1.0
  0
LTYPE
  2
HIDDEN
 70
     0
  3
Hidden __ __ __ __ __ __ __ __ __ __ __ __ __ _
 72
    65
 73
     2
 40
9.5249999999999986
 49
6.3499999999999988
 49
-3.1749999999999989
  0
ENDTAB
  0
TABLE
  2
LAYER
 70
     8
  0
LAYER
  2
0
 70
     0
 62
     7
  6
CONTINUOUS
  0
LAYER
  2
DEFPOINTS
 70
     0
 62
     7
  6
CONTINUOUS
  0
LAYER
  2
245
 70
     0
 62
     2
  6
CENTER2
  0
LAYER
  2
240
 70
     0
 62
     4
  6
CONTINUOUS
  0
LAYER
  2
241
 70
     0
 62
   211
  6
CONTINUOUS
  0
LAYER
  2
243
 70
     0
 62
   211
  6
HIDDEN2
  0
LAYER
  2
250
 70
     0
 62
     3
  6
CONTINUOUS
  0
LAYER
  2
251
 70
     0
 62
    40
  6
CONTINUOUS
  0
ENDTAB
  0
TABLE
  2
STYLE
 70
     6
  0
STYLE
  2
STANDARD
 70
     0
 40
0.0
 41
1.0
 50
0.0
 71
     0
 42
3.0
  3
romans.shx
  4
extfont.shx
  0
STYLE
  2
ACISOTS
 70
     0
 40
1.0
 41
1.0
 50
0.0
 71
     0
 42
3.0
  3
amgdt.shx
  4
extfont.shx
  0
STYLE
  2
ACISOGDT
 70
     0
 40
0.0
 41
1.0
 50
0.0
 71
     0
 42
3.0
  3
amgdt.shx
  4
extfont.shx
  0
STYLE
  2
ACJISTS
 70
     0
 40
1.0
 41
1.0
 50
0.0
 71
     0
 42
3.0
  3
amgdt.shx
  4
extfont.shx
  0
STYLE
  2
ACJISGDT
 70
     0
 40
0.0
 41
1.0
 50
0.0
 71
     0
 42
3.0
  3
amgdt.shx
  4
extfont.shx
  0
STYLE
  2
YOKO
 70
     0
 40
0.0
 41
1.0
 50
0.0
 71
     0
 42
3.0
  3
romans.shx
  4
extfont.shx
  0
ENDTAB
  0
TABLE
  2
VIEW
 70
     0
  0
ENDTAB
  0
TABLE
  2
UCS
 70
     0
  0
ENDTAB
  0
TABLE
  2
APPID
 70
    30
  0
APPID
  2
ACAD
 70
     0
  0
APPID
  2
GLOBAL
 70
     0
  0
APPID
  2
DETAIL
 70
     0
  0
APPID
  2
GRPNAME
 70
     0
  0
APPID
  2
GPARA
 70
     0
  0
APPID
  2
MCAD_NO_VIS
 70
     0
  0
APPID
  2
ACAD_TEMP_GRAPHIC
 70
     0
  0
APPID
  2
ACATTRIBSERVICES
 70
     0
  0
APPID
  2
GENIUS_GENSCREG_15
 70
     0
  0
APPID
  2
GENIUS_GENODEF_13
 70
     0
  0
APPID
  2
GENIUS_GENOBJ-N-SDF_13
 70
     0
  0
APPID
  2
GENIUS_GENREC_14
 70
     0
  0
APPID
  2
GENIUS_GENOBJ-N-REC_13
 70
     0
  0
APPID
  2
GENIUS_GENDIMSH_14
 70
     0
  0
APPID
  2
GENIUS_GENOBJ-N-DIM_13
 70
     0
  0
APPID
  2
GENIUS_GENDIM_13
 70
     0
  0
APPID
  2
GENIUS_GENDTOL_13
 70
     0
  0
APPID
  2
GENIUS_GENOLIS_13
 70
     0
  0
APPID
  2
GENIUS_GENOENT_13
 70
     0
  0
APPID
  2
GENIUS_GENOBJ-F-FEM_13
 70
     0
  0
APPID
  2
GENIUS_GENOREF_13
 70
     0
  0
APPID
  2
GENIUS_GEFFEM_13
 70
     0
  0
APPID
  2
GENIUS_GEFFEMP_13
 70
     0
  0
APPID
  2
AD_DRAW
 70
     0
  0
APPID
  2
DESIGNERASSEMBLIES
 70
     0
  0
APPID
  2
ACADM_DIM_EDIT
 70
     0
  0
APPID
  2
AMDT_DM_ADJ
 70
     0
  0
APPID
  2
ASK_MEN_XD
 70
     0
  0
APPID
  2
ITEMNAME
 70
     0
  0
APPID
  2
GENIUS_GENOBJ-N-FIL_13
 70
     0
  0
ENDTAB
  0
TABLE
  2
DIMSTYLE
 70
    23
  0
DIMSTYLE
  2
BIGT
 70
     0
  3

  4

  5
OPEN
  6

  7

 40
1.0
 41
2.2299999999999991
 42
0.5
 43
7.0
 44
1.0
 45
0.0
 46
0.0
 47
0.0
 48
0.01
140
2.7999999999999989
141
0.0
142
0.0
143
25.399999999999999
144
1.0
145
0.0
146
1.0
147
1.0
 71
     0
 72
     0
 73
     0
 74
     0
 75
     0
 76
     0
 77
     3
 78
     9
170
     0
171
     2
172
     1
173
     0
174
     1
175
     0
176
   256
177
   256
178
    40
  0
DIMSTYLE
  2
AM_ISO
 70
     0
  3

  4
"
  5

  6

  7

 40
1.0
 41
2.5
 42
1.0
 43
10.0
 44
1.0
 45
0.0
 46
0.0
 47
0.1
 48
0.1
140
3.5
141
0.0
142
0.0
143
0.0393701
144
1.0
145
0.0
146
0.71
147
1.5
 71
     0
 72
     0
 73
     0
 74
     0
 75
     0
 76
     0
 77
     1
 78
     8
170
     0
171
     2
172
     1
173
     0
174
     0
175
     0
176
   256
177
   256
178
     2
  0
DIMSTYLE
  2
AM_ISO$3
 70
     0
  3

  4
"
  5

  6

  7

 40
1.0
 41
2.5
 42
1.0
 43
10.0
 44
1.0
 45
0.0
 46
0.0
 47
0.1
 48
0.1
140
3.5
141
0.0
142
0.0
143
0.0393701
144
1.0
145
0.0
146
0.71
147
1.5
 71
     0
 72
     0
 73
     0
 74
     1
 75
     0
 76
     0
 77
     1
 78
     8
170
     0
171
     2
172
     0
173
     0
174
     0
175
     0
176
   256
177
   256
178
     2
  0
DIMSTYLE
  2
AM_ISO$4
 70
     0
  3

  4
"
  5

  6

  7

 40
1.0
 41
2.5
 42
1.0
 43
10.0
 44
1.0
 45
0.0
 46
0.0
 47
0.1
 48
0.1
140
3.5
141
0.0
142
0.0
143
0.0393701
144
1.0
145
0.0
146
0.71
147
1.5
 71
     0
 72
     0
 73
     0
 74
     1
 75
     0
 76
     0
 77
     1
 78
     8
170
     0
171
     2
172
     0
173
     0
174
     0
175
     0
176
   256
177
   256
178
     2
  0
DIMSTYLE
  2
AM_ISO$6
 70
     0
  3

  4
"
  5

  6

  7

 40
1.0
 41
2.5
 42
1.0
 43
10.0
 44
1.0
 45
0.0
 46
0.0
 47
0.1
 48
0.1
140
3.5
141
0.0
142
0.0
143
0.0393701
144
1.0
145
0.0
146
0.71
147
1.5
 71
     0
 72
     0
 73
     0
 74
     0
 75
     0
 76
     0
 77
     0
 78
     8
170
     0
171
     2
172
     1
173
     0
174
     0
175
     0
176
   256
177
   256
178
     2
  0
DIMSTYLE
  2
AM_ISO$7
 70
     0
  3

  4
"
  5

  6

  7

 40
1.0
 41
2.5
 42
1.0
 43
10.0
 44
1.0
 45
0.0
 46
0.0
 47
0.1
 48
0.1
140
5.0
141
0.0
142
0.0
143
0.0393701
144
1.0
145
0.0
146
0.71
147
1.5
 71
     0
 72
     0
 73
     0
 74
     0
 75
     0
 76
     0
 77
     1
 78
     8
170
     0
171
     2
172
     1
173
     0
174
     0
175
     0
176
   256
177
   256
178
     2
  0
DIMSTYLE
  2
AM_ISO$SF
 70
     0
  3

  4
"
  5

  6

  7

 40
1.0
 41
2.5
 42
1.0
 43
10.0
 44
1.0
 45
0.0
 46
0.0
 47
0.1
 48
0.1
140
3.5
141
0.0
142
0.0
143
0.0393701
144
1.0
145
0.0
146
0.71
147
1.5
 71
     0
 72
     0
 73
     0
 74
     0
 75
     1
 76
     1
 77
     1
 78
     8
170
     0
171
     2
172
     1
173
     0
174
     0
175
     0
176
   256
177
   256
178
     2
  0
DIMSTYLE
  2
AM_ISO$SH
 70
     0
  3

  4
"
  5

  6
GENAXEH
  7

 40
1.0
 41
2.5
 42
1.0
 43
10.0
 44
1.0
 45
0.0
 46
0.0
 47
0.1
 48
0.1
140
3.5
141
0.0
142
0.0
143
0.0393701
144
2.0
145
0.0
146
0.71
147
1.5
 71
     0
 72
     0
 73
     0
 74
     0
 75
     1
 76
     1
 77
     1
 78
     8
170
     0
171
     2
172
     1
173
     1
174
     0
175
     0
176
   256
177
   256
178
     2
  0
DIMSTYLE
  2
BIGT$2
 70
     0
  3

  4

  5
OPEN
  6

  7

 40
1.0
 41
2.2299999999999991
 42
0.5
 43
7.0
 44
1.0
 45
0.0
 46
0.0
 47
0.0
 48
0.01
140
2.7999999999999989
141
0.0
142
0.0
143
25.399999999999999
144
1.0
145
0.0
146
1.0
147
1.0
 71
     0
 72
     0
 73
     0
 74
     0
 75
     0
 76
     0
 77
     3
 78
     9
170
     0
171
     2
172
     1
173
     0
174
     0
175
     0
176
   256
177
   256
178
    40
  0
DIMSTYLE
  2
BIGT$3
 70
     0
  3

  4

  5
OPEN
  6

  7

 40
1.0
 41
2.2299999999999991
 42
0.5
 43
2.5
 44
1.0
 45
0.0
 46
0.0
 47
0.0
 48
0.01
140
2.7999999999999989
141
0.0
142
0.0
143
25.399999999999999
144
1.0
145
0.0
146
1.0
147
1.0
 71
     0
 72
     0
 73
     0
 74
     0
 75
     0
 76
     0
 77
     3
 78
     9
170
     0
171
     2
172
     1
173
     0
174
     0
175
     0
176
   256
177
   256
178
    40
  0
DIMSTYLE
  2
BIGT$7
 70
     0
  3

  4

  5
OPEN
  6

  7

 40
0.0
 41
2.2299999999999991
 42
0.5
 43
7.0
 44
1.0
 45
0.0
 46
0.0
 47
0.0
 48
0.01
140
2.7999999999999989
141
0.0
142
0.0
143
25.399999999999999
144
1.0
145
0.0
146
1.0
147
1.0
 71
     0
 72
     0
 73
     0
 74
     0
 75
     0
 76
     0
 77
     3
 78
     9
170
     0
171
     2
172
     0
173
     0
174
     0
175
     0
176
   256
177
   256
178
    40
  0
DIMSTYLE
  2
BIGT$6
 70
     0
  3

  4

  5
OPEN
  6

  7

 40
1.0
 41
2.2299999999999991
 42
0.5
 43
2.5
 44
1.0
 45
0.0
 46
0.0
 47
0.0
 48
0.01
140
2.7999999999999989
141
0.0
142
0.0
143
25.399999999999999
144
1.0
145
0.0
146
1.0
147
1.0
 71
     0
 72
     0
 73
     0
 74
     0
 75
     0
 76
     0
 77
     3
 78
     9
170
     0
171
     2
172
     1
173
     0
174
     0
175
     0
176
   256
177
   256
178
    40
  0
DIMSTYLE
  2
BIGT$0
 70
     0
  3

  4

  5
OPEN
  6

  7

 40
1.0
 41
2.2299999999999991
 42
0.5
 43
7.0
 44
1.0
 45
0.0
 46
0.0
 47
0.0
 48
0.01
140
2.7999999999999989
141
0.0
142
0.0
143
25.399999999999999
144
1.0
145
0.0
146
1.0
147
1.0
 71
     0
 72
     0
 73
     0
 74
     0
 75
     0
 76
     0
 77
     3
 78
     9
170
     0
171
     2
172
     1
173
     0
174
     0
175
     0
176
   256
177
   256
178
    40
  0
DIMSTYLE
  2
BIGT$4
 70
     0
  3

  4

  5
OPEN
  6

  7

 40
1.0
 41
2.2299999999999991
 42
0.5
 43
2.5
 44
1.0
 45
0.0
 46
0.0
 47
0.0
 48
0.01
140
2.7999999999999989
141
0.0
142
0.0
143
25.399999999999999
144
1.0
145
0.0
146
1.0
147
1.0
 71
     0
 72
     0
 73
     0
 74
     0
 75
     0
 76
     0
 77
     3
 78
     9
170
     0
171
     2
172
     1
173
     0
174
     0
175
     0
176
   256
177
   256
178
    40
  0
DIMSTYLE
  2
BIGT$SH
 70
     0
  3

  4

  5
OPEN
  6

  7

 40
1.0
 41
2.2299999999999991
 42
0.5
 43
7.0
 44
1.0
 45
0.0
 46
0.0
 47
0.0
 48
0.0
140
2.7999999999999989
141
0.0
142
0.0
143
25.399999999999999
144
1.0
145
0.0
146
1.0
147
1.0
 71
     0
 72
     0
 73
     0
 74
     0
 75
     0
 76
     0
 77
     3
 78
     9
170
     0
171
     2
172
     1
173
     0
174
     0
175
     0
176
   256
177
   256
178
    40
  0
DIMSTYLE
  2
BIGT$SF
 70
     0
  3

  4

  5
OPEN
  6

  7

 40
1.0
 41
2.2299999999999991
 42
0.5
 43
7.0
 44
1.0
 45
0.0
 46
0.0
 47
0.0
 48
0.0
140
2.7999999999999989
141
0.0
142
0.0
143
25.399999999999999
144
1.0
145
0.0
146
1.0
147
1.0
 71
     0
 72
     0
 73
     0
 74
     0
 75
     0
 76
     0
 77
     3
 78
     9
170
     0
171
     2
172
     1
173
     0
174
     0
175
     0
176
   256
177
   256
178
    40
  0
DIMSTYLE
  2
TECHNICAL_OSAKA
 70
     0
  3

  4
"
  5
OPEN30
  6

  7

 40
1.0
 41
2.5
 42
1.0
 43
10.0
 44
1.0
 45
0.0
 46
0.0
 47
0.1
 48
0.1
140
2.7999999999999989
141
0.0
142
0.0
143
0.0393701
144
1.0
145
0.0
146
0.71
147
1.5
 71
     0
 72
     0
 73
     0
 74
     0
 75
     0
 76
     0
 77
     3
 78
     8
170
     0
171
     2
172
     1
173
     0
174
     0
175
     0
176
   256
177
   256
178
    40
  0
DIMSTYLE
  2
TECHNICAL_OSAKA$3
 70
     0
  3

  4
"
  5
OPEN30
  6

  7

 40
1.0
 41
2.5
 42
1.0
 43
10.0
 44
1.0
 45
0.0
 46
0.0
 47
0.1
 48
0.1
140
2.7999999999999989
141
0.0
142
0.0
143
0.0393701
144
1.0
145
0.0
146
0.71
147
1.5
 71
     0
 72
     0
 73
     0
 74
     1
 75
     0
 76
     0
 77
     3
 78
     8
170
     0
171
     2
172
     0
173
     0
174
     0
175
     0
176
   256
177
   256
178
    40
  0
DIMSTYLE
  2
TECHNICAL_OSAKA$4
 70
     0
  3

  4
"
  5
OPEN30
  6

  7

 40
1.0
 41
2.5
 42
1.0
 43
10.0
 44
1.0
 45
0.0
 46
0.0
 47
0.1
 48
0.1
140
2.7999999999999989
141
0.0
142
0.0
143
0.0393701
144
1.0
145
0.0
146
0.71
147
1.5
 71
     0
 72
     0
 73
     0
 74
     1
 75
     0
 76
     0
 77
     3
 78
     8
170
     0
171
     2
172
     0
173
     0
174
     0
175
     0
176
   256
177
   256
178
    40
  0
DIMSTYLE
  2
TECHNICAL_OSAKA$6
 70
     0
  3

  4
"
  5
OPEN30
  6

  7

 40
1.0
 41
2.5
 42
1.0
 43
10.0
 44
1.0
 45
0.0
 46
0.0
 47
0.1
 48
0.1
140
2.7999999999999989
141
0.0
142
0.0
143
0.0393701
144
1.0
145
0.0
146
0.71
147
1.5
 71
     0
 72
     0
 73
     0
 74
     0
 75
     0
 76
     0
 77
     0
 78
     8
170
     0
171
     2
172
     1
173
     0
174
     0
175
     0
176
   256
177
   256
178
    40
  0
DIMSTYLE
  2
TECHNICAL_OSAKA$7
 70
     0
  3

  4
"
  5
OPEN30
  6

  7

 40
1.0
 41
2.5
 42
1.0
 43
10.0
 44
1.0
 45
0.0
 46
0.0
 47
0.1
 48
0.1
140
2.7999999999999989
141
0.0
142
0.0
143
0.0393701
144
1.0
145
0.0
146
0.71
147
1.5
 71
     0
 72
     0
 73
     0
 74
     0
 75
     0
 76
     0
 77
     3
 78
     8
170
     0
171
     2
172
     1
173
     0
174
     0
175
     0
176
   256
177
   256
178
    40
  0
DIMSTYLE
  2
TECHNICAL_OSAKA$SF
 70
     0
  3

  4
"
  5
OPEN30
  6
OPEN30
  7
OPEN30
 40
1.0
 41
2.5
 42
1.0
 43
10.0
 44
1.0
 45
0.0
 46
0.0
 47
0.1
 48
0.1
140
3.5
141
0.0
142
0.0
143
0.0393701
144
1.0
145
0.0
146
0.71
147
1.5
 71
     0
 72
     0
 73
     0
 74
     0
 75
     1
 76
     1
 77
     3
 78
     8
170
     0
171
     2
172
     1
173
     0
174
     0
175
     0
176
   256
177
   256
178
    40
  0
DIMSTYLE
  2
TECHNICAL_OSAKA$SH
 70
     0
  3

  4
"
  5
OPEN30
  6
GENAXEH
  7
OPEN30
 40
1.0
 41
2.5
 42
1.0
 43
10.0
 44
1.0
 45
0.0
 46
0.0
 47
0.1
 48
0.1
140
3.5
141
0.0
142
0.0
143
0.0393701
144
2.0
145
0.0
146
0.71
147
1.5
 71
     0
 72
     0
 73
     0
 74
     0
 75
     1
 76
     1
 77
     3
 78
     8
170
     0
171
     2
172
     1
173
     1
174
     0
175
     0
176
   256
177
   256
178
    40
  0
ENDTAB
  0
ENDSEC
  0
SECTION
  2
BLOCKS
  0
BLOCK
  8
0
  2
$MODEL_SPACE
 70
     0
 10
0.0
 20
0.0
 30
0.0
  3
$MODEL_SPACE
  1

  0
ENDBLK
  5
1C
  8
0
  0
BLOCK
 67
     1
  8
0
  2
$PAPER_SPACE
 70
     0
 10
0.0
 20
0.0
 30
0.0
  3
$PAPER_SPACE
  1

  0
ENDBLK
  5
19
 67
     1
  8
0
  0
BLOCK
  8
0
  2
_OPEN
 70
     0
 10
0.0
 20
0.0
 30
0.0
  3
_OPEN
  1

  0
LINE
  5
1693
  8
0
  6
BYBLOCK
 62
     0
 10
-1.0
 20
0.1666666666666666
 30
0.0
 11
0.0
 21
0.0
 31
0.0
  0
LINE
  5
1694
  8
0
  6
BYBLOCK
 62
     0
 10
-1.0
 20
-0.1666666666666666
 30
0.0
 11
0.0
 21
0.0
 31
0.0
  0
LINE
  5
1695
  8
0
  6
BYBLOCK
 62
     0
 10
0.0
 20
0.0
 30
0.0
 11
-1.0
 21
0.0
 31
0.0
  0
ENDBLK
  5
1696
  8
0
  0
BLOCK
  8
0
  2
GENAXEH
 70
     0
 10
0.0
 20
0.0
 30
0.0
  3
GENAXEH
  1

  0
LINE
  5
16BE
  8
0
 10
-1.0
 20
0.0
 30
0.0
 11
1.0
 21
0.0
 31
0.0
  0
ENDBLK
  5
16BF
  8
0
  0
BLOCK
  8
0
  2
_OPEN30
 70
     0
 10
0.0
 20
0.0
 30
0.0
  3
_OPEN30
  1

  0
LINE
  5
16E3
  8
0
  6
BYBLOCK
 62
     0
 10
-1.0
 20
0.26794919
 30
0.0
 11
0.0
 21
0.0
 31
0.0
  0
LINE
  5
16E4
  8
0
  6
BYBLOCK
 62
     0
 10
0.0
 20
0.0
 30
0.0
 11
-1.0
 21
-0.26794919
 31
0.0
  0
LINE
  5
16E5
  8
0
  6
BYBLOCK
 62
     0
 10
0.0
 20
0.0
 30
0.0
 11
-1.0
 21
0.0
 31
0.0
  0
ENDBLK
  5
16E6
  8
0
  0
BLOCK
  8
0
  2
矢印なし
 70
     0
 10
0.0
 20
0.0
 30
0.0
  3
矢印なし
  1

  0
ENDBLK
  5
159C
  8
0
  0
BLOCK
  8
0
  2
HDC-CLAMPSCREW
 70
     0
 10
0.0
 20
0.0
 30
0.0
  3
HDC-CLAMPSCREW
  1

  0
INSERT
  5
159F
  8
245
  2
矢印なし
 10
175.62382697000001
 20
90.551235719999994
 30
0.0
  0
LINE
  5
15A0
  8
241
  6
CONTINUOUS
 10
2.2299999999999991
 20
0.0
 30
0.0
 11
20.0
 21
0.0
 31
0.0
  0
INSERT
  5
15A1
  8
241
  6
CONTINUOUS
  2
_OPEN
 10
0.0
 20
0.0
 30
0.0
 41
6.6900000000000004
 42
6.6900000000000004
 43
6.6900000000000004
 50
180.0
  0
POLYLINE
  5
15A2
  8
251
 10
16.354101966251065
 20
1.9999999999995424
 30
0.0
 66
     1
 70
     8
  0
VERTEX
  8
251
  5
16FD
 10
16.3541
 20
2.00000
 30
0.000000
  70
    32
  0
VERTEX
  8
251
  5
16FE
 10
16.3062
 20
2.29683
 30
0.000000
  70
    32
  0
VERTEX
  8
251
  5
16FF
 10
16.2518
 20
2.58911
 30
0.000000
  70
    32
  0
VERTEX
  8
251
  5
1700
 10
16.1909
 20
2.87624
 30
0.000000
  70
    32
  0
VERTEX
  8
251
  5
1701
 10
16.1237
 20
3.15766
 30
0.000000
  70
    32
  0
VERTEX
  8
251
  5
1702
 10
16.0502
 20
3.43282
 30
0.000000
  70
    32
  0
VERTEX
  8
251
  5
1703
 10
15.9708
 20
3.70116
 30
0.000000
  70
    32
  0
VERTEX
  8
251
  5
1704
 10
15.8854
 20
3.96215
 30
0.000000
  70
    32
  0
VERTEX
  8
251
  5
1705
 10
15.7943
 20
4.21528
 30
0.000000
  70
    32
  0
VERTEX
  8
251
  5
1706
 10
15.6976
 20
4.46003
 30
0.000000
  70
    32
  0
VERTEX
  8
251
  5
1707
 10
15.5956
 20
4.69594
 30
0.000000
  70
    32
  0
VERTEX
  8
251
  5
1708
 10
15.4884
 20
4.92252
 30
0.000000
  70
    32
  0
VERTEX
  8
251
  5
1709
 10
15.3763
 20
5.13933
 30
0.000000
  70
    32
  0
VERTEX
  8
251
  5
170A
 10
15.2595
 20
5.34593
 30
0.000000
  70
    32
  0
VERTEX
  8
251
  5
170B
 10
15.1382
 20
5.54192
 30
0.000000
  70
    32
  0
VERTEX
  8
251
  5
170C
 10
15.0126
 20
5.72691
 30
0.000000
  70
    32
  0
VERTEX
  8
251
  5
170D
 10
14.8831
 20
5.90053
 30
0.000000
  70
    32
  0
VERTEX
  8
251
  5
170E
 10
14.7498
 20
6.06244
 30
0.000000
  70
    32
  0
VERTEX
  8
251
  5
170F
 10
14.6130
 20
6.21231
 30
0.000000
  70
    32
  0
VERTEX
  8
251
  5
1710
 10
14.4730
 20
6.34985
 30
0.000000
  70
    32
  0
VERTEX
  8
251
  5
1711
 10
14.3302
 20
6.47478
 30
0.000000
  70
    32
  0
VERTEX
  8
251
  5
1712
 10
14.1846
 20
6.58685
 30
0.000000
  70
    32
  0
VERTEX
  8
251
  5
1713
 10
14.0367
 20
6.68586
 30
0.000000
  70
    32
  0
VERTEX
  8
251
  5
1714
 10
13.8868
 20
6.77158
 30
0.000000
  70
    32
  0
VERTEX
  8
251
  5
1715
 10
13.7351
 20
6.84387
 30
0.000000
  70
    32
  0
VERTEX
  8
251
  5
1716
 10
13.5819
 20
6.90256
 30
0.000000
  70
    32
  0
VERTEX
  8
251
  5
1717
 10
13.4276
 20
6.94756
 30
0.000000
  70
    32
  0
VERTEX
  8
251
  5
1718
 10
13.2725
 20
6.97876
 30
0.000000
  70
    32
  0
VERTEX
  8
251
  5
1719
 10
13.1168
 20
6.99610
 30
0.000000
  70
    32
  0
VERTEX
  8
251
  5
171A
 10
12.9608
 20
6.99956
 30
0.000000
  70
    32
  0
VERTEX
  8
251
  5
171B
 10
12.8050
 20
6.98912
 30
0.000000
  70
    32
  0
VERTEX
  8
251
  5
171C
 10
12.6495
 20
6.96481
 30
0.000000
  70
    32
  0
VERTEX
  8
251
  5
171D
 10
12.4947
 20
6.92667
 30
0.000000
  70
    32
  0
VERTEX
  8
251
  5
171E
 10
12.3409
 20
6.87477
 30
0.000000
  70
    32
  0
VERTEX
  8
251
  5
171F
 10
12.1885
 20
6.80923
 30
0.000000
  70
    32
  0
VERTEX
  8
251
  5
1720
 10
12.0376
 20
6.73017
 30
0.000000
  70
    32
  0
VERTEX
  8
251
  5
1721
 10
11.8887
 20
6.63775
 30
0.000000
  70
    32
  0
VERTEX
  8
251
  5
1722
 10
11.7419
 20
6.53216
 30
0.000000
  70
    32
  0
VERTEX
  8
251
  5
1723
 10
11.5977
 20
6.41359
 30
0.000000
  70
    32
  0
VERTEX
  8
251
  5
1724
 10
11.4562
 20
6.28229
 30
0.000000
  70
    32
  0
VERTEX
  8
251
  5
1725
 10
11.3178
 20
6.13852
 30
0.000000
  70
    32
  0
VERTEX
  8
251
  5
1726
 10
11.1828
 20
5.98256
 30
0.000000
  70
    32
  0
VERTEX
  8
251
  5
1727
 10
11.0514
 20
5.81473
 30
0.000000
  70
    32
  0
VERTEX
  8
251
  5
1728
 10
10.9238
 20
5.63535
 30
0.000000
  70
    32
  0
VERTEX
  8
251
  5
1729
 10
10.8003
 20
5.44479
 30
0.000000
  70
    32
  0
VERTEX
  8
251
  5
172A
 10
10.6812
 20
5.24341
 30
0.000000
  70
    32
  0
VERTEX
  8
251
  5
172B
 10
10.5668
 20
5.03163
 30
0.000000
  70
    32
  0
VERTEX
  8
251
  5
172C
 10
10.4571
 20
4.80985
 30
0.000000
  70
    32
  0
VERTEX
  8
251
  5
172D
 10
10.3525
 20
4.57853
 30
0.000000
  70
    32
  0
VERTEX
  8
251
  5
172E
 10
10.2532
 20
4.33812
 30
0.000000
  70
    32
  0
VERTEX
  8
251
  5
172F
 10
10.1593
 20
4.08909
 30
0.000000
  70
    32
  0
VERTEX
  8
251
  5
1730
 10
10.0710
 20
3.83195
 30
0.000000
  70
    32
  0
VERTEX
  8
251
  5
1731
 10
9.98856
 20
3.56720
 30
0.000000
  70
    32
  0
VERTEX
  8
251
  5
1732
 10
9.91210
 20
3.29537
 30
0.000000
  70
    32
  0
VERTEX
  8
251
  5
1733
 10
9.84177
 20
3.01700
 30
0.000000
  70
    32
  0
VERTEX
  8
251
  5
1734
 10
9.77771
 20
2.73263
 30
0.000000
  70
    32
  0
VERTEX
  8
251
  5
1735
 10
9.72004
 20
2.44284
 30
0.000000
  70
    32
  0
VERTEX
  8
251
  5
1736
 10
9.66889
 20
2.14821
 30
0.000000
  70
    32
  0
VERTEX
  8
251
  5
1737
 10
9.62435
 20
1.84930
 30
0.000000
  70
    32
  0
VERTEX
  8
251
  5
1738
 10
9.58651
 20
1.54673
 30
0.000000
  70
    32
  0
VERTEX
  8
251
  5
1739
 10
9.55545
 20
1.24108
 30
0.000000
  70
    32
  0
VERTEX
  8
251
  5
173A
 10
9.53123
 20
0.932976
 30
0.000000
  70
    32
  0
VERTEX
  8
251
  5
173B
 10
9.51389
 20
0.623015
 30
0.000000
  70
    32
  0
VERTEX
  8
251
  5
173C
 10
9.50347
 20
0.311817
 30
0.000000
  70
    32
  0
VERTEX
  8
251
  5
173D
 10
9.50000
 20
3.37017e-013
 30
0.000000
  70
    32
  0
VERTEX
  8
251
  5
173E
 10
9.50347
 20
-0.311817
 30
0.000000
  70
    32
  0
VERTEX
  8
251
  5
173F
 10
9.51389
 20
-0.623015
 30
0.000000
  70
    32
  0
VERTEX
  8
251
  5
1740
 10
9.53123
 20
-0.932976
 30
0.000000
  70
    32
  0
VERTEX
  8
251
  5
1741
 10
9.55545
 20
-1.24108
 30
0.000000
  70
    32
  0
VERTEX
  8
251
  5
1742
 10
9.58651
 20
-1.54673
 30
0.000000
  70
    32
  0
VERTEX
  8
251
  5
1743
 10
9.62435
 20
-1.84930
 30
0.000000
  70
    32
  0
VERTEX
  8
251
  5
1744
 10
9.66889
 20
-2.14821
 30
0.000000
  70
    32
  0
VERTEX
  8
251
  5
1745
 10
9.72004
 20
-2.44284
 30
0.000000
  70
    32
  0
VERTEX
  8
251
  5
1746
 10
9.77771
 20
-2.73263
 30
0.000000
  70
    32
  0
VERTEX
  8
251
  5
1747
 10
9.84177
 20
-3.01700
 30
0.000000
  70
    32
  0
VERTEX
  8
251
  5
1748
 10
9.91210
 20
-3.29537
 30
0.000000
  70
    32
  0
VERTEX
  8
251
  5
1749
 10
9.98856
 20
-3.56720
 30
0.000000
  70
    32
  0
VERTEX
  8
251
  5
174A
 10
10.0710
 20
-3.83195
 30
0.000000
  70
    32
  0
VERTEX
  8
251
  5
174B
 10
10.1593
 20
-4.08909
 30
0.000000
  70
    32
  0
VERTEX
  8
251
  5
174C
 10
10.2532
 20
-4.33812
 30
0.000000
  70
    32
  0
VERTEX
  8
251
  5
174D
 10
10.3525
 20
-4.57853
 30
0.000000
  70
    32
  0
VERTEX
  8
251
  5
174E
 10
10.4571
 20
-4.80985
 30
0.000000
  70
    32
  0
VERTEX
  8
251
  5
174F
 10
10.5668
 20
-5.03163
 30
0.000000
  70
    32
  0
VERTEX
  8
251
  5
1750
 10
10.6812
 20
-5.24341
 30
0.000000
  70
    32
  0
VERTEX
  8
251
  5
1751
 10
10.8003
 20
-5.44479
 30
0.000000
  70
    32
  0
VERTEX
  8
251
  5
1752
 10
10.9238
 20
-5.63535
 30
0.000000
  70
    32
  0
VERTEX
  8
251
  5
1753
 10
11.0514
 20
-5.81473
 30
0.000000
  70
    32
  0
VERTEX
  8
251
  5
1754
 10
11.1828
 20
-5.98256
 30
0.000000
  70
    32
  0
VERTEX
  8
251
  5
1755
 10
11.3178
 20
-6.13852
 30
0.000000
  70
    32
  0
VERTEX
  8
251
  5
1756
 10
11.4562
 20
-6.28229
 30
0.000000
  70
    32
  0
VERTEX
  8
251
  5
1757
 10
11.5977
 20
-6.41359
 30
0.000000
  70
    32
  0
VERTEX
  8
251
  5
1758
 10
11.7419
 20
-6.53216
 30
0.000000
  70
    32
  0
VERTEX
  8
251
  5
1759
 10
11.8887
 20
-6.63775
 30
0.000000
  70
    32
  0
VERTEX
  8
251
  5
175A
 10
12.0376
 20
-6.73017
 30
0.000000
  70
    32
  0
VERTEX
  8
251
  5
175B
 10
12.1885
 20
-6.80923
 30
0.000000
  70
    32
  0
VERTEX
  8
251
  5
175C
 10
12.3409
 20
-6.87477
 30
0.000000
  70
    32
  0
VERTEX
  8
251
  5
175D
 10
12.4947
 20
-6.92667
 30
0.000000
  70
    32
  0
VERTEX
  8
251
  5
175E
 10
12.6495
 20
-6.96481
 30
0.000000
  70
    32
  0
VERTEX
  8
251
  5
175F
 10
12.8050
 20
-6.98912
 30
0.000000
  70
    32
  0
VERTEX
  8
251
  5
1760
 10
12.9608
 20
-6.99956
 30
0.000000
  70
    32
  0
VERTEX
  8
251
  5
1761
 10
13.1168
 20
-6.99610
 30
0.000000
  70
    32
  0
VERTEX
  8
251
  5
1762
 10
13.2725
 20
-6.97876
 30
0.000000
  70
    32
  0
VERTEX
  8
251
  5
1763
 10
13.4276
 20
-6.94756
 30
0.000000
  70
    32
  0
VERTEX
  8
251
  5
1764
 10
13.5819
 20
-6.90256
 30
0.000000
  70
    32
  0
VERTEX
  8
251
  5
1765
 10
13.7351
 20
-6.84387
 30
0.000000
  70
    32
  0
VERTEX
  8
251
  5
1766
 10
13.8868
 20
-6.77158
 30
0.000000
  70
    32
  0
VERTEX
  8
251
  5
1767
 10
14.0367
 20
-6.68586
 30
0.000000
  70
    32
  0
VERTEX
  8
251
  5
1768
 10
14.1846
 20
-6.58685
 30
0.000000
  70
    32
  0
VERTEX
  8
251
  5
1769
 10
14.3302
 20
-6.47478
 30
0.000000
  70
    32
  0
VERTEX
  8
251
  5
176A
 10
14.4730
 20
-6.34985
 30
0.000000
  70
    32
  0
VERTEX
  8
251
  5
176B
 10
14.6130
 20
-6.21231
 30
0.000000
  70
    32
  0
VERTEX
  8
251
  5
176C
 10
14.7498
 20
-6.06244
 30
0.000000
  70
    32
  0
VERTEX
  8
251
  5
176D
 10
14.8831
 20
-5.90053
 30
0.000000
  70
    32
  0
VERTEX
  8
251
  5
176E
 10
15.0126
 20
-5.72691
 30
0.000000
  70
    32
  0
VERTEX
  8
251
  5
176F
 10
15.1382
 20
-5.54192
 30
0.000000
  70
    32
  0
VERTEX
  8
251
  5
1770
 10
15.2595
 20
-5.34593
 30
0.000000
  70
    32
  0
VERTEX
  8
251
  5
1771
 10
15.3763
 20
-5.13933
 30
0.000000
  70
    32
  0
VERTEX
  8
251
  5
1772
 10
15.4884
 20
-4.92252
 30
0.000000
  70
    32
  0
VERTEX
  8
251
  5
1773
 10
15.5956
 20
-4.69594
 30
0.000000
  70
    32
  0
VERTEX
  8
251
  5
1774
 10
15.6976
 20
-4.46003
 30
0.000000
  70
    32
  0
VERTEX
  8
251
  5
1775
 10
15.7943
 20
-4.21528
 30
0.000000
  70
    32
  0
VERTEX
  8
251
  5
1776
 10
15.8854
 20
-3.96215
 30
0.000000
  70
    32
  0
VERTEX
  8
251
  5
1777
 10
15.9708
 20
-3.70116
 30
0.000000
  70
    32
  0
VERTEX
  8
251
  5
1778
 10
16.0502
 20
-3.43282
 30
0.000000
  70
    32
  0
VERTEX
  8
251
  5
1779
 10
16.1237
 20
-3.15766
 30
0.000000
  70
    32
  0
VERTEX
  8
251
  5
177A
 10
16.1909
 20
-2.87624
 30
0.000000
  70
    32
  0
VERTEX
  8
251
  5
177B
 10
16.2518
 20
-2.58911
 30
0.000000
  70
    32
  0
VERTEX
  8
251
  5
177C
 10
16.3062
 20
-2.29683
 30
0.000000
  70
    32
  0
VERTEX
  8
251
  5
177D
 10
16.3541
 20
-2.00000
 30
0.000000
  70
    32
  0
SEQEND
  8
251
  5
177E
  0
INSERT
  5
15A3
  8
251
  6
CONTINUOUS
  2
_OPEN
 10
16.354101969999999
 20
2.0
 30
0.0
 41
2.2299999999999991
 42
2.2299999999999991
 43
2.2299999999999991
 50
283.18143907000001
  0
ENDBLK
  5
15A4
  8
0
  0
ENDSEC
  0
SECTION
  2
ENTITIES
  0
LINE
  5
13B6
  8
240
  6
CONTINUOUS
 10
0.0
 20
-34.925000000000011
 30
0.0
 11
-100.4308910289148
 21
-20.278828391616631
 31
0.0
  0
LINE
  5
13B7
  8
245
  6
CENTER2
 10
-103.8
 20
0.0
 30
0.0
 11
92.85345113974779
 21
0.0
 31
0.0
  0
ARC
  5
13B8
  8
240
  6
CONTINUOUS
 10
-100.2
 20
-18.695575621915388
 30
0.0
 40
1.6000000000000001
 50
180.0
 51
238.29712736975239
  0
LINE
  5
13B9
  8
240
  6
CONTINUOUS
 10
-101.04082247369939
 20
-20.056831500772091
 30
0.0
 11
-100.4308910289154
 21
-20.278828391616521
 31
0.0
  0
LINE
  5
13BB
  8
240
  6
CONTINUOUS
 10
36.700000000000003
 20
-50.0
 30
0.0
 11
30.69999999999996
 21
-50.0
 31
0.0
  0
LINE
  5
13BC
  8
241
  6
CONTINUOUS
 10
26.369872981077719
 20
-42.5
 30
0.0
 11
26.36987298107773
 21
42.5
 31
0.0
  0
LINE
  5
13BD
  8
241
  6
CONTINUOUS
 10
20.030127018922151
 20
-42.5
 30
0.0
 11
20.030127018922151
 21
42.5
 31
0.0
  0
LINE
  5
13BE
  8
241
  6
CONTINUOUS
 10
0.0
 20
-34.925000000000011
 30
0.0
 11
0.0
 21
34.925000000000011
 31
0.0
  0
LINE
  5
13BF
  8
241
  6
CONTINUOUS
 10
15.69999999999993
 20
-50.0
 30
0.0
 11
15.69999999999993
 21
50.0
 31
0.0
  0
LINE
  5
13C0
  8
240
  6
CONTINUOUS
 10
1.5
 20
-34.925000000000011
 30
0.0
 11
1.5
 21
-48.699999999999989
 31
0.0
  0
LINE
  5
13C1
  8
240
  6
CONTINUOUS
 10
2.8000000000000109
 20
-50.0
 30
0.0
 11
15.69999999999996
 21
-50.0
 31
0.0
  0
ARC
  5
13C2
  8
240
  6
CONTINUOUS
 10
2.8000000000000109
 20
-48.699999999999989
 30
0.0
 40
1.3
 50
180.0
 51
270.0
  0
LINE
  5
13C6
  8
241
  6
CONTINUOUS
 10
30.699999999999939
 20
-50.0
 30
0.0
 11
30.699999999999928
 21
50.0
 31
0.0
  0
LINE
  5
13C7
  8
240
  6
CONTINUOUS
 10
26.369872981077751
 20
-42.5
 30
0.0
 11
20.030127018922169
 21
-42.5
 31
0.0
  0
LINE
  5
13C8
  8
240
  6
CONTINUOUS
 10
20.030127018922169
 20
-42.5
 30
0.0
 11
15.69999999999996
 21
-50.0
 31
0.0
  0
LINE
  5
13CB
  8
240
  6
CONTINUOUS
 10
26.369872981077751
 20
-42.5
 30
0.0
 11
30.69999999999996
 21
-50.0
 31
0.0
  0
LINE
  5
13CE
  8
240
  6
CONTINUOUS
 10
37.999999999999993
 20
-48.699999999999982
 30
0.0
 11
37.999999999999801
 21
-36.173529991549877
 31
0.0
  0
LINE
  5
13D1
  8
243
 10
-47.876157680445537
 20
9.4999999999998863
 30
0.0
 11
90.000000000000327
 21
9.5000000000004512
 31
0.0
  0
LINE
  5
13D2
  8
241
 10
71.99961524227237
 20
-24.600000000002019
 30
0.0
 11
71.99961524227237
 21
24.600000000002019
 31
0.0
  0
LINE
  5
13D4
  8
241
 10
63.999615242307037
 20
-24.600000000001099
 30
0.0
 11
63.999615242306561
 21
24.600000000001099
 31
0.0
  0
LINE
  5
13D5
  8
241
 10
57.999615242266707
 20
-24.60000000000673
 30
0.0
 11
57.999615242266707
 21
24.60000000000673
 31
0.0
  0
ARC
  5
13D7
  8
240
  6
CONTINUOUS
 10
42.999999999999773
 20
-36.173529991549799
 30
0.0
 40
5.0
 50
145.00000000000259
 51
180.0
1001
ASK_MEN_XD
1005
0
1070
     1
1005
0
1070
     1
  0
LINE
  5
13D8
  8
240
  6
CONTINUOUS
 10
44.104245018760309
 20
-25.879270690946779
 30
0.0
 11
38.904239778554881
 21
-33.305647809794444
 31
0.0
  0
ARC
  5
13D9
  8
240
 10
46.561701151627247
 20
-27.599999999999909
 30
0.0
 40
3.0
 50
89.999999999995111
 51
145.00000000000259
1001
ASK_MEN_XD
1005
0
1070
     1
1005
0
1070
     1
  0
LINE
  5
13DA
  8
240
 10
46.561701151627538
 20
-24.599999999999909
 30
0.0
 11
57.999615242266707
 21
-24.600000000001021
 31
0.0
  0
LINE
  5
13DB
  8
240
 10
63.999615242305822
 20
-24.60000000000116
 30
0.0
 11
65.999615242270579
 21
-24.600000000001391
 31
0.0
  0
LINE
  5
13DC
  8
240
 10
71.999615242271148
 20
-24.600000000001959
 30
0.0
 11
77.276273303955804
 21
-24.6000000000023
 31
0.0
  0
LINE
  5
13DD
  8
240
 10
66.813828804648324
 20
-24.199999999995381
 30
0.0
 11
71.185401679893062
 21
-24.199999999995381
 31
0.0
  0
ARC
  5
13DE
  8
240
 10
66.813828804648324
 20
-25.199999999995391
 30
0.0
 40
1.0
 50
90.0
 51
135.0000000000046
  0
ARC
  5
13DF
  8
240
 10
71.185401679893062
 20
-25.199999999995391
 30
0.0
 40
1.0
 50
45.000000000004597
 51
90.0
  0
LINE
  5
13E0
  8
240
 10
65.999615242274103
 20
-24.59999999999809
 30
0.0
 11
66.106722023462567
 21
-24.49289321880951
 31
0.0
  0
LINE
  5
13E1
  8
240
 10
71.999615242267282
 20
-24.59999999999809
 30
0.0
 11
71.892508461078805
 21
-24.49289321880963
 31
0.0
  0
LINE
  5
13E2
  8
240
  6
CONTINUOUS
 10
89.299999999997226
 20
-18.56292973919258
 30
0.0
 11
89.299999999997624
 21
-12.94999999999194
 31
0.0
  0
LINE
  5
13E3
  8
241
  6
HIDDEN2
 10
34.000001907350537
 20
-35.39999999999975
 30
0.0
 11
34.000001907350878
 21
-50.0
 31
0.0
  0
LINE
  5
13E4
  8
241
  6
HIDDEN2
 10
1.4999999999999989
 20
-35.400000000000382
 30
0.0
 11
34.000001907350537
 21
-35.39999999999975
 31
0.0
  0
LINE
  5
1402
  8
240
 10
58.106722023469729
 20
-24.49289321881437
 30
0.0
 11
57.999615242266707
 21
-24.60000000000673
 31
0.0
  0
ARC
  5
1403
  8
240
 10
58.813828804656282
 20
-25.200000000000902
 30
0.0
 40
1.0
 50
90.0
 51
135.0
  0
ARC
  5
1404
  8
240
 10
63.185401679892941
 20
-25.20000000000093
 30
0.0
 40
1.0
 50
44.999999999995389
 51
89.999999999996746
  0
LINE
  5
1405
  8
240
 10
63.892508461079551
 20
-24.49289321881443
 30
0.0
 11
63.9996152422666
 21
-24.600000000001451
 31
0.0
  0
LINE
  5
1406
  8
240
 10
58.813828804656282
 20
-24.200000000003659
 30
0.0
 11
63.185401679892941
 21
-24.200000000000902
 31
0.0
  0
LINE
  5
1407
  8
240
 10
89.299999999997624
 20
-12.94999999999194
 30
0.0
 11
89.707106781181835
 21
-12.542893218813591
 31
0.0
  0
ARC
  5
1408
  8
240
 10
88.999999999999432
 20
-11.835786437622881
 30
0.0
 40
1.0
 50
314.99999999966838
 51
359.99999999999682
  0
LINE
  5
1409
  8
240
 10
78.121509827437293
 20
-24.412615574075598
 30
0.0
 11
88.722618261739427
 21
-19.469237526229161
 31
0.0
  0
ARC
  5
140A
  8
240
 10
77.276273303955946
 20
-22.6000000000023
 30
0.0
 40
2.0
 50
269.99999999999511
 51
294.9999999999979
1001
ASK_MEN_XD
1005
0
1070
     1
1005
0
1070
     1
  0
ARC
  5
140B
  8
240
 10
88.299999999998732
 20
-18.562929739192501
 30
0.0
 40
1.0
 50
294.99999999999937
 51
359.99999999999511
1001
ASK_MEN_XD
1005
0
1070
     1
1005
0
1070
     1
  0
LINE
  5
1438
  8
240
 10
0.0
 20
-34.925000000000011
 30
0.0
 11
1.5
 21
-34.925000000000011
 31
0.0
  0
LINE
  5
1475
  8
241
 10
45.176455311922211
 20
-24.599999999999909
 30
0.0
 11
45.17645531192219
 21
24.599999999999909
 31
0.0
  0
LINE
  5
1476
  8
241
 10
89.299999999997624
 20
-12.94999999999194
 30
0.0
 11
89.299999999997624
 21
12.94999999999194
 31
0.0
  0
LINE
  5
1478
  8
240
  6
CONTINUOUS
 10
0.0
 20
34.925000000000011
 30
0.0
 11
-100.4308910289148
 21
20.278828391616631
 31
0.0
  0
ARC
  5
1479
  8
240
  6
CONTINUOUS
 10
-100.2
 20
18.695575621915388
 30
0.0
 40
1.6000000000000001
 50
121.7028726302476
 51
180.0
  0
LINE
  5
147A
  8
240
  6
CONTINUOUS
 10
-101.04082247369939
 20
20.056831500772091
 30
0.0
 11
-100.4308910289154
 21
20.278828391616521
 31
0.0
  0
LINE
  5
147B
  8
245
  6
CENTER2
 10
23.19999999999996
 20
52.217897158528331
 30
0.0
 11
23.1999999999999
 21
-53.460736299874718
 31
0.0
  0
LINE
  5
147C
  8
240
  6
CONTINUOUS
 10
36.700000000000003
 20
50.0
 30
0.0
 11
30.69999999999996
 21
50.0
 31
0.0
  0
LINE
  5
1481
  8
240
  6
CONTINUOUS
 10
1.5
 20
34.925000000000011
 30
0.0
 11
1.5
 21
48.699999999999989
 31
0.0
  0
LINE
  5
1482
  8
240
  6
CONTINUOUS
 10
2.8000000000000109
 20
50.0
 30
0.0
 11
15.69999999999996
 21
50.0
 31
0.0
  0
ARC
  5
1483
  8
240
  6
CONTINUOUS
 10
2.8000000000000109
 20
48.699999999999989
 30
0.0
 40
1.3
 50
90.000000000000028
 51
180.0
  0
LINE
  5
1485
  8
240
  6
CONTINUOUS
 10
26.369872981077751
 20
42.5
 30
0.0
 11
20.030127018922169
 21
42.5
 31
0.0
  0
LINE
  5
1486
  8
240
  6
CONTINUOUS
 10
20.030127018922169
 20
42.5
 30
0.0
 11
15.69999999999996
 21
50.0
 31
0.0
  0
LINE
  5
1487
  8
240
  6
CONTINUOUS
 10
26.369872981077751
 20
42.5
 30
0.0
 11
30.69999999999996
 21
50.0
 31
0.0
  0
LINE
  5
1488
  8
240
  6
CONTINUOUS
 10
37.999999999999993
 20
48.699999999999982
 30
0.0
 11
37.999999999999801
 21
36.173529991549877
 31
0.0
  0
LINE
  5
148A
  8
241
 10
65.999615242271801
 20
24.60000000000133
 30
0.0
 11
65.999615242271801
 21
-24.60000000000133
 31
0.0
  0
LINE
  5
148D
  8
240
 10
90.000000000000398
 20
11.87365440326516
 30
0.0
 11
89.999999999999716
 21
-11.87365440326516
 31
0.0
  0
ARC
  5
148E
  8
240
  6
CONTINUOUS
 10
42.999999999999773
 20
36.173529991549799
 30
0.0
 40
5.0
 50
180.0
 51
214.99999999999741
1001
ASK_MEN_XD
1005
0
1070
     1
1005
0
1070
     1
  0
LINE
  5
148F
  8
240
  6
CONTINUOUS
 10
44.104245018760309
 20
25.879270690946779
 30
0.0
 11
38.904239778554881
 21
33.305647809794444
 31
0.0
  0
ARC
  5
1490
  8
240
 10
46.561701151627247
 20
27.599999999999909
 30
0.0
 40
3.0
 50
214.99999999999741
 51
270.00000000000489
1001
ASK_MEN_XD
1005
0
1070
     1
1005
0
1070
     1
  0
LINE
  5
1491
  8
240
 10
46.561701151627538
 20
24.599999999999909
 30
0.0
 11
57.999615242266707
 21
24.600000000001021
 31
0.0
  0
LINE
  5
1492
  8
240
 10
63.999615242305822
 20
24.60000000000116
 30
0.0
 11
65.999615242270579
 21
24.600000000001391
 31
0.0
  0
LINE
  5
1493
  8
240
 10
71.999615242271148
 20
24.600000000001959
 30
0.0
 11
77.276273303955804
 21
24.6000000000023
 31
0.0
  0
LINE
  5
1494
  8
240
 10
66.813828804648324
 20
24.199999999995381
 30
0.0
 11
71.185401679893062
 21
24.199999999995381
 31
0.0
  0
ARC
  5
1495
  8
240
 10
66.813828804648324
 20
25.199999999995391
 30
0.0
 40
1.0
 50
224.9999999999954
 51
270.0
  0
ARC
  5
1496
  8
240
 10
71.185401679893062
 20
25.199999999995391
 30
0.0
 40
1.0
 50
270.0
 51
314.9999999999954
  0
LINE
  5
1497
  8
240
 10
65.999615242274103
 20
24.59999999999809
 30
0.0
 11
66.106722023462567
 21
24.49289321880951
 31
0.0
  0
LINE
  5
1498
  8
240
 10
71.999615242267282
 20
24.59999999999809
 30
0.0
 11
71.892508461078805
 21
24.49289321880963
 31
0.0
  0
LINE
  5
1499
  8
240
  6
CONTINUOUS
 10
89.299999999997226
 20
18.56292973919258
 30
0.0
 11
89.299999999997624
 21
12.94999999999194
 31
0.0
  0
LINE
  5
149A
  8
241
  6
HIDDEN2
 10
34.000001907350537
 20
35.39999999999975
 30
0.0
 11
34.000001907350878
 21
50.0
 31
0.0
  0
LINE
  5
149B
  8
241
  6
HIDDEN2
 10
1.4999999999999989
 20
35.400000000000382
 30
0.0
 11
34.000001907350537
 21
35.39999999999975
 31
0.0
  0
LINE
  5
149C
  8
240
 10
58.106722023469729
 20
24.49289321881437
 30
0.0
 11
57.999615242266707
 21
24.60000000000673
 31
0.0
  0
ARC
  5
149D
  8
240
 10
58.813828804656282
 20
25.200000000000902
 30
0.0
 40
1.0
 50
225.0
 51
270.0
  0
ARC
  5
149E
  8
240
 10
63.185401679892941
 20
25.20000000000093
 30
0.0
 40
1.0
 50
270.0000000000033
 51
315.0000000000046
  0
LINE
  5
149F
  8
240
 10
63.892508461079551
 20
24.49289321881443
 30
0.0
 11
63.9996152422666
 21
24.600000000001451
 31
0.0
  0
LINE
  5
14A0
  8
240
 10
58.813828804656282
 20
24.200000000003659
 30
0.0
 11
63.185401679892941
 21
24.200000000000902
 31
0.0
  0
LINE
  5
14A1
  8
240
 10
89.299999999997624
 20
12.94999999999194
 30
0.0
 11
89.707106781181835
 21
12.542893218813591
 31
0.0
  0
ARC
  5
14A2
  8
240
 10
88.999999999999432
 20
11.835786437622881
 30
0.0
 40
1.0
 50
0.0000000000032709
 51
45.00000000033166
  0
LINE
  5
14A3
  8
240
 10
78.121509827437293
 20
24.412615574075598
 30
0.0
 11
88.722618261739427
 21
19.469237526229161
 31
0.0
  0
ARC
  5
14A4
  8
240
 10
77.276273303955946
 20
22.6000000000023
 30
0.0
 40
2.0
 50
65.000000000002132
 51
90.000000000004903
1001
ASK_MEN_XD
1005
0
1070
     1
1005
0
1070
     1
  0
ARC
  5
14A5
  8
240
 10
88.299999999998732
 20
18.562929739192501
 30
0.0
 40
1.0
 50
0.0000000000048994
 51
65.000000000000654
1001
ASK_MEN_XD
1005
0
1070
     1
1005
0
1070
     1
  0
LINE
  5
14A6
  8
240
 10
0.0
 20
34.925000000000011
 30
0.0
 11
1.5
 21
34.925000000000011
 31
0.0
  0
LINE
  5
14A7
  8
241
 10
1.5
 20
34.925000000000011
 30
0.0
 11
1.5
 21
-34.925000000000011
 31
0.0
  0
LINE
  5
14A8
  8
241
 10
37.999999999999801
 20
36.173529991549877
 30
0.0
 11
37.999999999999801
 21
-36.173529991549877
 31
0.0
  0
LINE
  5
14A9
  8
241
 10
78.121509827437293
 20
24.412615574075598
 30
0.0
 11
78.121509827437293
 21
-24.412615574075598
 31
0.0
  0
LINE
  5
14AC
  8
240
 10
-101.8
 20
18.695575621915388
 30
0.0
 11
-101.8
 21
-18.695575621915388
 31
0.0
  0
TEXT
  5
15B2
  8
241
 10
-102.273
 20
80.468000000000004
 30
0.0
 40
5.0
  1
BBT50-HDC19L-90
  7
YOKO
 11
-102.273
 21
80.468000000000004
 31
0.0
 73
     1
  0
LINE
  5
15B3
  8
250
 10
-53.781569849999997
 20
-37.791071780000003
 30
0.0
 11
-71.514903180000005
 21
-37.791071780000003
 31
0.0
1001
ITEMNAME
1000
LNSP2
  0
INSERT
  5
15B6
  8
245
  2
HDC-CLAMPSCREW
 10
49.0
 20
30.888329639999998
 30
0.0
 50
35.0
  0
TEXT
  5
15B7
  8
251
 10
59.978594739999998
 20
53.068623029999991
 30
0.0
 40
3.0
  1
クランプスクリュ
 50
305.0
  7
YOKO
 11
59.978594739999998
 21
53.068623029999991
 31
0.0
 73
     1
  0
LINE
  5
15CA
  8
250
 10
90.000000000000398
 20
12.37365440326516
 30
0.0
 11
90.000000000000398
 21
71.0
 31
0.0
  0
LINE
  5
15CB
  8
250
 10
-58.999999999999602
 20
12.373654403269439
 30
0.0
 11
-58.999999999999588
 21
71.0
 31
0.0
  0
LINE
  5
15CC
  8
250
 10
87.770000000000394
 20
70.0
 30
0.0
 11
-56.769999999999598
 21
70.0
 31
0.0
  0
LINE
  5
15D0
  8
250
 10
89.999999999999432
 20
12.335786437622939
 30
0.0
 11
89.999999999999432
 21
64.0
 31
0.0
  0
LINE
  5
15D1
  8
250
 10
0.0
 20
35.425000000000011
 30
0.0
 11
0.0000000000000018
 21
64.0
 31
0.0
  0
LINE
  5
15D2
  8
250
 10
87.769999999999413
 20
63.0
 30
0.0
 11
2.2300000000000009
 21
63.0
 31
0.0
  0
LINE
  5
15D6
  8
250
 10
77.776273303955804
 20
24.6000000000023
 30
0.0
 11
113.0
 21
24.600000000002289
 31
0.0
  0
LINE
  5
15D7
  8
250
 10
77.776273303955776
 20
-24.6000000000023
 30
0.0
 11
113.0
 21
-24.600000000002311
 31
0.0
  0
LINE
  5
15D8
  8
250
 10
112.0
 20
22.370000000002289
 30
0.0
 11
112.0
 21
-22.37000000000231
 31
0.0
  0
LINE
  5
15DC
  8
250
 10
90.500000000000341
 20
9.5000000000004512
 30
0.0
 11
106.0
 21
9.5000000000004476
 31
0.0
  0
LINE
  5
15DD
  8
250
 10
105.0
 20
7.2700000000004472
 30
0.0
 11
105.0
 21
-4.4666666666666712
 31
0.0
  0
TEXT
  5
15E0
  8
250
 10
111.0
 20
-5.7999999999999892
 30
0.0
 40
2.7999999999999989
  1
\U+220549.2
 50
90.0
  0
LINE
  5
15E1
  8
250
 10
112.3716666666666
 20
-22.37000000000231
 30
0.0
 11
112.0
 21
-24.600000000002311
 31
0.0
  0
LINE
  5
15E2
  8
250
 10
111.6283333333333
 20
-22.37000000000231
 30
0.0
 11
112.0
 21
-24.600000000002311
 31
0.0
  0
LINE
  5
15E3
  8
250
 10
112.0
 20
-24.600000000002311
 30
0.0
 11
112.0
 21
-22.37000000000231
 31
0.0
  0
LINE
  5
15E4
  8
250
 10
111.6283333333333
 20
22.370000000002289
 30
0.0
 11
112.0
 21
24.600000000002289
 31
0.0
  0
LINE
  5
15E5
  8
250
 10
112.3716666666666
 20
22.370000000002289
 30
0.0
 11
112.0
 21
24.600000000002289
 31
0.0
  0
LINE
  5
15E6
  8
250
 10
112.0
 20
24.600000000002289
 30
0.0
 11
112.0
 21
22.370000000002289
 31
0.0
  0
TEXT
  5
15E7
  8
250
 10
104.0
 20
-3.7333333333333201
 30
0.0
 40
2.7999999999999989
  1
\U+220519
 50
90.0
  0
LINE
  5
15E8
  8
250
 10
104.6283333333333
 20
7.2700000000004472
 30
0.0
 11
105.0
 21
9.5000000000004476
 31
0.0
  0
LINE
  5
15E9
  8
250
 10
105.3716666666666
 20
7.2700000000004472
 30
0.0
 11
105.0
 21
9.5000000000004476
 31
0.0
  0
LINE
  5
15EA
  8
250
 10
105.0
 20
9.5000000000004476
 30
0.0
 11
105.0
 21
7.2700000000004472
 31
0.0
  0
TEXT
  5
15EB
  8
250
 10
4.5666666666670617
 20
72.200000000000003
 30
0.0
 40
2.7999999999999989
  1
(max.149)
  0
LINE
  5
15EC
  8
250
 10
-56.769999999999598
 20
69.62833333333333
 30
0.0
 11
-58.999999999999588
 21
70.0
 31
0.0
  0
LINE
  5
15ED
  8
250
 10
-56.769999999999598
 20
70.37166666666667
 30
0.0
 11
-58.999999999999588
 21
70.0
 31
0.0
  0
LINE
  5
15EE
  8
250
 10
-58.999999999999588
 20
70.0
 30
0.0
 11
-56.769999999999598
 21
70.0
 31
0.0
  0
LINE
  5
15EF
  8
250
 10
87.770000000000394
 20
70.37166666666667
 30
0.0
 11
90.000000000000398
 21
70.0
 31
0.0
  0
LINE
  5
15F0
  8
250
 10
87.770000000000394
 20
69.62833333333333
 30
0.0
 11
90.000000000000398
 21
70.0
 31
0.0
  0
LINE
  5
15F1
  8
250
 10
90.000000000000398
 20
70.0
 30
0.0
 11
87.770000000000394
 21
70.0
 31
0.0
  0
TEXT
  5
15F2
  8
250
 10
42.333333333333037
 20
64.0
 30
0.0
 40
2.7999999999999989
  1
90
  0
LINE
  5
15F3
  8
250
 10
2.2300000000000009
 20
62.62833333333333
 30
0.0
 11
0.0000000000000017
 21
63.0
 31
0.0
  0
LINE
  5
15F4
  8
250
 10
2.2300000000000009
 20
63.37166666666667
 30
0.0
 11
0.0000000000000017
 21
63.0
 31
0.0
  0
LINE
  5
15F5
  8
250
 10
0.0000000000000017
 20
63.0
 30
0.0
 11
2.2300000000000009
 21
63.0
 31
0.0
  0
LINE
  5
15F6
  8
250
 10
87.769999999999413
 20
63.37166666666667
 30
0.0
 11
89.999999999999432
 21
63.0
 31
0.0
  0
LINE
  5
15F7
  8
250
 10
87.769999999999413
 20
62.62833333333333
 30
0.0
 11
89.999999999999432
 21
63.0
 31
0.0
  0
LINE
  5
15F8
  8
250
 10
89.999999999999432
 20
63.0
 30
0.0
 11
87.769999999999413
 21
63.0
 31
0.0
  0
TEXT
  5
15FB
  8
250
 10
-69.248236513333325
 20
-36.79107178000001
 30
0.0
 40
2.7999999999999989
  1
BBT50
  7
YOKO
1001
ITEMNAME
1000
LNSP3
  0
LINE
  5
15FC
  8
250
 10
-49.078759359591253
 20
-29.645565067804871
 30
0.0
 11
-53.781569849999997
 21
-37.791071780000003
 31
0.0
1001
ACAD
1000
DSTYLE
1002
{
1070
     6
1000
OPEN
1070
    41
1040
2.0
1070
   343
1005
594
1002
}
  0
LINE
  5
15FD
  8
250
 10
-49.367434494225392
 20
-29.478898401206319
 30
0.0
 11
-48.078759359999999
 21
-27.913514259999999
 31
0.0
  0
LINE
  5
15FE
  8
250
 10
-48.790084224957113
 20
-29.812231734403412
 30
0.0
 11
-48.078759359999999
 21
-27.913514259999999
 31
0.0
  0
LINE
  5
15FF
  8
250
 10
-48.078759359999999
 20
-27.913514259999999
 30
0.0
 11
-49.078759359591253
 21
-29.645565067804871
 31
0.0
  0
ARC
  5
1608
  8
240
  6
CONTINUOUS
 10
36.700000000000003
 20
48.700000000000003
 30
0.0
 40
1.3
 50
359.99999999999909
 51
90.0
1001
GENIUS_GENODEF_13
1002
{
1000
HIER
1070
     0
1002
}
1002
{
1000
MANEDIT
1070
     0
1002
}
1002
{
1000
NOSEL
1070
     0
1002
}
1002
{
1000
BEHIND
1070
     0
1002
}
1002
{
1000
OTHER
1070
     0
1002
}
1002
{
1000
REACTOR
1002
}
1001
GENIUS_GENOBJ-N-FIL_13
1002
{
1000
OWNER
1000
GEN
1002
}
  0
ARC
  5
160B
  8
240
  6
CONTINUOUS
 10
36.700000000000003
 20
-48.700000000000003
 30
0.0
 40
1.3
 50
270.0
 51
0.0000000000009033
1001
GENIUS_GENOBJ-N-FIL_13
1002
{
1000
OWNER
1000
GEN
1002
}
1001
GENIUS_GENODEF_13
1002
{
1000
HIER
1070
     0
1002
}
1002
{
1000
MANEDIT
1070
     0
1002
}
1002
{
1000
NOSEL
1070
     0
1002
}
1002
{
1000
BEHIND
1070
     0
1002
}
1002
{
1000
OTHER
1070
     0
1002
}
1002
{
1000
REACTOR
1002
}
  0
VIEWPORT
  5
22
 67
     1
  8
0
 10
261.51769911504419
 20
148.5
 30
0.0
 40
523.0353982300885
 41
297.0
 68
     1
 69
     1
1001
ACAD
1000
MVIEW
1002
{
1070
    16
1010
0.0
1020
0.0
1030
0.0
1010
0.0
1020
0.0
1030
1.0
1040
0.0
1040
297.0
1040
261.51769911504419
1040
148.5
1040
50.0
1040
0.0
1040
0.0
1070
     0
1070
   100
1070
     1
1070
     1
1070
     0
1070
     0
1070
     0
1070
     0
1040
0.0
1040
0.0
1040
0.0
1040
1.0
1040
1.0
1040
10.0
1040
10.0
1070
     0
1002
{
1002
}
1002
}
1001
GENIUS_GENODEF_13
1002
{
1000
HIER
1070
     0
1002
}
1002
{
1000
MANEDIT
1070
     0
1002
}
1002
{
1000
NOSEL
1070
     0
1002
}
1002
{
1000
BEHIND
1070
     0
1002
}
1002
{
1000
OTHER
1070
     0
1002
}
1002
{
1000
REACTOR
1002
}
1001
GENIUS_GENOBJ-N-SDF_13
1002
{
1000
OWNER
1000
GEN
1002
}
1001
GENIUS_GENSCREG_15
1000
PF
1040
1.0
1000
DF
1040
1.0
1000
MIN
1011
0.0
1021
0.0
1031
4.9599644780198017E+030
1021
0.0
1031
0.0
1000
MAX
1011
523.0353982300885
1021
0.0
1031
4.9599644780198017E+030
1021
297.0
1031
0.0
1000
FLAGS
1070
     2
  0
ENDSEC
  0
EOF
