  0
SECTION
  2
HEADER
  9
$ACADVER
  1
AC1009
  9
$INSBASE
 10
0.0
 20
0.0
 30
0.0
  9
$EXTMIN
 10
-103.8
 20
-50.0
 30
0.0
  9
$EXTMAX
 10
86.982521669999997
 20
82.0
 30
0.0
  9
$LIMMIN
 10
0.0
 20
0.0
  9
$LIMMAX
 10
297.0
 20
210.0
  9
$ORTHOMODE
 70
     0
  9
$REGENMODE
 70
     1
  9
$FILLMODE
 70
     1
  9
$QTEXTMODE
 70
     0
  9
$MIRRTEXT
 70
     1
  9
$DRAGMODE
 70
     2
  9
$LTSCALE
 40
10.0
  9
$OSMODE
 70
    37
  9
$ATTMODE
 70
     1
  9
$TEXTSIZE
 40
3.0
  9
$TRACEWID
 40
1.0
  9
$TEXTSTYLE
  7
YOKO
  9
$CLAYER
  8
240
  9
$CELTYPE
  6
BYLAYER
  9
$CECOLOR
 62
   256
  9
$DIMSCALE
 40
1.0
  9
$DIMASZ
 40
2.2299999999999991
  9
$DIMEXO
 40
0.5
  9
$DIMDLI
 40
7.0
  9
$DIMRND
 40
0.0
  9
$DIMDLE
 40
0.0
  9
$DIMEXE
 40
1.0
  9
$DIMTP
 40
0.0
  9
$DIMTM
 40
0.01
  9
$DIMTXT
 40
2.7999999999999989
  9
$DIMCEN
 40
0.0
  9
$DIMTSZ
 40
0.0
  9
$DIMTOL
 70
     0
  9
$DIMLIM
 70
     0
  9
$DIMTIH
 70
     0
  9
$DIMTOH
 70
     0
  9
$DIMSE1
 70
     0
  9
$DIMSE2
 70
     0
  9
$DIMTAD
 70
     3
  9
$DIMZIN
 70
     9
  9
$DIMBLK
  1
OPEN
  9
$DIMASO
 70
     1
  9
$DIMSHO
 70
     1
  9
$DIMPOST
  1

  9
$DIMAPOST
  1

  9
$DIMALT
 70
     0
  9
$DIMALTD
 70
     2
  9
$DIMALTF
 40
25.399999999999999
  9
$DIMLFAC
 40
1.0
  9
$DIMTOFL
 70
     1
  9
$DIMTVP
 40
0.0
  9
$DIMTIX
 70
     1
  9
$DIMSOXD
 70
     0
  9
$DIMSAH
 70
     0
  9
$DIMBLK1
  1

  9
$DIMBLK2
  1

  9
$DIMSTYLE
  2
BIGT
  9
$DIMCLRD
 70
   256
  9
$DIMCLRE
 70
   256
  9
$DIMCLRT
 70
    40
  9
$DIMTFAC
 40
1.0
  9
$DIMGAP
 40
1.0
  9
$LUNITS
 70
     2
  9
$LUPREC
 70
     6
  9
$SKETCHINC
 40
1.0
  9
$FILLETRAD
 40
5.0
  9
$AUNITS
 70
     0
  9
$AUPREC
 70
     6
  9
$MENU
  1
.
  9
$ELEVATION
 40
0.0
  9
$PELEVATION
 40
0.0
  9
$THICKNESS
 40
0.0
  9
$LIMCHECK
 70
     0
  9
$BLIPMODE
 70
     0
  9
$CHAMFERA
 40
0.2
  9
$CHAMFERB
 40
0.2
  9
$SKPOLY
 70
     0
  9
$TDCREATE
 40
2459850.4190198262
  9
$TDUPDATE
 40
2459850.4282079171
  9
$TDINDWG
 40
0.008929294
  9
$TDUSRTIMER
 40
0.008929213
  9
$USRTIMER
 70
     1
  9
$ANGBASE
 50
0.0
  9
$ANGDIR
 70
     0
  9
$PDMODE
 70
     1
  9
$PDSIZE
 40
0.0
  9
$PLINEWID
 40
0.0
  9
$COORDS
 70
     1
  9
$SPLFRAME
 70
     0
  9
$SPLINETYPE
 70
     6
  9
$SPLINESEGS
 70
     4
  9
$ATTDIA
 70
     1
  9
$ATTREQ
 70
     1
  9
$HANDLING
 70
     1
  9
$HANDSEED
  5
45CA
  9
$SURFTAB1
 70
     6
  9
$SURFTAB2
 70
     6
  9
$SURFTYPE
 70
     6
  9
$SURFU
 70
     6
  9
$SURFV
 70
     6
  9
$UCSNAME
  2

  9
$UCSORG
 10
0.0
 20
0.0
 30
0.0
  9
$UCSXDIR
 10
1.0
 20
0.0
 30
0.0
  9
$UCSYDIR
 10
0.0
 20
1.0
 30
0.0
  9
$PUCSNAME
  2

  9
$PUCSORG
 10
0.0
 20
0.0
 30
0.0
  9
$PUCSXDIR
 10
1.0
 20
0.0
 30
0.0
  9
$PUCSYDIR
 10
0.0
 20
1.0
 30
0.0
  9
$USERI1
 70
     1
  9
$USERI2
 70
     0
  9
$USERI3
 70
     0
  9
$USERI4
 70
     0
  9
$USERI5
 70
     0
  9
$USERR1
 40
0.0
  9
$USERR2
 40
0.0
  9
$USERR3
 40
0.0
  9
$USERR4
 40
0.0
  9
$USERR5
 40
0.0
  9
$WORLDVIEW
 70
     1
  9
$SHADEDGE
 70
     3
  9
$SHADEDIF
 70
    70
  9
$TILEMODE
 70
     1
  9
$MAXACTVP
 70
    16
  9
$PLIMCHECK
 70
     0
  9
$PEXTMIN
 10
1.0000000000000000E+020
 20
1.0000000000000000E+020
 30
1.0000000000000000E+020
  9
$PEXTMAX
 10
-1.0000000000000000E+020
 20
-1.0000000000000000E+020
 30
-1.0000000000000000E+020
  9
$PLIMMIN
 10
0.0
 20
0.0
  9
$PLIMMAX
 10
420.0
 20
297.0
  9
$UNITMODE
 70
     0
  9
$VISRETAIN
 70
     1
  9
$PLINEGEN
 70
     0
  9
$PSLTSCALE
 70
     1
  0
ENDSEC
  0
SECTION
  2
TABLES
  0
TABLE
  2
VPORT
 70
     1
  0
VPORT
  2
*ACTIVE
 70
     0
 10
0.0
 20
0.0
 11
1.0
 21
1.0
 12
19.633452701464702
 22
-3.088892592280728
 13
0.0
 23
0.0
 14
7.0
 24
7.0
 15
7.0
 25
7.0
 16
0.0
 26
0.0
 36
1.0
 17
0.0
 27
0.0
 37
0.0
 40
244.29691101279079
 41
1.6523341523341519
 42
50.0
 43
0.0
 44
0.0
 50
0.0
 51
0.0
 71
     0
 72
  2000
 73
     1
 74
     0
 75
     1
 76
     1
 77
     0
 78
     0
  0
ENDTAB
  0
TABLE
  2
LTYPE
 70
    21
  0
LTYPE
  2
CONTINUOUS
 70
     0
  3
Solid line
 72
    65
 73
     0
 40
0.0
  0
LTYPE
  2
CENTER2
 70
     0
  3
___ _ ___ _ ___ _ ___ _ ___ _ ___ _ ___ _ ___ _
 72
    65
 73
     4
 40
1.125
 49
0.75
 49
-0.125
 49
0.125
 49
-0.125
  0
LTYPE
  2
HIDDEN2
 70
     0
  3
_ _ _ _ _ _ _ _ _ _ _ _ _ _ _ _ _ _ _ _ _ _ _ _
 72
    65
 73
     2
 40
0.1875
 49
0.125
 49
-0.0625
  0
LTYPE
  2
PHANTOM2
 70
     0
  3
___ _ _ ___ _ _ ___ _ _ ___ _ _ ___ _ _ ___ _ _
 72
    65
 73
     6
 40
1.25
 49
0.625
 49
-0.125
 49
0.125
 49
-0.125
 49
0.125
 49
-0.125
  0
LTYPE
  2
AM_ISO02W050
 70
     0
  3
__ __ __ __ __ __ __ __ __ __ __ __ __ __ __
 72
    65
 73
     2
 40
7.5
 49
6.0
 49
-1.5
  0
LTYPE
  2
AMCONSTR
 70
     0
  3
_______________________
 72
    65
 73
     2
 40
9999.0
 49
9999.0
 49
0.0
  0
LTYPE
  2
ACISOWELD
 70
     0
  3
_ _ _ _ _
 72
    65
 73
     2
 40
2.0
 49
2.0
 49
-1.0
  0
LTYPE
  2
ACISOTGB
 70
     0
  3
__ . . __ . .
 72
    65
 73
     6
 40
9.0
 49
4.0
 49
-1.0
 49
1.0
 49
-1.0
 49
1.0
 49
-1.0
  0
LTYPE
  2
ACISOTGL
 70
     0
  3
_ _ _ _ _
 72
    65
 73
     2
 40
3.0
 49
2.0
 49
-1.0
  0
LTYPE
  2
ACJISTGB
 70
     0
  3
__ . . __ . .
 72
    65
 73
     6
 40
9.0
 49
4.0
 49
-1.0
 49
1.0
 49
-1.0
 49
1.0
 49
-1.0
  0
LTYPE
  2
ACJISTGL
 70
     0
  3
_ _ _ _ _
 72
    65
 73
     2
 40
3.0
 49
2.0
 49
-1.0
  0
ENDTAB
  0
TABLE
  2
LAYER
 70
    15
  0
LAYER
  2
0
 70
     0
 62
     7
  6
CONTINUOUS
  0
LAYER
  2
DEFPOINTS
 70
     0
 62
     7
  6
CONTINUOUS
  0
LAYER
  2
245
 70
     0
 62
     2
  6
CENTER2
  0
LAYER
  2
240
 70
     0
 62
     4
  6
CONTINUOUS
  0
LAYER
  2
241
 70
     0
 62
   211
  6
CONTINUOUS
  0
LAYER
  2
242
 70
     0
 62
     3
  6
CONTINUOUS
  0
LAYER
  2
243
 70
     0
 62
   211
  6
HIDDEN2
  0
LAYER
  2
247
 70
     0
 62
    60
  6
CONTINUOUS
  0
LAYER
  2
250
 70
     0
 62
     3
  6
CONTINUOUS
  0
ENDTAB
  0
TABLE
  2
STYLE
 70
     8
  0
STYLE
  2
STANDARD
 70
     0
 40
0.0
 41
1.0
 50
0.0
 71
     0
 42
3.0
  3
romans.shx
  4
extfont.shx
  0
STYLE
  2
ACISOTS
 70
     0
 40
1.0
 41
1.0
 50
0.0
 71
     0
 42
3.0
  3
amgdt.shx
  4
extfont.shx
  0
STYLE
  2
ACISOGDT
 70
     0
 40
0.0
 41
1.0
 50
0.0
 71
     0
 42
3.0
  3
amgdt.shx
  4
extfont.shx
  0
STYLE
  2
ACJISTS
 70
     0
 40
1.0
 41
1.0
 50
0.0
 71
     0
 42
3.0
  3
amgdt.shx
  4
extfont.shx
  0
STYLE
  2
ACJISGDT
 70
     0
 40
0.0
 41
1.0
 50
0.0
 71
     0
 42
3.0
  3
amgdt.shx
  4
extfont.shx
  0
STYLE
  2
YOKO
 70
     0
 40
0.0
 41
1.0
 50
0.0
 71
     0
 42
3.0
  3
romans.shx
  4
extfont.shx
  0
ENDTAB
  0
TABLE
  2
VIEW
 70
     0
  0
ENDTAB
  0
TABLE
  2
UCS
 70
     0
  0
ENDTAB
  0
TABLE
  2
APPID
 70
    40
  0
APPID
  2
ACAD
 70
     0
  0
APPID
  2
GLOBAL
 70
     0
  0
APPID
  2
DETAIL
 70
     0
  0
APPID
  2
GRPNAME
 70
     0
  0
APPID
  2
GPARA
 70
     0
  0
APPID
  2
MCAD_NO_VIS
 70
     0
  0
APPID
  2
ACAD_TEMP_GRAPHIC
 70
     0
  0
APPID
  2
ACATTRIBSERVICES
 70
     0
  0
APPID
  2
GENIUS_GENSCREG_15
 70
     0
  0
APPID
  2
GENIUS_GENODEF_13
 70
     0
  0
APPID
  2
GENIUS_GENOBJ-N-SDF_13
 70
     0
  0
APPID
  2
GENIUS_GENREC_14
 70
     0
  0
APPID
  2
GENIUS_GENOBJ-N-REC_13
 70
     0
  0
APPID
  2
GENIUS_GENDIMSH_14
 70
     0
  0
APPID
  2
GENIUS_GENOBJ-N-DIM_13
 70
     0
  0
APPID
  2
GENIUS_GENDIM_13
 70
     0
  0
APPID
  2
GENIUS_GENDTOL_13
 70
     0
  0
APPID
  2
GENIUS_GENOLIS_13
 70
     0
  0
APPID
  2
GENIUS_GENOENT_13
 70
     0
  0
APPID
  2
GENIUS_GENOBJ-F-FEM_13
 70
     0
  0
APPID
  2
GENIUS_GENOREF_13
 70
     0
  0
APPID
  2
GENIUS_GEFFEM_13
 70
     0
  0
APPID
  2
GENIUS_GEFFEMP_13
 70
     0
  0
APPID
  2
AD_DRAW
 70
     0
  0
APPID
  2
DESIGNERASSEMBLIES
 70
     0
  0
APPID
  2
ACADM_DIM_EDIT
 70
     0
  0
APPID
  2
AMDT_DM_ADJ
 70
     0
  0
APPID
  2
ITEMNAME
 70
     0
  0
APPID
  2
GENIUS_GENOBJ-N-FIL_13
 70
     0
  0
APPID
  2
GENIUS_GENFIL_13
 70
     0
  0
APPID
  2
GENIUS_GENOBJ-N-CHA_13
 70
     0
  0
APPID
  2
ACAD_NAV_VCDISPLAY
 70
     0
  0
APPID
  2
ACAD_DSTYLE_DIMJAG
 70
     0
  0
APPID
  2
ACAD_DSTYLE_DIMTALN
 70
     0
  0
APPID
  2
ACAD_PSEXT
 70
     0
  0
APPID
  2
ASK_MEN_XD
 70
     0
  0
APPID
  2
ACAD_DSTYLE_DIMBREAK
 70
     0
  0
APPID
  2
ACAD_EXEMPT_FROM_CAD_STANDARDS
 70
     0
  0
APPID
  2
ACAD_DSTYLE_DIMINSPECT
 70
     0
  0
APPID
  2
ACAD_MLEADERVER
 70
     0
  0
ENDTAB
  0
TABLE
  2
DIMSTYLE
 70
    33
  0
DIMSTYLE
  2
BIGT
 70
     0
  3

  4

  5
OPEN
  6

  7

 40
1.0
 41
2.2299999999999991
 42
0.5
 43
7.0
 44
1.0
 45
0.0
 46
0.0
 47
0.0
 48
0.01
140
2.7999999999999989
141
0.0
142
0.0
143
25.399999999999999
144
1.0
145
0.0
146
1.0
147
1.0
 71
     0
 72
     0
 73
     0
 74
     0
 75
     0
 76
     0
 77
     3
 78
     9
170
     0
171
     2
172
     1
173
     0
174
     1
175
     0
176
   256
177
   256
178
    40
  0
DIMSTYLE
  2
AM_ISO
 70
     0
  3

  4
"
  5

  6

  7

 40
1.0
 41
2.5
 42
1.0
 43
10.0
 44
1.0
 45
0.0
 46
0.0
 47
0.1
 48
0.1
140
3.5
141
0.0
142
0.0
143
0.0393701
144
1.0
145
0.0
146
0.71
147
1.5
 71
     0
 72
     0
 73
     0
 74
     0
 75
     0
 76
     0
 77
     1
 78
     8
170
     0
171
     2
172
     1
173
     0
174
     0
175
     0
176
   256
177
   256
178
     2
  0
DIMSTYLE
  2
AM_ISO$3
 70
     0
  3

  4
"
  5

  6

  7

 40
1.0
 41
2.5
 42
1.0
 43
10.0
 44
1.0
 45
0.0
 46
0.0
 47
0.1
 48
0.1
140
3.5
141
0.0
142
0.0
143
0.0393701
144
1.0
145
0.0
146
0.71
147
1.5
 71
     0
 72
     0
 73
     0
 74
     1
 75
     0
 76
     0
 77
     1
 78
     8
170
     0
171
     2
172
     0
173
     0
174
     0
175
     0
176
   256
177
   256
178
     2
  0
DIMSTYLE
  2
AM_ISO$4
 70
     0
  3

  4
"
  5

  6

  7

 40
1.0
 41
2.5
 42
1.0
 43
10.0
 44
1.0
 45
0.0
 46
0.0
 47
0.1
 48
0.1
140
3.5
141
0.0
142
0.0
143
0.0393701
144
1.0
145
0.0
146
0.71
147
1.5
 71
     0
 72
     0
 73
     0
 74
     1
 75
     0
 76
     0
 77
     1
 78
     8
170
     0
171
     2
172
     0
173
     0
174
     0
175
     0
176
   256
177
   256
178
     2
  0
DIMSTYLE
  2
AM_ISO$6
 70
     0
  3

  4
"
  5

  6

  7

 40
1.0
 41
2.5
 42
1.0
 43
10.0
 44
1.0
 45
0.0
 46
0.0
 47
0.1
 48
0.1
140
3.5
141
0.0
142
0.0
143
0.0393701
144
1.0
145
0.0
146
0.71
147
1.5
 71
     0
 72
     0
 73
     0
 74
     0
 75
     0
 76
     0
 77
     0
 78
     8
170
     0
171
     2
172
     1
173
     0
174
     0
175
     0
176
   256
177
   256
178
     2
  0
DIMSTYLE
  2
AM_ISO$7
 70
     0
  3

  4
"
  5

  6

  7

 40
1.0
 41
2.5
 42
1.0
 43
10.0
 44
1.0
 45
0.0
 46
0.0
 47
0.1
 48
0.1
140
5.0
141
0.0
142
0.0
143
0.0393701
144
1.0
145
0.0
146
0.71
147
1.5
 71
     0
 72
     0
 73
     0
 74
     0
 75
     0
 76
     0
 77
     1
 78
     8
170
     0
171
     2
172
     1
173
     0
174
     0
175
     0
176
   256
177
   256
178
     2
  0
DIMSTYLE
  2
AM_ISO$SF
 70
     0
  3

  4
"
  5

  6

  7

 40
1.0
 41
2.5
 42
1.0
 43
10.0
 44
1.0
 45
0.0
 46
0.0
 47
0.1
 48
0.1
140
3.5
141
0.0
142
0.0
143
0.0393701
144
1.0
145
0.0
146
0.71
147
1.5
 71
     0
 72
     0
 73
     0
 74
     0
 75
     1
 76
     1
 77
     1
 78
     8
170
     0
171
     2
172
     1
173
     0
174
     0
175
     0
176
   256
177
   256
178
     2
  0
DIMSTYLE
  2
AM_ISO$SH
 70
     0
  3

  4
"
  5

  6
GENAXEH
  7

 40
1.0
 41
2.5
 42
1.0
 43
10.0
 44
1.0
 45
0.0
 46
0.0
 47
0.1
 48
0.1
140
3.5
141
0.0
142
0.0
143
0.0393701
144
2.0
145
0.0
146
0.71
147
1.5
 71
     0
 72
     0
 73
     0
 74
     0
 75
     1
 76
     1
 77
     1
 78
     8
170
     0
171
     2
172
     1
173
     1
174
     0
175
     0
176
   256
177
   256
178
     2
  0
DIMSTYLE
  2
BIGT$2
 70
     0
  3

  4

  5
OPEN
  6

  7

 40
1.0
 41
2.2299999999999991
 42
0.5
 43
7.0
 44
1.0
 45
0.0
 46
0.0
 47
0.0
 48
0.01
140
2.7999999999999989
141
0.0
142
0.0
143
25.399999999999999
144
1.0
145
0.0
146
1.0
147
1.0
 71
     0
 72
     0
 73
     0
 74
     0
 75
     0
 76
     0
 77
     3
 78
     9
170
     0
171
     2
172
     1
173
     0
174
     0
175
     0
176
   256
177
   256
178
    40
  0
DIMSTYLE
  2
BIGT$3
 70
     0
  3

  4

  5
OPEN
  6

  7

 40
1.0
 41
2.2299999999999991
 42
0.5
 43
2.5
 44
1.0
 45
0.0
 46
0.0
 47
0.0
 48
0.01
140
2.7999999999999989
141
0.0
142
0.0
143
25.399999999999999
144
1.0
145
0.0
146
1.0
147
1.0
 71
     0
 72
     0
 73
     0
 74
     0
 75
     0
 76
     0
 77
     3
 78
     9
170
     0
171
     2
172
     1
173
     0
174
     0
175
     0
176
   256
177
   256
178
    40
  0
DIMSTYLE
  2
BIGT$7
 70
     0
  3

  4

  5
OPEN
  6

  7

 40
0.0
 41
2.2299999999999991
 42
0.5
 43
7.0
 44
1.0
 45
0.0
 46
0.0
 47
0.0
 48
0.01
140
2.7999999999999989
141
0.0
142
0.0
143
25.399999999999999
144
1.0
145
0.0
146
1.0
147
1.0
 71
     0
 72
     0
 73
     0
 74
     0
 75
     0
 76
     0
 77
     3
 78
     9
170
     0
171
     2
172
     0
173
     0
174
     0
175
     0
176
   256
177
   256
178
    40
  0
DIMSTYLE
  2
BIGT$6
 70
     0
  3

  4

  5
OPEN
  6

  7

 40
1.0
 41
2.2299999999999991
 42
0.5
 43
2.5
 44
1.0
 45
0.0
 46
0.0
 47
0.0
 48
0.01
140
2.7999999999999989
141
0.0
142
0.0
143
25.399999999999999
144
1.0
145
0.0
146
1.0
147
1.0
 71
     0
 72
     0
 73
     0
 74
     0
 75
     0
 76
     0
 77
     3
 78
     9
170
     0
171
     2
172
     1
173
     0
174
     0
175
     0
176
   256
177
   256
178
    40
  0
DIMSTYLE
  2
BIGT$0
 70
     0
  3

  4

  5
OPEN
  6

  7

 40
1.0
 41
2.2299999999999991
 42
0.5
 43
7.0
 44
1.0
 45
0.0
 46
0.0
 47
0.0
 48
0.01
140
2.7999999999999989
141
0.0
142
0.0
143
25.399999999999999
144
1.0
145
0.0
146
1.0
147
1.0
 71
     0
 72
     0
 73
     0
 74
     0
 75
     0
 76
     0
 77
     3
 78
     9
170
     0
171
     2
172
     1
173
     0
174
     1
175
     0
176
   256
177
   256
178
    40
  0
DIMSTYLE
  2
BIGT$4
 70
     0
  3

  4

  5
OPEN
  6

  7

 40
1.0
 41
2.2299999999999991
 42
0.5
 43
2.5
 44
1.0
 45
0.0
 46
0.0
 47
0.0
 48
0.01
140
2.7999999999999989
141
0.0
142
0.0
143
25.399999999999999
144
1.0
145
0.0
146
1.0
147
1.0
 71
     0
 72
     0
 73
     0
 74
     0
 75
     0
 76
     0
 77
     3
 78
     9
170
     0
171
     2
172
     1
173
     0
174
     0
175
     0
176
   256
177
   256
178
    40
  0
DIMSTYLE
  2
BIGT$SH
 70
     0
  3

  4

  5
OPEN
  6

  7

 40
1.0
 41
2.2299999999999991
 42
0.5
 43
7.0
 44
1.0
 45
0.0
 46
0.0
 47
0.0
 48
0.0
140
2.7999999999999989
141
0.0
142
0.0
143
25.399999999999999
144
1.0
145
0.0
146
1.0
147
1.0
 71
     0
 72
     0
 73
     0
 74
     0
 75
     0
 76
     0
 77
     3
 78
     9
170
     0
171
     2
172
     1
173
     0
174
     0
175
     0
176
   256
177
   256
178
    40
  0
DIMSTYLE
  2
BIGT$SF
 70
     0
  3

  4

  5
OPEN
  6

  7

 40
1.0
 41
2.2299999999999991
 42
0.5
 43
7.0
 44
1.0
 45
0.0
 46
0.0
 47
0.0
 48
0.0
140
2.7999999999999989
141
0.0
142
0.0
143
25.399999999999999
144
1.0
145
0.0
146
1.0
147
1.0
 71
     0
 72
     0
 73
     0
 74
     0
 75
     0
 76
     0
 77
     3
 78
     9
170
     0
171
     2
172
     1
173
     0
174
     0
175
     0
176
   256
177
   256
178
    40
  0
DIMSTYLE
  2
TECHNICAL_OSAKA
 70
     0
  3

  4
"
  5
OPEN30
  6

  7

 40
1.0
 41
2.5
 42
1.0
 43
10.0
 44
1.0
 45
0.0
 46
0.0
 47
0.1
 48
0.1
140
2.7999999999999989
141
0.0
142
0.0
143
0.0393701
144
1.0
145
0.0
146
0.71
147
1.5
 71
     0
 72
     0
 73
     0
 74
     0
 75
     0
 76
     0
 77
     3
 78
     8
170
     0
171
     2
172
     1
173
     0
174
     0
175
     0
176
   256
177
   256
178
    40
  0
DIMSTYLE
  2
TECHNICAL_OSAKA$3
 70
     0
  3

  4
"
  5
OPEN30
  6

  7

 40
1.0
 41
2.5
 42
1.0
 43
10.0
 44
1.0
 45
0.0
 46
0.0
 47
0.1
 48
0.1
140
2.7999999999999989
141
0.0
142
0.0
143
0.0393701
144
1.0
145
0.0
146
0.71
147
1.5
 71
     0
 72
     0
 73
     0
 74
     1
 75
     0
 76
     0
 77
     3
 78
     8
170
     0
171
     2
172
     0
173
     0
174
     0
175
     0
176
   256
177
   256
178
    40
  0
DIMSTYLE
  2
TECHNICAL_OSAKA$4
 70
     0
  3

  4
"
  5
OPEN30
  6

  7

 40
1.0
 41
2.5
 42
1.0
 43
10.0
 44
1.0
 45
0.0
 46
0.0
 47
0.1
 48
0.1
140
2.7999999999999989
141
0.0
142
0.0
143
0.0393701
144
1.0
145
0.0
146
0.71
147
1.5
 71
     0
 72
     0
 73
     0
 74
     1
 75
     0
 76
     0
 77
     3
 78
     8
170
     0
171
     2
172
     0
173
     0
174
     0
175
     0
176
   256
177
   256
178
    40
  0
DIMSTYLE
  2
TECHNICAL_OSAKA$6
 70
     0
  3

  4
"
  5
OPEN30
  6

  7

 40
1.0
 41
2.5
 42
1.0
 43
10.0
 44
1.0
 45
0.0
 46
0.0
 47
0.1
 48
0.1
140
2.7999999999999989
141
0.0
142
0.0
143
0.0393701
144
1.0
145
0.0
146
0.71
147
1.5
 71
     0
 72
     0
 73
     0
 74
     0
 75
     0
 76
     0
 77
     0
 78
     8
170
     0
171
     2
172
     1
173
     0
174
     0
175
     0
176
   256
177
   256
178
    40
  0
DIMSTYLE
  2
TECHNICAL_OSAKA$7
 70
     0
  3

  4
"
  5
OPEN30
  6

  7

 40
1.0
 41
2.5
 42
1.0
 43
10.0
 44
1.0
 45
0.0
 46
0.0
 47
0.1
 48
0.1
140
2.7999999999999989
141
0.0
142
0.0
143
0.0393701
144
1.0
145
0.0
146
0.71
147
1.5
 71
     0
 72
     0
 73
     0
 74
     0
 75
     0
 76
     0
 77
     3
 78
     8
170
     0
171
     2
172
     1
173
     0
174
     0
175
     0
176
   256
177
   256
178
    40
  0
DIMSTYLE
  2
TECHNICAL_OSAKA$SF
 70
     0
  3

  4
"
  5
OPEN30
  6
OPEN30
  7
OPEN30
 40
1.0
 41
2.5
 42
1.0
 43
10.0
 44
1.0
 45
0.0
 46
0.0
 47
0.1
 48
0.1
140
3.5
141
0.0
142
0.0
143
0.0393701
144
1.0
145
0.0
146
0.71
147
1.5
 71
     0
 72
     0
 73
     0
 74
     0
 75
     1
 76
     1
 77
     3
 78
     8
170
     0
171
     2
172
     1
173
     0
174
     0
175
     0
176
   256
177
   256
178
    40
  0
DIMSTYLE
  2
TECHNICAL_OSAKA$SH
 70
     0
  3

  4
"
  5
OPEN30
  6
GENAXEH
  7
OPEN30
 40
1.0
 41
2.5
 42
1.0
 43
10.0
 44
1.0
 45
0.0
 46
0.0
 47
0.1
 48
0.1
140
3.5
141
0.0
142
0.0
143
0.0393701
144
2.0
145
0.0
146
0.71
147
1.5
 71
     0
 72
     0
 73
     0
 74
     0
 75
     1
 76
     1
 77
     3
 78
     8
170
     0
171
     2
172
     1
173
     1
174
     0
175
     0
176
   256
177
   256
178
    40
  0
ENDTAB
  0
ENDSEC
  0
SECTION
  2
BLOCKS
  0
BLOCK
  8
0
  2
$MODEL_SPACE
 70
     0
 10
0.0
 20
0.0
 30
0.0
  3
$MODEL_SPACE
  1

  0
ENDBLK
  5
1C
  8
0
  0
BLOCK
 67
     1
  8
0
  2
$PAPER_SPACE
 70
     0
 10
0.0
 20
0.0
 30
0.0
  3
$PAPER_SPACE
  1

  0
ENDBLK
  5
19
 67
     1
  8
0
  0
BLOCK
  8
0
  2
_OPEN
 70
     0
 10
0.0
 20
0.0
 30
0.0
  3
_OPEN
  1

  0
LINE
  5
44CD
  8
0
  6
BYBLOCK
 62
     0
 10
-1.0
 20
0.1666666666666666
 30
0.0
 11
0.0
 21
0.0
 31
0.0
  0
LINE
  5
44CE
  8
0
  6
BYBLOCK
 62
     0
 10
-1.0
 20
-0.1666666666666666
 30
0.0
 11
0.0
 21
0.0
 31
0.0
  0
LINE
  5
44CF
  8
0
  6
BYBLOCK
 62
     0
 10
0.0
 20
0.0
 30
0.0
 11
-1.0
 21
0.0
 31
0.0
  0
ENDBLK
  5
44D0
  8
0
  0
BLOCK
  8
0
  2
GENAXEH
 70
     0
 10
0.0
 20
0.0
 30
0.0
  3
GENAXEH
  1

  0
LINE
  5
4508
  8
0
 10
-1.0
 20
0.0
 30
0.0
 11
1.0
 21
0.0
 31
0.0
  0
ENDBLK
  5
4509
  8
0
  0
BLOCK
  8
0
  2
_OPEN30
 70
     0
 10
0.0
 20
0.0
 30
0.0
  3
_OPEN30
  1

  0
LINE
  5
4544
  8
0
  6
BYBLOCK
 62
     0
 10
-1.0
 20
0.26794919
 30
0.0
 11
0.0
 21
0.0
 31
0.0
  0
LINE
  5
4545
  8
0
  6
BYBLOCK
 62
     0
 10
0.0
 20
0.0
 30
0.0
 11
-1.0
 21
-0.26794919
 31
0.0
  0
LINE
  5
4546
  8
0
  6
BYBLOCK
 62
     0
 10
0.0
 20
0.0
 30
0.0
 11
-1.0
 21
0.0
 31
0.0
  0
ENDBLK
  5
4547
  8
0
  0
BLOCK
  8
0
  2
*U18
 70
     1
 10
0.0
 20
0.0
 30
0.0
  3
*U18
  1

  0
TEXT
  5
45C7
  8
240
 62
    40
 10
33.333333333333343
 20
64.000000000000014
 30
0.0
 40
2.7999999999999989
  1
72
  0
ENDBLK
  5
45C9
  8
0
  0
ENDSEC
  0
SECTION
  2
ENTITIES
  0
LINE
  5
424E
  8
245
  6
CENTER2
 10
58.306349519955688
 20
0.0000000000000284
 30
0.0
 11
-103.8
 21
-0.0000000000000284
 31
0.0
  0
LINE
  5
4285
  8
245
  6
CENTER2
 10
57.500000000001108
 20
0.0000000000000284
 30
0.0
 11
20.25538993868426
 21
0.0000000000000284
 31
0.0
  0
ARC
  5
4289
  8
240
  6
CONTINUOUS
 10
43.0
 20
-20.5
 30
0.0
 40
5.0
 50
90.0
 51
180.0
1001
ASK_MEN_XD
1005
428F
1070
     1
1005
0
1070
     1
  0
LINE
  5
428A
  8
240
  6
CONTINUOUS
 10
72.0
 20
-9.5
 30
0.0
 11
72.0
 21
9.5
 31
0.0
1001
GRPNAME
1000
PASTMD05
  0
LINE
  5
428C
  8
241
  6
CONTINUOUS
 10
57.500000000013067
 20
-9.5846756431840276
 30
0.0
 11
57.500000000013067
 21
9.9491013943777045
 31
0.0
  0
LINE
  5
428D
  8
241
  6
CONTINUOUS
 10
51.500000000013067
 20
-15.36526958168645
 30
0.0
 11
51.500000000013081
 21
15.365269581686659
 31
0.0
  0
ARC
  5
428E
  8
240
  6
CONTINUOUS
 10
50.878679656453407
 20
-14.00000000000003
 30
0.0
 40
1.5
 50
270.0
 51
315.0
  0
LINE
  5
428F
  8
240
  6
CONTINUOUS
 10
43.0
 20
-15.5
 30
0.0
 11
50.878679656453407
 21
-15.50000000000003
 31
0.0
  0
LINE
  5
4290
  8
240
  6
CONTINUOUS
 10
51.939339828233237
 20
-15.06066017177986
 30
0.0
 11
56.035533905945918
 21
-10.964466094067239
 31
0.0
  0
ARC
  5
4291
  8
240
  6
CONTINUOUS
 10
50.878679656453407
 20
14.0
 30
0.0
 40
1.499999999999992
 50
45.0
 51
90.0
  0
LINE
  5
4292
  8
240
  6
CONTINUOUS
 10
43.0
 20
15.5
 30
0.0
 11
50.878679656453407
 21
15.5
 31
0.0
  0
ARC
  5
4293
  8
240
  6
CONTINUOUS
 10
43.0
 20
20.5
 30
0.0
 40
5.0
 50
180.0
 51
270.0
1001
ASK_MEN_XD
1005
0
1070
     1
1005
4292
1070
     1
  0
LINE
  5
4294
  8
240
  6
CONTINUOUS
 10
56.035533905945726
 20
10.96446609406728
 30
0.0
 11
51.939339828233237
 21
15.06066017177983
 31
0.0
  0
LINE
  5
4295
  8
240
  6
CONTINUOUS
 10
72.0
 20
-9.5
 30
0.0
 11
59.571067811878642
 21
-9.5
 31
0.0
1001
GRPNAME
1000
PASTMD0K
  0
LINE
  5
4296
  8
240
  6
CONTINUOUS
 10
72.0
 20
9.5
 30
0.0
 11
59.571067811878493
 21
9.5
 31
0.0
1001
GRPNAME
1000
PASTMD0K
  0
LINE
  5
42AA
  8
245
  6
CENTER2
 10
75.469569414083253
 20
0.0
 30
0.0
 11
53.347220539062612
 21
0.0
 31
0.0
  0
LINE
  5
431C
  8
243
  6
HIDDEN2
 10
72.0
 20
5.5
 30
0.0
 11
57.950000000000031
 21
5.5
 31
0.0
1001
GRPNAME
1000
PASTMD01
  0
LINE
  5
431D
  8
243
  6
HIDDEN2
 10
72.0
 20
-5.5
 30
0.0
 11
57.950000000000031
 21
-5.5
 31
0.0
1001
GRPNAME
1000
PASTMD01
  0
LINE
  5
431E
  8
250
  6
CONTINUOUS
 10
72.5
 20
-9.5
 30
0.0
 11
83.0
 21
-9.5
 31
0.0
  0
LINE
  5
431F
  8
250
  6
CONTINUOUS
 10
72.5
 20
9.5
 30
0.0
 11
83.0
 21
9.5
 31
0.0
  0
LINE
  5
4320
  8
250
  6
CONTINUOUS
 10
82.0
 20
-7.269999999999996
 30
0.0
 11
82.0
 21
7.269999999999996
 31
0.0
  0
LINE
  5
4321
  8
250
  6
CONTINUOUS
 10
82.371666666666584
 20
-7.269999999999996
 30
0.0
 11
82.0
 21
-9.5
 31
0.0
  0
LINE
  5
4322
  8
250
  6
CONTINUOUS
 10
81.628333333333288
 20
-7.269999999999996
 30
0.0
 11
82.0
 21
-9.5
 31
0.0
  0
LINE
  5
4323
  8
250
  6
CONTINUOUS
 10
82.0
 20
-9.5
 30
0.0
 11
82.0
 21
-7.269999999999996
 31
0.0
  0
LINE
  5
4324
  8
250
  6
CONTINUOUS
 10
81.628333333333288
 20
7.269999999999996
 30
0.0
 11
82.0
 21
9.5
 31
0.0
  0
LINE
  5
4325
  8
250
  6
CONTINUOUS
 10
82.371666666666584
 20
7.269999999999996
 30
0.0
 11
82.0
 21
9.5
 31
0.0
  0
LINE
  5
4326
  8
250
  6
CONTINUOUS
 10
82.0
 20
9.5
 30
0.0
 11
82.0
 21
7.269999999999996
 31
0.0
  0
TEXT
  5
4327
  8
250
  6
CONTINUOUS
 10
81.0
 20
-3.8666666666666649
 30
0.0
 40
2.799999999999998
  1
\U+220519
 50
90.0
1001
ACAD
1000
MTEXTBEGIN
1070
    73
1070
     1
1070
    44
1040
1.0
1070
    74
1070
     0
1000
MTEXTEND
  0
LINE
  5
4328
  8
250
  6
CONTINUOUS
 10
69.113342935286994
 20
11.06538414033237
 30
0.0
 11
67.8246678
 21
9.5
 31
0.0
  0
LINE
  5
4329
  8
250
  6
CONTINUOUS
 10
68.53599266624478
 20
11.398717473921
 30
0.0
 11
67.8246678
 21
9.5
 31
0.0
  0
LINE
  5
432A
  8
250
  6
CONTINUOUS
 10
67.8246678
 20
9.5
 30
0.0
 11
68.824667800765894
 21
11.23205080712669
 31
0.0
  0
TEXT
  5
432F
  8
250
  6
CONTINUOUS
 10
77.115855010000004
 20
22.435886360000001
 30
0.0
 40
2.799999999999998
  1
CK1
  7
YOKO
1001
ITEMNAME
1000
LNSP3
1001
ACAD
1000
MTEXTBEGIN
1070
    73
1070
     1
1070
    44
1040
1.0
1070
    74
1070
     0
1000
MTEXTEND
1000
MTEXTBEGIN
1070
    73
1070
     1
1070
    44
1040
1.0
1070
    74
1070
     0
1000
MTEXTEND
  0
LINE
  5
4330
  8
250
  6
CONTINUOUS
 10
74.715855009999984
 20
21.435886360000001
 30
0.0
 11
86.982521669999997
 21
21.435886360000001
 31
0.0
1001
ITEMNAME
1000
LNSP2
  0
CIRCLE
  5
4331
  8
241
  6
CONTINUOUS
 10
67.0
 20
0.0
 30
0.0
 40
2.1000000000000001
  0
CIRCLE
  5
4332
  8
242
  6
CONTINUOUS
 10
67.0
 20
0.0
 30
0.0
 40
1.75
  0
LINE
  5
433B
  8
245
  6
CENTER2
 10
67.0
 20
3.1000000000000001
 30
0.0
 11
67.0
 21
-3.1000000000000001
 31
0.0
  0
ARC
  5
433E
  8
240
  6
CONTINUOUS
 10
59.571067811878493
 20
14.5
 30
0.0
 40
5.0
 50
224.9999999999996
 51
270.0
1001
GRPNAME
1000
PASTMD0K
1001
GENIUS_GENOBJ-N-FIL_13
1002
{
1000
OWNER
1000
GEN
1002
}
1001
GENIUS_GENODEF_13
1002
{
1000
HIER
1070
     0
1002
}
1002
{
1000
MANEDIT
1070
     0
1002
}
1002
{
1000
NOSEL
1070
     0
1002
}
1002
{
1000
BEHIND
1070
     0
1002
}
1002
{
1000
OTHER
1070
     0
1002
}
1002
{
1000
REACTOR
1002
}
  0
ARC
  5
4340
  8
240
  6
CONTINUOUS
 10
59.571067811878642
 20
-14.5
 30
0.0
 40
5.0
 50
90.0
 51
134.9999999999996
1001
GENIUS_GENOBJ-N-FIL_13
1002
{
1000
OWNER
1000
GEN
1002
}
1001
GENIUS_GENODEF_13
1002
{
1000
HIER
1070
     0
1002
}
1002
{
1000
MANEDIT
1070
     0
1002
}
1002
{
1000
NOSEL
1070
     0
1002
}
1002
{
1000
BEHIND
1070
     0
1002
}
1002
{
1000
OTHER
1070
     0
1002
}
1002
{
1000
REACTOR
1002
}
  0
LINE
  5
437F
  8
250
  6
CONTINUOUS
 10
-53.78156984999999
 20
-37.791071780000038
 30
0.0
 11
-71.514903180000033
 21
-37.791071780000038
 31
0.0
1001
ITEMNAME
1000
LNSP2
  0
TEXT
  5
4380
  8
250
  6
CONTINUOUS
 10
-69.248236513333325
 20
-36.791071780000038
 30
0.0
 40
2.799999999999998
  1
BBT50
  7
YOKO
1001
ITEMNAME
1000
LNSP3
  0
LINE
  5
4381
  8
250
  6
CONTINUOUS
 10
-49.367434494225392
 20
-29.478898401206319
 30
0.0
 11
-48.078759359999992
 21
-27.913514259999999
 31
0.0
  0
LINE
  5
4382
  8
250
  6
CONTINUOUS
 10
-48.790084224957063
 20
-29.812231734403451
 30
0.0
 11
-48.078759359999992
 21
-27.913514259999999
 31
0.0
  0
LINE
  5
4383
  8
250
  6
CONTINUOUS
 10
-48.078759359999992
 20
-27.913514259999999
 30
0.0
 11
-49.078759359591217
 21
-29.64556506780491
 31
0.0
  0
LINE
  5
4384
  8
250
  6
CONTINUOUS
 10
-49.078759359591217
 20
-29.64556506780491
 30
0.0
 11
-53.78156984999999
 21
-37.791071780000038
 31
0.0
1001
ACAD
1000
DSTYLE
1002
{
1070
     6
1000
OPEN
1070
    41
1040
2.0
1070
   343
1005
0
1002
}
  0
LINE
  5
4385
  8
240
  6
CONTINUOUS
 10
0.0
 20
-34.925000000000011
 30
0.0
 11
-101.8
 21
-20.079166665188438
 31
0.0
  0
LINE
  5
4386
  8
240
  6
CONTINUOUS
 10
0.0
 20
34.925000000000011
 30
0.0
 11
-101.8
 21
20.079166665188438
 31
0.0
  0
LINE
  5
4387
  8
240
  6
CONTINUOUS
 10
-101.8
 20
20.079166665188438
 30
0.0
 11
-101.8
 21
-20.079166665188438
 31
0.0
  0
LINE
  5
4388
  8
240
  6
CONTINUOUS
 10
38.0
 20
-50.0
 30
0.0
 11
37.999999999999943
 21
-20.500000000000011
 31
0.0
  0
LINE
  5
4389
  8
241
  6
CONTINUOUS
 10
30.70000000000006
 20
-50.0
 30
0.0
 11
30.70000000000006
 21
50.000000000000071
 31
0.0
  0
LINE
  5
438A
  8
241
  6
CONTINUOUS
 10
26.369872980000078
 20
-42.5
 30
0.0
 11
26.369872979999968
 21
42.499999999999922
 31
0.0
  0
LINE
  5
438B
  8
241
  6
CONTINUOUS
 10
20.030127020000009
 20
-42.5
 30
0.0
 11
20.030127020000009
 21
42.499999999999922
 31
0.0
  0
LINE
  5
438C
  8
241
  6
CONTINUOUS
 10
15.70000000000004
 20
-50.0
 30
0.0
 11
15.70000000000004
 21
50.000000000000071
 31
0.0
  0
LINE
  5
438D
  8
243
  6
HIDDEN2
 10
34.0
 20
-35.399999999999977
 30
0.0
 11
34.0
 21
-50.0
 31
0.0
  0
LINE
  5
438E
  8
240
  6
CONTINUOUS
 10
1.5
 20
-50.0
 30
0.0
 11
1.5
 21
-34.925000000000011
 31
0.0
  0
LINE
  5
438F
  8
240
  6
CONTINUOUS
 10
38.000000000000092
 20
-50.0
 30
0.0
 11
30.70000000000006
 21
-50.0
 31
0.0
  0
LINE
  5
4390
  8
240
  6
CONTINUOUS
 10
1.5
 20
-50.0
 30
0.0
 11
15.70000000000004
 21
-50.0
 31
0.0
  0
LINE
  5
4391
  8
240
  6
CONTINUOUS
 10
26.369872980000078
 20
-42.5
 30
0.0
 11
20.030127020000009
 21
-42.5
 31
0.0
  0
LINE
  5
4392
  8
240
  6
CONTINUOUS
 10
20.030127020000009
 20
-42.5
 30
0.0
 11
15.70000000000004
 21
-50.0
 31
0.0
  0
LINE
  5
4393
  8
240
  6
CONTINUOUS
 10
26.369872980000078
 20
-42.5
 30
0.0
 11
30.70000000000006
 21
-50.0
 31
0.0
  0
LINE
  5
4394
  8
241
  6
CONTINUOUS
 10
0.0
 20
-34.925000000000011
 30
0.0
 11
0.0
 21
34.925000000000011
 31
0.0
  0
LINE
  5
4395
  8
241
  6
CONTINUOUS
 10
1.5
 20
-34.925000000000011
 30
0.0
 11
1.5
 21
34.925000000000011
 31
0.0
  0
LINE
  5
4396
  8
243
  6
HIDDEN2
 10
1.5
 20
-35.399999999999977
 30
0.0
 11
34.0
 21
-35.399999999999977
 31
0.0
  0
LINE
  5
4397
  8
240
  6
CONTINUOUS
 10
0.0
 20
-34.925000000000011
 30
0.0
 11
1.5
 21
-34.925000000000011
 31
0.0
  0
LINE
  5
4398
  8
240
  6
CONTINUOUS
 10
30.70000000000006
 20
50.0
 30
0.0
 11
37.99999999999978
 21
50.0
 31
0.0
  0
LINE
  5
4399
  8
243
  6
HIDDEN2
 10
34.0
 20
35.399999999999977
 30
0.0
 11
34.0
 21
50.0
 31
0.0
  0
LINE
  5
439A
  8
240
  6
CONTINUOUS
 10
1.5
 20
50.000000000000071
 30
0.0
 11
1.5
 21
34.925000000000011
 31
0.0
  0
LINE
  5
439B
  8
243
  6
HIDDEN2
 10
34.0
 20
35.399999999999977
 30
0.0
 11
1.5
 21
35.399999999999977
 31
0.0
  0
LINE
  5
439C
  8
240
  6
CONTINUOUS
 10
0.0
 20
34.925000000000011
 30
0.0
 11
1.5
 21
34.925000000000011
 31
0.0
  0
LINE
  5
439D
  8
240
  6
CONTINUOUS
 10
15.70000000000004
 20
50.0
 30
0.0
 11
1.5
 21
50.0
 31
0.0
  0
LINE
  5
439E
  8
240
  6
CONTINUOUS
 10
26.369872980000078
 20
42.5
 30
0.0
 11
20.030127020000009
 21
42.5
 31
0.0
  0
LINE
  5
439F
  8
240
  6
CONTINUOUS
 10
20.030127020000009
 20
42.5
 30
0.0
 11
15.70000000000004
 21
50.0
 31
0.0
  0
LINE
  5
43A0
  8
240
  6
CONTINUOUS
 10
26.369872980000078
 20
42.5
 30
0.0
 11
30.70000000000006
 21
50.0
 31
0.0
  0
LINE
  5
43A1
  8
247
  6
CONTINUOUS
 10
10.5
 20
-26.250000000070042
 30
0.0
 11
10.5
 21
-19.557692308030031
 31
0.0
  0
ARC
  5
43A2
  8
247
  6
CONTINUOUS
 10
8.7500000000700311
 20
-26.250000000070042
 30
0.0
 40
1.7499999999299991
 50
180.0
 51
0.0
  0
ARC
  5
43A3
  8
247
  6
CONTINUOUS
 10
8.7500000000700311
 20
-19.557692308030031
 30
0.0
 40
1.7499999999299991
 50
0.0
 51
180.0
  0
LINE
  5
43A4
  8
247
  6
CONTINUOUS
 10
7.0000000001400622
 20
-25.384615384720011
 30
0.0
 11
10.000000000020011
 21
-26.244851541962021
 31
0.0
  0
LINE
  5
43A5
  8
247
  6
CONTINUOUS
 10
8.4230769231600071
 20
-24.48498381833582
 30
0.0
 11
8.4230769231600071
 21
-25.792676125975849
 31
0.0
  0
ARC
  5
43A6
  8
247
  6
CONTINUOUS
 10
7.5495986677029769
 20
-24.145143816089789
 30
0.0
 40
0.5538165441895349
 50
72.99788967529534
 51
172.92416621851359
  0
ARC
  5
43A7
  8
247
  6
CONTINUOUS
 10
7.4360330444658302
 20
-24.566878323028789
 30
0.0
 40
0.9904354236226808
 50
4.7429368522022122
 51
73.849226273266538
1001
GENIUS_GENOBJ-N-FIL_13
1002
{
1000
OWNER
1000
GEN
1002
}
1001
GENIUS_GENODEF_13
1002
{
1000
HIER
1070
     0
1002
}
1002
{
1000
MANEDIT
1070
     0
1002
}
1002
{
1000
NOSEL
1070
     0
1002
}
1002
{
1000
BEHIND
1070
     0
1002
}
1002
{
1000
OTHER
1070
     0
1002
}
1002
{
1000
REACTOR
1002
}
  0
LINE
  5
43A8
  8
247
  6
CONTINUOUS
 10
10.000000000020011
 20
-24.937159234321999
 30
0.0
 11
10.000000000020011
 21
-26.244851541962021
 31
0.0
  0
LINE
  5
43A9
  8
247
  6
CONTINUOUS
 10
7.0000000001400622
 20
-25.384615384720011
 30
0.0
 11
7.0000000001400622
 21
-24.076923077079989
 31
0.0
  0
ARC
  5
43AA
  8
247
  6
CONTINUOUS
 10
8.9820242326655944
 20
-24.560919636546942
 30
0.0
 40
0.5640818586791229
 50
65.990941652528889
 51
172.26344345906909
  0
ARC
  5
43AB
  8
247
  6
CONTINUOUS
 10
8.9874290391866225
 20
-25.038262685347089
 30
0.0
 40
1.0176059446230981
 50
5.7019851642564632
 51
77.277338436822191
1001
GENIUS_GENOBJ-N-FIL_13
1002
{
1000
OWNER
1000
GEN
1002
}
1001
GENIUS_GENODEF_13
1002
{
1000
HIER
1070
     0
1002
}
1002
{
1000
MANEDIT
1070
     0
1002
}
1002
{
1000
NOSEL
1070
     0
1002
}
1002
{
1000
BEHIND
1070
     0
1002
}
1002
{
1000
OTHER
1070
     0
1002
}
1002
{
1000
REACTOR
1002
}
  0
LINE
  5
43AC
  8
247
  6
CONTINUOUS
 10
10.000000000020011
 20
-23.28331308054203
 30
0.0
 11
7.0000000001400622
 21
-22.42307692330002
 31
0.0
  0
LINE
  5
43AD
  8
247
  6
CONTINUOUS
 10
7.0000000001400622
 20
-20.000000000319972
 30
0.0
 11
7.0000000001400622
 21
-20.565736619456569
 31
0.0
  0
LINE
  5
43AE
  8
247
  6
CONTINUOUS
 10
10.000000000020011
 20
-21.461538461799979
 30
0.0
 11
10.000000000020011
 21
-20.846153846440021
 31
0.0
  0
ARC
  5
43AF
  8
247
  6
CONTINUOUS
 10
9.0832851359733677
 20
-19.708791209122861
 30
0.0
 40
2.2526500823422122
 50
202.3594881415259
 51
254.99324854284609
  0
ARC
  5
43B0
  8
247
  6
CONTINUOUS
 10
7.8083126551945261
 20
-20.37406947921323
 30
0.0
 40
0.8906723995727782
 50
94.994589319075374
 51
155.1663289573039
1001
GENIUS_GENOBJ-N-FIL_13
1002
{
1000
OWNER
1000
GEN
1002
}
1001
GENIUS_GENODEF_13
1002
{
1000
HIER
1070
     0
1002
}
1002
{
1000
MANEDIT
1070
     0
1002
}
1002
{
1000
NOSEL
1070
     0
1002
}
1002
{
1000
BEHIND
1070
     0
1002
}
1002
{
1000
OTHER
1070
     0
1002
}
1002
{
1000
REACTOR
1002
}
  0
ARC
  5
43B1
  8
247
  6
CONTINUOUS
 10
8.6601458886677847
 20
-21.22645888621258
 30
0.0
 40
1.392781735586712
 50
15.8460965557808
 51
82.325137004169065
  0
ARC
  5
43B2
  8
247
  6
CONTINUOUS
 10
8.9592434315272822
 20
-20.642212725840348
 30
0.0
 40
1.324563662670287
 50
249.7136016704969
 51
321.78874565640689
1001
GENIUS_GENOBJ-N-FIL_13
1002
{
1000
OWNER
1000
GEN
1002
}
1001
GENIUS_GENODEF_13
1002
{
1000
HIER
1070
     0
1002
}
1002
{
1000
MANEDIT
1070
     0
1002
}
1002
{
1000
NOSEL
1070
     0
1002
}
1002
{
1000
BEHIND
1070
     0
1002
}
1002
{
1000
OTHER
1070
     0
1002
}
1002
{
1000
REACTOR
1002
}
  0
LINE
  5
43B3
  8
247
  6
CONTINUOUS
 10
8.8461538462199751
 20
-20.538461538759979
 30
0.0
 11
8.8461538462199751
 21
-19.846153846479961
 31
0.0
  0
LINE
  5
43B4
  8
247
  6
CONTINUOUS
 10
7.0000000001400009
 20
-26.250000000070042
 30
0.0
 11
7.0000000001400009
 21
-25.576923077020069
 31
0.0
  0
LINE
  5
43B5
  8
240
  6
CONTINUOUS
 10
37.999999999999851
 20
20.499999999999979
 30
0.0
 11
37.99999999999978
 21
50.0
 31
0.0
  0
LINE
  5
43B6
  8
241
  6
CONTINUOUS
 10
37.999999999999943
 20
-20.500000000000011
 30
0.0
 11
38.0
 21
20.5
 31
0.0
  0
TEXT
  5
43B7
  8
241
  6
CONTINUOUS
 10
-101.8
 20
77.0
 30
0.0
 40
5.0
  1
BBT50-CKB1-72
  7
YOKO
 11
-101.8
 21
77.0
 31
0.0
 73
     1
  0
LINE
  5
43E7
  8
250
  6
CONTINUOUS
 10
0.0
 20
35.424999999999997
 30
0.0
 11
0.0000000000000018
 21
64.0
 31
0.0
  0
LINE
  5
43E8
  8
250
  6
CONTINUOUS
 10
72.0
 20
10.0
 30
0.0
 11
72.0
 21
64.0
 31
0.0
  0
LINE
  5
43E9
  8
250
  6
CONTINUOUS
 10
2.2300000000000009
 20
63.0
 30
0.0
 11
69.769999999999996
 21
63.0
 31
0.0
  0
TEXT
  5
43ED
  8
250
  6
CONTINUOUS
 10
33.333333333333343
 20
64.000000000000014
 30
0.0
 40
2.7999999999999989
  1
72
  0
LINE
  5
43EE
  8
250
  6
CONTINUOUS
 10
69.769999999999996
 20
63.37166666666667
 30
0.0
 11
72.0
 21
63.0
 31
0.0
  0
LINE
  5
43EF
  8
250
  6
CONTINUOUS
 10
69.769999999999996
 20
62.62833333333333
 30
0.0
 11
72.0
 21
63.0
 31
0.0
  0
LINE
  5
43F0
  8
250
  6
CONTINUOUS
 10
72.0
 20
63.0
 30
0.0
 11
69.769999999999996
 21
63.0
 31
0.0
  0
LINE
  5
43F1
  8
250
  6
CONTINUOUS
 10
2.2300000000000009
 20
62.62833333333333
 30
0.0
 11
0.0000000000000017
 21
63.0
 31
0.0
  0
LINE
  5
43F2
  8
250
  6
CONTINUOUS
 10
2.2300000000000009
 20
63.37166666666667
 30
0.0
 11
0.0000000000000017
 21
63.0
 31
0.0
  0
LINE
  5
43F3
  8
250
  6
CONTINUOUS
 10
0.0000000000000017
 20
63.0
 30
0.0
 11
2.2300000000000009
 21
63.0
 31
0.0
  0
LINE
  5
43F4
  8
241
  6
CONTINUOUS
 10
66.0
 20
-0.5773502700000001
 30
0.0
 11
67.0
 21
-1.1547005400000001
 31
0.0
  0
LINE
  5
43F5
  8
241
  6
CONTINUOUS
 10
67.0
 20
-1.1547005400000001
 30
0.0
 11
68.0
 21
-0.5773502700000001
 31
0.0
  0
LINE
  5
43F6
  8
241
  6
CONTINUOUS
 10
68.0
 20
-0.5773502700000001
 30
0.0
 11
68.0
 21
0.5773502700000001
 31
0.0
  0
LINE
  5
43F7
  8
241
  6
CONTINUOUS
 10
68.0
 20
0.5773502700000001
 30
0.0
 11
67.0
 21
1.1547005400000001
 31
0.0
  0
LINE
  5
43F8
  8
241
  6
CONTINUOUS
 10
67.0
 20
1.1547005400000001
 30
0.0
 11
66.0
 21
0.5773502700000001
 31
0.0
  0
LINE
  5
43F9
  8
241
  6
CONTINUOUS
 10
66.0
 20
0.5773502700000001
 30
0.0
 11
66.0
 21
-0.5773502700000001
 31
0.0
  0
LINE
  5
43FA
  8
250
  6
CONTINUOUS
 10
68.824667800765894
 20
11.23205080712669
 30
0.0
 11
74.715855009999984
 21
21.435886360000001
 31
0.0
1001
ACAD
1000
DSTYLE
1002
{
1070
     6
1000
OPEN
1070
    41
1040
2.0
1070
    42
1040
2.0
1070
    44
1040
2.0
1070
    79
1070
     2
1070
   140
1040
4.0
1070
   179
1070
     3
1070
   343
1005
0
1070
   371
1070
    -1
1070
   372
1070
    -1
1002
}
  0
VIEWPORT
  5
22
 67
     1
  8
0
 10
261.51769911504419
 20
148.5
 30
0.0
 40
523.0353982300885
 41
297.0
 68
     1
 69
     1
1001
ACAD
1000
MVIEW
1002
{
1070
    16
1010
0.0
1020
0.0
1030
0.0
1010
0.0
1020
0.0
1030
1.0
1040
0.0
1040
297.0
1040
261.51769911504419
1040
148.5
1040
50.0
1040
0.0
1040
0.0
1070
     0
1070
   100
1070
     1
1070
     1
1070
     0
1070
     0
1070
     0
1070
     0
1040
0.0
1040
0.0
1040
0.0
1040
1.0
1040
1.0
1040
10.0
1040
10.0
1070
     0
1002
{
1002
}
1002
}
1001
GENIUS_GENODEF_13
1002
{
1000
HIER
1070
     0
1002
}
1002
{
1000
MANEDIT
1070
     0
1002
}
1002
{
1000
NOSEL
1070
     0
1002
}
1002
{
1000
BEHIND
1070
     0
1002
}
1002
{
1000
OTHER
1070
     0
1002
}
1002
{
1000
REACTOR
1002
}
1001
GENIUS_GENOBJ-N-SDF_13
1002
{
1000
OWNER
1000
GEN
1002
}
1001
GENIUS_GENSCREG_15
1000
PF
1040
1.0
1000
DF
1040
1.0
1000
MIN
1011
0.0
1021
0.0
1031
0.0
1021
0.0
1031
0.0
1000
MAX
1011
523.0353982300885
1021
0.0
1031
0.0
1021
297.0
1031
0.0
1000
FLAGS
1070
     4
  0
ENDSEC
  0
EOF
