  0
SECTION
  2
HEADER
  9
$ACADVER
  1
AC1009
  9
$INSBASE
 10
0.0
 20
0.0
 30
0.0
  9
$EXTMIN
 10
-102.7999999999999972
 20
-50.0
 30
0.0
  9
$EXTMAX
 10
116.982521669999997
 20
82.0
 30
0.0
  9
$LIMMIN
 10
0.0
 20
0.0
  9
$LIMMAX
 10
297.0
 20
210.0
  9
$ORTHOMODE
 70
     0
  9
$REGENMODE
 70
     1
  9
$FILLMODE
 70
     1
  9
$QTEXTMODE
 70
     0
  9
$MIRRTEXT
 70
     1
  9
$DRAGMODE
 70
     2
  9
$LTSCALE
 40
10.0
  9
$OSMODE
 70
   807
  9
$ATTMODE
 70
     1
  9
$TEXTSIZE
 40
3.0
  9
$TRACEWID
 40
1.0
  9
$TEXTSTYLE
  7
YOKO
  9
$CLAYER
  8
240
  9
$CELTYPE
  6
BYLAYER
  9
$CECOLOR
 62
   256
  9
$DIMSCALE
 40
1.0
  9
$DIMASZ
 40
2.2299999999999991
  9
$DIMEXO
 40
0.5
  9
$DIMDLI
 40
7.0
  9
$DIMRND
 40
0.0
  9
$DIMDLE
 40
0.0
  9
$DIMEXE
 40
1.0
  9
$DIMTP
 40
0.0
  9
$DIMTM
 40
0.01
  9
$DIMTXT
 40
2.799999999999998
  9
$DIMCEN
 40
0.0
  9
$DIMTSZ
 40
0.0
  9
$DIMTOL
 70
     0
  9
$DIMLIM
 70
     0
  9
$DIMTIH
 70
     0
  9
$DIMTOH
 70
     0
  9
$DIMSE1
 70
     0
  9
$DIMSE2
 70
     0
  9
$DIMTAD
 70
     3
  9
$DIMZIN
 70
     9
  9
$DIMBLK
  1
OPEN
  9
$DIMASO
 70
     1
  9
$DIMSHO
 70
     1
  9
$DIMPOST
  1

  9
$DIMAPOST
  1

  9
$DIMALT
 70
     0
  9
$DIMALTD
 70
     2
  9
$DIMALTF
 40
25.3999999999999986
  9
$DIMLFAC
 40
1.0
  9
$DIMTOFL
 70
     1
  9
$DIMTVP
 40
0.0
  9
$DIMTIX
 70
     1
  9
$DIMSOXD
 70
     0
  9
$DIMSAH
 70
     0
  9
$DIMBLK1
  1

  9
$DIMBLK2
  1

  9
$DIMSTYLE
  2
BIGT
  9
$DIMCLRD
 70
   256
  9
$DIMCLRE
 70
   256
  9
$DIMCLRT
 70
    40
  9
$DIMTFAC
 40
1.0
  9
$DIMGAP
 40
1.0
  9
$LUNITS
 70
     2
  9
$LUPREC
 70
     6
  9
$SKETCHINC
 40
1.0
  9
$FILLETRAD
 40
2.0
  9
$AUNITS
 70
     0
  9
$AUPREC
 70
     6
  9
$MENU
  1
.
  9
$ELEVATION
 40
0.0
  9
$PELEVATION
 40
0.0
  9
$THICKNESS
 40
0.0
  9
$LIMCHECK
 70
     0
  9
$BLIPMODE
 70
     0
  9
$CHAMFERA
 40
0.2
  9
$CHAMFERB
 40
0.2
  9
$SKPOLY
 70
     0
  9
$TDCREATE
 40
2457730.4521990739740431
  9
$TDUPDATE
 40
2458290.6279513891786337
  9
$TDINDWG
 40
0.0201833218
  9
$TDUSRTIMER
 40
0.0201832292
  9
$USRTIMER
 70
     1
  9
$ANGBASE
 50
0.0
  9
$ANGDIR
 70
     0
  9
$PDMODE
 70
     1
  9
$PDSIZE
 40
0.0
  9
$PLINEWID
 40
0.0
  9
$COORDS
 70
     1
  9
$SPLFRAME
 70
     0
  9
$SPLINETYPE
 70
     6
  9
$SPLINESEGS
 70
     4
  9
$ATTDIA
 70
     1
  9
$ATTREQ
 70
     1
  9
$HANDLING
 70
     1
  9
$HANDSEED
  5
4681
  9
$SURFTAB1
 70
     6
  9
$SURFTAB2
 70
     6
  9
$SURFTYPE
 70
     6
  9
$SURFU
 70
     6
  9
$SURFV
 70
     6
  9
$UCSNAME
  2

  9
$UCSORG
 10
0.0
 20
0.0
 30
0.0
  9
$UCSXDIR
 10
1.0
 20
0.0
 30
0.0
  9
$UCSYDIR
 10
0.0
 20
1.0
 30
0.0
  9
$PUCSNAME
  2

  9
$PUCSORG
 10
0.0
 20
0.0
 30
0.0
  9
$PUCSXDIR
 10
1.0
 20
0.0
 30
0.0
  9
$PUCSYDIR
 10
0.0
 20
1.0
 30
0.0
  9
$USERI1
 70
     1
  9
$USERI2
 70
     0
  9
$USERI3
 70
     0
  9
$USERI4
 70
     0
  9
$USERI5
 70
     0
  9
$USERR1
 40
0.0
  9
$USERR2
 40
0.0
  9
$USERR3
 40
0.0
  9
$USERR4
 40
0.0
  9
$USERR5
 40
0.0
  9
$WORLDVIEW
 70
     1
  9
$SHADEDGE
 70
     3
  9
$SHADEDIF
 70
    70
  9
$TILEMODE
 70
     1
  9
$MAXACTVP
 70
    16
  9
$PLIMCHECK
 70
     0
  9
$PEXTMIN
 10
1.0000000000000000E+20
 20
1.0000000000000000E+20
 30
1.0000000000000000E+20
  9
$PEXTMAX
 10
-1.0000000000000000E+20
 20
-1.0000000000000000E+20
 30
-1.0000000000000000E+20
  9
$PLIMMIN
 10
0.0
 20
0.0
  9
$PLIMMAX
 10
420.0
 20
297.0
  9
$UNITMODE
 70
     0
  9
$VISRETAIN
 70
     1
  9
$PLINEGEN
 70
     0
  9
$PSLTSCALE
 70
     1
  0
ENDSEC
  0
SECTION
  2
TABLES
  0
TABLE
  2
VPORT
 70
     1
  0
VPORT
  2
*ACTIVE
 70
     0
 10
0.0
 20
0.0
 11
1.0
 21
1.0
 12
57.1611573564256901
 22
13.8560629341557107
 13
0.0
 23
0.0
 14
7.0
 24
7.0
 15
7.0
 25
7.0
 16
0.0
 26
0.0
 36
1.0
 17
0.0
 27
0.0
 37
0.0
 40
232.6578696062611016
 41
1.887387387387387
 42
50.0
 43
0.0
 44
0.0
 50
0.0
 51
0.0
 71
     0
 72
  2000
 73
     1
 74
     0
 75
     0
 76
     1
 77
     0
 78
     0
  0
ENDTAB
  0
TABLE
  2
LTYPE
 70
    22
  0
LTYPE
  2
CONTINUOUS
 70
     0
  3
Solid line
 72
    65
 73
     0
 40
0.0
  0
LTYPE
  2
CENTER2
 70
     0
  3
___ _ ___ _ ___ _ ___ _ ___ _ ___ _ ___ _ ___ _
 72
    65
 73
     4
 40
1.125
 49
0.75
 49
-0.125
 49
0.125
 49
-0.125
  0
LTYPE
  2
HIDDEN2
 70
     0
  3
_ _ _ _ _ _ _ _ _ _ _ _ _ _ _ _ _ _ _ _ _ _ _ _
 72
    65
 73
     2
 40
0.1875
 49
0.125
 49
-0.0625
  0
LTYPE
  2
PHANTOM2
 70
     0
  3
___ _ _ ___ _ _ ___ _ _ ___ _ _ ___ _ _ ___ _ _
 72
    65
 73
     6
 40
1.25
 49
0.625
 49
-0.125
 49
0.125
 49
-0.125
 49
0.125
 49
-0.125
  0
LTYPE
  2
AMCONSTR
 70
     0
  3
_______________________
 72
    65
 73
     2
 40
9999.0
 49
9999.0
 49
0.0
  0
LTYPE
  2
HIDDEN
 70
     0
  3
Hidden __ __ __ __ __ __ __ __ __ __ __ __ __ _
 72
    65
 73
     2
 40
0.375
 49
0.25
 49
-0.125
  0
LTYPE
  2
CENTER
 70
     0
  3
Center ____ _ ____ _ ____ _ ____ _ ____ _ ____
 72
    65
 73
     4
 40
2.0
 49
1.25
 49
-0.25
 49
0.25
 49
-0.25
  0
LTYPE
  2
AMZIGZAG2
 70
     0
  3
/\/-/\/-/\/-/\/-/\/-/\/
 72
    65
 73
     2
 40
0.4401
 49
0.0001
 49
-0.4400000000000001
  0
LTYPE
  2
ACANSTGB
 70
     0
  3
__ . . __ . .
 72
    65
 73
     6
 40
0.35433070866
 49
0.15748031496
 49
-0.03937007874
 49
0.03937007874
 49
-0.03937007874
 49
0.03937007874
 49
-0.03937007874
  0
LTYPE
  2
ACANSTGL
 70
     0
  3
_ _ _ _ _
 72
    65
 73
     2
 40
0.11811023622
 49
0.07874015748
 49
-0.03937007874
  0
ENDTAB
  0
TABLE
  2
LAYER
 70
     9
  0
LAYER
  2
0
 70
     0
 62
     7
  6
CONTINUOUS
  0
LAYER
  2
240
 70
     0
 62
     4
  6
CONTINUOUS
  0
LAYER
  2
DEFPOINTS
 70
     0
 62
     7
  6
CONTINUOUS
  0
LAYER
  2
245
 70
     0
 62
     2
  6
CENTER2
  0
LAYER
  2
241
 70
     0
 62
   211
  6
CONTINUOUS
  0
LAYER
  2
242
 70
     0
 62
     3
  6
CONTINUOUS
  0
LAYER
  2
243
 70
     0
 62
   211
  6
HIDDEN2
  0
LAYER
  2
247
 70
     0
 62
    60
  6
CONTINUOUS
  0
LAYER
  2
250
 70
     0
 62
     3
  6
CONTINUOUS
  0
ENDTAB
  0
TABLE
  2
STYLE
 70
    10
  0
STYLE
  2
STANDARD
 70
     0
 40
0.0
 41
1.0
 50
0.0
 71
     0
 42
3.0
  3
romans.shx
  4
extfont.shx
  0
STYLE
  2
YOKO
 70
     0
 40
0.0
 41
1.0
 50
0.0
 71
     0
 42
3.0
  3
romans.shx
  4
extfont.shx
  0
STYLE
  2

 70
     1
 40
0.0
 41
1.0
 50
0.0
 71
     0
 42
3.0
  3
genltshp.shx
  4

  0
STYLE
  2
ACANSGDT
 70
     0
 40
0.0
 41
1.0
 50
0.0
 71
     0
 42
3.0
  3
amgdt.shx
  4

  0
ENDTAB
  0
TABLE
  2
VIEW
 70
     0
  0
ENDTAB
  0
TABLE
  2
UCS
 70
     0
  0
ENDTAB
  0
TABLE
  2
APPID
 70
    38
  0
APPID
  2
ACAD
 70
     0
  0
APPID
  2
ACADANNOTATIVE
 70
     0
  0
APPID
  2
GLOBAL
 70
     0
  0
APPID
  2
DETAIL
 70
     0
  0
APPID
  2
GRPNAME
 70
     0
  0
APPID
  2
GPARA
 70
     0
  0
APPID
  2
MCAD_NO_VIS
 70
     0
  0
APPID
  2
ACAD_TEMP_GRAPHIC
 70
     0
  0
APPID
  2
ACATTRIBSERVICES
 70
     0
  0
APPID
  2
GENIUS_GENSCREG_15
 70
     0
  0
APPID
  2
GENIUS_GENODEF_13
 70
     0
  0
APPID
  2
GENIUS_GENOBJ-N-SDF_13
 70
     0
  0
APPID
  2
GENIUS_GENREC_14
 70
     0
  0
APPID
  2
GENIUS_GENOBJ-N-REC_13
 70
     0
  0
APPID
  2
GENIUS_GENDIMSH_14
 70
     0
  0
APPID
  2
GENIUS_GENOBJ-N-DIM_13
 70
     0
  0
APPID
  2
GENIUS_GENDIM_13
 70
     0
  0
APPID
  2
GENIUS_GENDTOL_13
 70
     0
  0
APPID
  2
GENIUS_GENOLIS_13
 70
     0
  0
APPID
  2
GENIUS_GENOENT_13
 70
     0
  0
APPID
  2
GENIUS_GENOBJ-F-FEM_13
 70
     0
  0
APPID
  2
GENIUS_GENOREF_13
 70
     0
  0
APPID
  2
GENIUS_GEFFEM_13
 70
     0
  0
APPID
  2
GENIUS_GEFFEMP_13
 70
     0
  0
APPID
  2
AD_DRAW
 70
     0
  0
APPID
  2
DESIGNERASSEMBLIES
 70
     0
  0
APPID
  2
ACADM_DIM_EDIT
 70
     0
  0
APPID
  2
AMDT_DM_ADJ
 70
     0
  0
APPID
  2
ITEMNAME
 70
     0
  0
APPID
  2
GENIUS_GENOBJ-N-FIL_13
 70
     0
  0
APPID
  2
GENIUS_GENFIL_13
 70
     0
  0
APPID
  2
GENIUS_GENOBJ-N-CHA_13
 70
     0
  0
APPID
  2
ACAD_NAV_VCDISPLAY
 70
     0
  0
APPID
  2
ACAD_EXEMPT_FROM_CAD_STANDARDS
 70
     0
  0
APPID
  2
ACAECLAYERSTANDARD
 70
     0
  0
APPID
  2
ACAD_MLEADERVER
 70
     0
  0
APPID
  2
ACAD_DSTYLE_DIMJAG
 70
     0
  0
APPID
  2
ACAD_DSTYLE_DIMBREAK
 70
     0
  0
ENDTAB
  0
TABLE
  2
DIMSTYLE
 70
    31
  0
DIMSTYLE
  2
STANDARD
 70
     0
  3

  4

  5

  6

  7

 40
1.0
 41
0.18
 42
0.0625
 43
0.38
 44
0.18
 45
0.0
 46
0.0
 47
0.0
 48
0.0
140
0.18
141
0.09
142
0.0
143
25.3999999999999986
144
1.0
145
0.0
146
1.0
147
0.09
 71
     0
 72
     0
 73
     1
 74
     1
 75
     0
 76
     0
 77
     0
 78
     0
170
     0
171
     2
172
     0
173
     0
174
     0
175
     0
176
     0
177
     0
178
     0
  0
DIMSTYLE
  2
BIGT
 70
     0
  3

  4

  5

  6

  7

 40
1.0
 41
2.2299999999999991
 42
0.5
 43
7.0
 44
1.0
 45
0.0
 46
0.0
 47
0.0
 48
0.01
140
2.799999999999998
141
0.0
142
0.0
143
25.3999999999999986
144
1.0
145
0.0
146
1.0
147
1.0
 71
     0
 72
     0
 73
     0
 74
     0
 75
     0
 76
     0
 77
     3
 78
     9
170
     0
171
     2
172
     1
173
     0
174
     1
175
     0
176
   256
177
   256
178
    40
  0
DIMSTYLE
  2
AM_ANSI
 70
     0
  3

  4
mm
  5

  6

  7

 40
1.0
 41
0.12
 42
0.05
 43
0.5
 44
0.1
 45
0.0
 46
0.0
 47
0.1
 48
0.1
140
0.12
141
0.0
142
0.0
143
25.3999999999999986
144
1.0
145
0.0
146
0.71
147
0.06
 71
     0
 72
     0
 73
     1
 74
     1
 75
     0
 76
     0
 77
     0
 78
     7
170
     0
171
     2
172
     0
173
     0
174
     0
175
     0
176
   256
177
   256
178
     2
  0
DIMSTYLE
  2
AM_ANSI$3
 70
     0
  3

  4
mm
  5

  6

  7

 40
1.0
 41
0.12
 42
0.05
 43
0.5
 44
0.1
 45
0.0
 46
0.0
 47
0.1
 48
0.1
140
0.12
141
0.0
142
0.0
143
25.3999999999999986
144
1.0
145
0.0
146
0.71
147
0.06
 71
     0
 72
     0
 73
     1
 74
     1
 75
     0
 76
     0
 77
     0
 78
     7
170
     0
171
     2
172
     0
173
     0
174
     0
175
     0
176
   256
177
   256
178
     2
  0
DIMSTYLE
  2
AM_ANSI$4
 70
     0
  3

  4
mm
  5

  6

  7

 40
1.0
 41
0.12
 42
0.05
 43
0.5
 44
0.1
 45
0.0
 46
0.0
 47
0.1
 48
0.1
140
0.12
141
0.0
142
0.0
143
25.3999999999999986
144
1.0
145
0.0
146
0.71
147
0.06
 71
     0
 72
     0
 73
     1
 74
     1
 75
     0
 76
     0
 77
     0
 78
     7
170
     0
171
     2
172
     0
173
     0
174
     0
175
     0
176
   256
177
   256
178
     2
  0
DIMSTYLE
  2
AM_ANSI$7
 70
     0
  3

  4
mm
  5

  6

  7

 40
1.0
 41
0.12
 42
0.05
 43
0.5
 44
0.1
 45
0.0
 46
0.0
 47
0.1
 48
0.1
140
0.12
141
0.0
142
0.0
143
25.3999999999999986
144
1.0
145
0.0
146
0.71
147
0.06
 71
     0
 72
     0
 73
     1
 74
     1
 75
     0
 76
     0
 77
     0
 78
     7
170
     0
171
     2
172
     0
173
     0
174
     0
175
     0
176
   256
177
   256
178
     2
  0
DIMSTYLE
  2
AM_ANSI$SF
 70
     0
  3

  4
mm
  5

  6

  7

 40
1.0
 41
0.12
 42
0.05
 43
0.5
 44
0.1
 45
0.0
 46
0.0
 47
0.1
 48
0.1
140
0.12
141
0.0
142
0.0
143
25.3999999999999986
144
1.0
145
0.0
146
0.71
147
0.06
 71
     0
 72
     0
 73
     1
 74
     1
 75
     1
 76
     1
 77
     0
 78
     7
170
     0
171
     2
172
     0
173
     0
174
     0
175
     0
176
   256
177
   256
178
     2
  0
DIMSTYLE
  2
AM_ANSI$SH
 70
     0
  3

  4
mm
  5

  6
GENAXEH
  7

 40
1.0
 41
0.12
 42
0.05
 43
0.5
 44
0.1
 45
0.0
 46
0.0
 47
0.1
 48
0.1
140
0.12
141
0.0
142
0.0
143
25.3999999999999986
144
1.0
145
0.0
146
0.71
147
0.06
 71
     0
 72
     0
 73
     1
 74
     1
 75
     1
 76
     1
 77
     0
 78
     7
170
     0
171
     2
172
     0
173
     1
174
     0
175
     0
176
   256
177
   256
178
     2
  0
ENDTAB
  0
ENDSEC
  0
SECTION
  2
BLOCKS
  0
BLOCK
  8
0
  2
$MODEL_SPACE
 70
     0
 10
0.0
 20
0.0
 30
0.0
  3
$MODEL_SPACE
  1

  0
ENDBLK
  5
4541
  8
0
  0
BLOCK
 67
     1
  8
0
  2
$PAPER_SPACE
 70
     0
 10
0.0
 20
0.0
 30
0.0
  3
$PAPER_SPACE
  1

  0
ENDBLK
  5
453D
 67
     1
  8
0
  0
BLOCK
  8
0
  2
_OPEN
 70
     0
 10
0.0
 20
0.0
 30
0.0
  3
_OPEN
  1

  0
LINE
  5
43CE
  8
0
  6
BYBLOCK
 62
     0
 10
-1.0
 20
0.1666666666666666
 30
0.0
 11
0.0
 21
0.0
 31
0.0
  0
LINE
  5
43CF
  8
0
  6
BYBLOCK
 62
     0
 10
-1.0
 20
-0.1666666666666666
 30
0.0
 11
0.0
 21
0.0
 31
0.0
  0
LINE
  5
43D0
  8
0
  6
BYBLOCK
 62
     0
 10
0.0
 20
0.0
 30
0.0
 11
-1.0
 21
0.0
 31
0.0
  0
ENDBLK
  5
43D1
  8
0
  0
BLOCK
  8
0
  2
GENAXEH
 70
     0
 10
0.0
 20
0.0
 30
0.0
  3
GENAXEH
  1

  0
LINE
  5
4409
  8
0
 10
-1.0
 20
0.0
 30
0.0
 11
1.0
 21
0.0
 31
0.0
  0
ENDBLK
  5
440A
  8
0
  0
BLOCK
  8
0
  2
_ACMFILLEDHALF
 70
     0
 10
0.0
 20
0.0
 30
0.0
  3
_ACMFILLEDHALF
  1

  0
TRACE
  5
4602
  8
240
 62
     0
 10
-0.8
 20
0.0
 30
0.0
 11
-1.0
 21
0.166666666
 31
0.0
 12
0.0
 22
0.0
 32
0.0
 13
0.0
 23
0.0
 33
0.0
  0
LINE
  5
4603
  8
240
 62
     0
 10
-1.0
 20
0.0
 30
0.0
 11
-0.8
 21
0.0
 31
0.0
  0
ENDBLK
  5
4601
  8
0
  0
ENDSEC
  0
SECTION
  2
ENTITIES
  0
LINE
  5
422C
  8
250
  6
CONTINUOUS
 10
-53.7815698499999826
 20
-37.7910717800000384
 30
0.0
 11
-71.514903180000033
 21
-37.7910717800000384
 31
0.0
1001
ITEMNAME
1000
LNSP2
  0
TEXT
  5
422D
  8
250
  6
CONTINUOUS
 10
-69.2482365133333246
 20
-36.7910717800000384
 30
0.0
 40
2.799999999999998
  1
BBT50
  7
YOKO
1001
ITEMNAME
1000
LNSP3
  0
LINE
  5
422E
  8
250
  6
CONTINUOUS
 10
-49.3674344942253924
 20
-29.4788984012063189
 30
0.0
 11
-48.0787593599999923
 21
-27.9135142599999995
 31
0.0
  0
LINE
  5
422F
  8
250
  6
CONTINUOUS
 10
-48.790084224957063
 20
-29.8122317344034506
 30
0.0
 11
-48.0787593599999923
 21
-27.9135142599999995
 31
0.0
  0
LINE
  5
4230
  8
250
  6
CONTINUOUS
 10
-48.0787593599999923
 20
-27.9135142599999995
 30
0.0
 11
-49.078759359591217
 21
-29.6455650678049096
 31
0.0
  0
LINE
  5
4231
  8
250
  6
CONTINUOUS
 10
-49.078759359591217
 20
-29.6455650678049096
 30
0.0
 11
-53.7815698499999826
 21
-37.7910717800000384
 31
0.0
1001
ACAD
1000
DSTYLE
1002
{
1070
     6
1000
OPEN
1070
    41
1040
2.0
1070
   343
1005
0
1002
}
  0
LINE
  5
4232
  8
240
  6
CONTINUOUS
 10
0.0
 20
-34.9250000000000114
 30
0.0
 11
-101.7999999999999972
 21
-20.0791666651884384
 31
0.0
  0
LINE
  5
4233
  8
240
  6
CONTINUOUS
 10
0.0
 20
34.9250000000000114
 30
0.0
 11
-101.7999999999999972
 21
20.0791666651884384
 31
0.0
  0
LINE
  5
4234
  8
245
  6
CENTER2
 10
-102.7999999999999972
 20
0.0
 30
0.0
 11
103.4070651444805975
 21
0.0
 31
0.0
  0
LINE
  5
4235
  8
240
  6
CONTINUOUS
 10
-101.7999999999999972
 20
20.0791666651884384
 30
0.0
 11
-101.7999999999999972
 21
-20.0791666651884384
 31
0.0
  0
LINE
  5
4236
  8
240
  6
CONTINUOUS
 10
38.0
 20
-50.0
 30
0.0
 11
37.9999999999999432
 21
-20.5000000000000107
 31
0.0
  0
LINE
  5
4237
  8
241
  6
CONTINUOUS
 10
30.7000000000000597
 20
-50.0
 30
0.0
 11
30.7000000000000597
 21
50.0000000000000711
 31
0.0
  0
LINE
  5
4238
  8
241
  6
CONTINUOUS
 10
26.3698729800000784
 20
-42.5
 30
0.0
 11
26.3698729799999683
 21
42.4999999999999218
 31
0.0
  0
LINE
  5
4239
  8
241
  6
CONTINUOUS
 10
20.030127020000009
 20
-42.5
 30
0.0
 11
20.030127020000009
 21
42.4999999999999218
 31
0.0
  0
LINE
  5
423A
  8
241
  6
CONTINUOUS
 10
15.7000000000000401
 20
-50.0
 30
0.0
 11
15.7000000000000401
 21
50.0000000000000711
 31
0.0
  0
LINE
  5
423B
  8
243
  6
HIDDEN2
 10
34.0
 20
-35.3999999999999773
 30
0.0
 11
34.0
 21
-50.0
 31
0.0
  0
LINE
  5
423C
  8
240
  6
CONTINUOUS
 10
1.5
 20
-50.0
 30
0.0
 11
1.5
 21
-34.9250000000000114
 31
0.0
  0
LINE
  5
423D
  8
240
  6
CONTINUOUS
 10
38.0000000000000924
 20
-50.0
 30
0.0
 11
30.7000000000000597
 21
-50.0
 31
0.0
  0
LINE
  5
423E
  8
240
  6
CONTINUOUS
 10
1.5
 20
-50.0
 30
0.0
 11
15.7000000000000401
 21
-50.0
 31
0.0
  0
LINE
  5
423F
  8
240
  6
CONTINUOUS
 10
26.3698729800000784
 20
-42.5
 30
0.0
 11
20.030127020000009
 21
-42.5
 31
0.0
  0
LINE
  5
4240
  8
240
  6
CONTINUOUS
 10
20.030127020000009
 20
-42.5
 30
0.0
 11
15.7000000000000401
 21
-50.0
 31
0.0
  0
LINE
  5
4241
  8
240
  6
CONTINUOUS
 10
26.3698729800000784
 20
-42.5
 30
0.0
 11
30.7000000000000597
 21
-50.0
 31
0.0
  0
LINE
  5
4242
  8
241
  6
CONTINUOUS
 10
0.0
 20
-34.9250000000000114
 30
0.0
 11
0.0
 21
34.9250000000000114
 31
0.0
  0
LINE
  5
4243
  8
241
  6
CONTINUOUS
 10
1.5
 20
-34.9250000000000114
 30
0.0
 11
1.5
 21
34.9250000000000114
 31
0.0
  0
LINE
  5
4244
  8
243
  6
HIDDEN2
 10
1.5
 20
-35.3999999999999773
 30
0.0
 11
34.0
 21
-35.3999999999999773
 31
0.0
  0
LINE
  5
4245
  8
240
  6
CONTINUOUS
 10
0.0
 20
-34.9250000000000114
 30
0.0
 11
1.5
 21
-34.9250000000000114
 31
0.0
  0
LINE
  5
4246
  8
240
  6
CONTINUOUS
 10
30.7000000000000597
 20
50.0
 30
0.0
 11
37.9999999999997797
 21
50.0
 31
0.0
  0
LINE
  5
4247
  8
243
  6
HIDDEN2
 10
34.0
 20
35.3999999999999773
 30
0.0
 11
34.0
 21
50.0
 31
0.0
  0
LINE
  5
4248
  8
240
  6
CONTINUOUS
 10
1.5
 20
50.0000000000000711
 30
0.0
 11
1.5
 21
34.9250000000000114
 31
0.0
  0
LINE
  5
4249
  8
243
  6
HIDDEN2
 10
34.0
 20
35.3999999999999773
 30
0.0
 11
1.5
 21
35.3999999999999773
 31
0.0
  0
LINE
  5
424A
  8
240
  6
CONTINUOUS
 10
0.0
 20
34.9250000000000114
 30
0.0
 11
1.5
 21
34.9250000000000114
 31
0.0
  0
LINE
  5
424B
  8
240
  6
CONTINUOUS
 10
15.7000000000000401
 20
50.0
 30
0.0
 11
1.5
 21
50.0
 31
0.0
  0
LINE
  5
424C
  8
240
  6
CONTINUOUS
 10
26.3698729800000784
 20
42.5
 30
0.0
 11
20.030127020000009
 21
42.5
 31
0.0
  0
LINE
  5
424D
  8
240
  6
CONTINUOUS
 10
20.030127020000009
 20
42.5
 30
0.0
 11
15.7000000000000401
 21
50.0
 31
0.0
  0
LINE
  5
424E
  8
240
  6
CONTINUOUS
 10
26.3698729800000784
 20
42.5
 30
0.0
 11
30.7000000000000597
 21
50.0
 31
0.0
  0
LINE
  5
424F
  8
247
  6
CONTINUOUS
 10
10.5
 20
-26.2500000000700418
 30
0.0
 11
10.5
 21
-19.5576923080300311
 31
0.0
  0
ARC
  5
4250
  8
247
  6
CONTINUOUS
 10
8.7500000000700311
 20
-26.2500000000700418
 30
0.0
 40
1.7499999999299991
 50
180.0
 51
0.0
  0
ARC
  5
4251
  8
247
  6
CONTINUOUS
 10
8.7500000000700311
 20
-19.5576923080300311
 30
0.0
 40
1.7499999999299991
 50
0.0
 51
180.0
  0
LINE
  5
4252
  8
247
  6
CONTINUOUS
 10
7.0000000001400622
 20
-25.3846153847200107
 30
0.0
 11
10.0000000000200107
 21
-26.2448515419620207
 31
0.0
  0
LINE
  5
4253
  8
247
  6
CONTINUOUS
 10
8.4230769231600071
 20
-24.4849838183358202
 30
0.0
 11
8.4230769231600071
 21
-25.7926761259758486
 31
0.0
  0
ARC
  5
4254
  8
247
  6
CONTINUOUS
 10
7.5495986677029769
 20
-24.1451438160897887
 30
0.0
 40
0.5538165441895349
 50
72.9978896752953403
 51
172.9241662185135908
  0
ARC
  5
4255
  8
247
  6
CONTINUOUS
 10
7.4360330444658302
 20
-24.5668783230287886
 30
0.0
 40
0.9904354236226808
 50
4.7429368522022122
 51
73.8492262732665381
1001
GENIUS_GENOBJ-N-FIL_13
1002
{
1000
OWNER
1000
GEN
1002
}
1001
GENIUS_GENODEF_13
1002
{
1000
HIER
1070
     0
1002
}
1002
{
1000
MANEDIT
1070
     0
1002
}
1002
{
1000
NOSEL
1070
     0
1002
}
1002
{
1000
BEHIND
1070
     0
1002
}
1002
{
1000
OTHER
1070
     0
1002
}
1002
{
1000
REACTOR
1002
}
  0
LINE
  5
4256
  8
247
  6
CONTINUOUS
 10
10.0000000000200107
 20
-24.9371592343219994
 30
0.0
 11
10.0000000000200107
 21
-26.2448515419620207
 31
0.0
  0
LINE
  5
4257
  8
247
  6
CONTINUOUS
 10
7.0000000001400622
 20
-25.3846153847200107
 30
0.0
 11
7.0000000001400622
 21
-24.0769230770799894
 31
0.0
  0
ARC
  5
4258
  8
247
  6
CONTINUOUS
 10
8.9820242326655944
 20
-24.5609196365469415
 30
0.0
 40
0.5640818586791229
 50
65.990941652528889
 51
172.2634434590690944
  0
ARC
  5
4259
  8
247
  6
CONTINUOUS
 10
8.9874290391866225
 20
-25.0382626853470889
 30
0.0
 40
1.0176059446230981
 50
5.7019851642564632
 51
77.2773384368221912
1001
GENIUS_GENOBJ-N-FIL_13
1002
{
1000
OWNER
1000
GEN
1002
}
1001
GENIUS_GENODEF_13
1002
{
1000
HIER
1070
     0
1002
}
1002
{
1000
MANEDIT
1070
     0
1002
}
1002
{
1000
NOSEL
1070
     0
1002
}
1002
{
1000
BEHIND
1070
     0
1002
}
1002
{
1000
OTHER
1070
     0
1002
}
1002
{
1000
REACTOR
1002
}
  0
LINE
  5
425A
  8
247
  6
CONTINUOUS
 10
10.0000000000200107
 20
-23.2833130805420296
 30
0.0
 11
7.0000000001400622
 21
-22.4230769233000196
 31
0.0
  0
LINE
  5
425B
  8
247
  6
CONTINUOUS
 10
7.0000000001400622
 20
-20.0000000003199716
 30
0.0
 11
7.0000000001400622
 21
-20.5657366194565689
 31
0.0
  0
LINE
  5
425C
  8
247
  6
CONTINUOUS
 10
10.0000000000200107
 20
-21.4615384617999894
 30
0.0
 11
10.0000000000200107
 21
-20.8461538464400213
 31
0.0
  0
ARC
  5
425D
  8
247
  6
CONTINUOUS
 10
9.0832851359733677
 20
-19.708791209122861
 30
0.0
 40
2.2526500823422122
 50
202.359488141525901
 51
254.9932485428460893
  0
ARC
  5
425E
  8
247
  6
CONTINUOUS
 10
7.8083126551945261
 20
-20.3740694792132295
 30
0.0
 40
0.8906723995727782
 50
94.9945893190753736
 51
155.1663289573039037
1001
GENIUS_GENOBJ-N-FIL_13
1002
{
1000
OWNER
1000
GEN
1002
}
1001
GENIUS_GENODEF_13
1002
{
1000
HIER
1070
     0
1002
}
1002
{
1000
MANEDIT
1070
     0
1002
}
1002
{
1000
NOSEL
1070
     0
1002
}
1002
{
1000
BEHIND
1070
     0
1002
}
1002
{
1000
OTHER
1070
     0
1002
}
1002
{
1000
REACTOR
1002
}
  0
ARC
  5
425F
  8
247
  6
CONTINUOUS
 10
8.6601458886677847
 20
-21.2264588862125798
 30
0.0
 40
1.392781735586712
 50
15.8460965557808002
 51
82.3251370041690649
  0
ARC
  5
4260
  8
247
  6
CONTINUOUS
 10
8.9592434315272822
 20
-20.6422127258403485
 30
0.0
 40
1.324563662670287
 50
249.7136016704968995
 51
321.7887456564068884
1001
GENIUS_GENOBJ-N-FIL_13
1002
{
1000
OWNER
1000
GEN
1002
}
1001
GENIUS_GENODEF_13
1002
{
1000
HIER
1070
     0
1002
}
1002
{
1000
MANEDIT
1070
     0
1002
}
1002
{
1000
NOSEL
1070
     0
1002
}
1002
{
1000
BEHIND
1070
     0
1002
}
1002
{
1000
OTHER
1070
     0
1002
}
1002
{
1000
REACTOR
1002
}
  0
LINE
  5
4261
  8
247
  6
CONTINUOUS
 10
8.8461538462199751
 20
-20.5384615387599787
 30
0.0
 11
8.8461538462199751
 21
-19.8461538464799609
 31
0.0
  0
LINE
  5
4262
  8
247
  6
CONTINUOUS
 10
7.0000000001400018
 20
-26.2500000000700418
 30
0.0
 11
7.0000000001400018
 21
-25.5769230770200693
 31
0.0
  0
ARC
  5
4275
  8
240
  6
CONTINUOUS
 10
43.0
 20
-20.5
 30
0.0
 40
5.0
 50
90.0
 51
180.0
  0
ARC
  5
4276
  8
240
  6
CONTINUOUS
 10
43.0
 20
20.5
 30
0.0
 40
5.0
 50
180.0
 51
270.0
  0
LINE
  5
4277
  8
240
  6
CONTINUOUS
 10
102.0
 20
-9.5
 30
0.0
 11
102.0
 21
9.5
 31
0.0
1001
GRPNAME
1000
PASTMD01
  0
LINE
  5
4278
  8
240
  6
CONTINUOUS
 10
102.0
 20
-9.5
 30
0.0
 11
61.8284271247462485
 21
-9.5
 31
0.0
1001
GRPNAME
1000
PASTMD01
  0
LINE
  5
4279
  8
240
  6
CONTINUOUS
 10
43.0
 20
-15.5
 30
0.0
 11
55.0
 21
-15.5000000000000302
 31
0.0
  0
LINE
  5
427A
  8
240
  6
CONTINUOUS
 10
55.0
 20
-15.5000000000000302
 30
0.0
 11
60.414213562373142
 21
-10.0857864376269006
 31
0.0
  0
LINE
  5
427B
  8
240
  6
CONTINUOUS
 10
102.0
 20
9.5
 30
0.0
 11
61.8284271247461703
 21
9.5
 31
0.0
1001
GRPNAME
1000
PASTMD01
  0
LINE
  5
427C
  8
240
  6
CONTINUOUS
 10
43.0
 20
15.5
 30
0.0
 11
54.9999999999999716
 21
15.5
 31
0.0
  0
LINE
  5
427D
  8
240
  6
CONTINUOUS
 10
60.4142135623730567
 20
10.0857864376269006
 30
0.0
 11
54.9999999999999716
 21
15.5
 31
0.0
  0
LINE
  5
427E
  8
243
  6
HIDDEN2
 10
102.0
 20
5.5
 30
0.0
 11
87.9500000000000313
 21
5.5
 31
0.0
1001
GRPNAME
1000
PASTMD01
  0
ARC
  5
4280
  8
240
  6
CONTINUOUS
 10
61.8284271247461703
 20
11.5
 30
0.0
 40
2.0
 50
225.0
 51
270.0
1001
GRPNAME
1000
PASTMD01
1001
GENIUS_GENOBJ-N-FIL_13
1002
{
1000
OWNER
1000
GEN
1002
}
1001
GENIUS_GENODEF_13
1002
{
1000
HIER
1070
     0
1002
}
1002
{
1000
MANEDIT
1070
     0
1002
}
1002
{
1000
NOSEL
1070
     0
1002
}
1002
{
1000
BEHIND
1070
     0
1002
}
1002
{
1000
OTHER
1070
     0
1002
}
1002
{
1000
REACTOR
1002
}
  0
ARC
  5
4282
  8
240
  6
CONTINUOUS
 10
61.8284271247462485
 20
-11.5
 30
0.0
 40
2.0
 50
90.0
 51
134.999999999999801
1001
GENIUS_GENOBJ-N-FIL_13
1002
{
1000
OWNER
1000
GEN
1002
}
1001
GENIUS_GENODEF_13
1002
{
1000
HIER
1070
     0
1002
}
1002
{
1000
MANEDIT
1070
     0
1002
}
1002
{
1000
NOSEL
1070
     0
1002
}
1002
{
1000
BEHIND
1070
     0
1002
}
1002
{
1000
OTHER
1070
     0
1002
}
1002
{
1000
REACTOR
1002
}
  0
LINE
  5
4283
  8
240
  6
CONTINUOUS
 10
37.9999999999998508
 20
20.4999999999999893
 30
0.0
 11
37.9999999999997797
 21
50.0
 31
0.0
  0
LINE
  5
428B
  8
241
  6
CONTINUOUS
 10
55.0
 20
-15.5000000000000302
 30
0.0
 11
55.0
 21
15.4999999999999698
 31
0.0
  0
LINE
  5
428C
  8
241
  6
CONTINUOUS
 10
37.9999999999999432
 20
-20.5000000000000107
 30
0.0
 11
38.0
 21
20.5
 31
0.0
  0
LINE
  5
428D
  8
241
  6
CONTINUOUS
 10
60.9999999999999574
 20
9.5
 30
0.0
 11
61.0000000000000568
 21
-9.5
 31
0.0
  0
LINE
  5
428E
  8
243
  6
HIDDEN2
 10
102.0
 20
-5.5
 30
0.0
 11
87.9500000000000313
 21
-5.5000000000000009
 31
0.0
1001
GRPNAME
1000
PASTMD01
  0
TEXT
  5
42B1
  8
241
  6
CONTINUOUS
 10
-101.7999999999999972
 20
77.0
 30
0.0
 40
5.0
  1
BBT50-CKB1-102
  7
YOKO
 11
-101.7999999999999972
 21
77.0
 31
0.0
 73
     1
  0
LINE
  5
42B2
  8
250
  6
CONTINUOUS
 10
102.5
 20
-9.5
 30
0.0
 11
113.0
 21
-9.5
 31
0.0
  0
LINE
  5
42B3
  8
250
  6
CONTINUOUS
 10
102.5
 20
9.5
 30
0.0
 11
113.0
 21
9.5
 31
0.0
  0
LINE
  5
42B4
  8
250
  6
CONTINUOUS
 10
112.0
 20
-7.2699999999999978
 30
0.0
 11
112.0
 21
7.2699999999999978
 31
0.0
  0
LINE
  5
42B5
  8
250
  6
CONTINUOUS
 10
112.3716666666665986
 20
-7.2699999999999978
 30
0.0
 11
112.0
 21
-9.5
 31
0.0
  0
LINE
  5
42B6
  8
250
  6
CONTINUOUS
 10
111.6283333333333019
 20
-7.2699999999999978
 30
0.0
 11
112.0
 21
-9.5
 31
0.0
  0
LINE
  5
42B7
  8
250
  6
CONTINUOUS
 10
112.0
 20
-9.5
 30
0.0
 11
112.0
 21
-7.2699999999999978
 31
0.0
  0
LINE
  5
42B8
  8
250
  6
CONTINUOUS
 10
111.6283333333333019
 20
7.2699999999999978
 30
0.0
 11
112.0
 21
9.5
 31
0.0
  0
LINE
  5
42B9
  8
250
  6
CONTINUOUS
 10
112.3716666666665986
 20
7.2699999999999978
 30
0.0
 11
112.0
 21
9.5
 31
0.0
  0
LINE
  5
42BA
  8
250
  6
CONTINUOUS
 10
112.0
 20
9.5
 30
0.0
 11
112.0
 21
7.2699999999999978
 31
0.0
  0
TEXT
  5
42BB
  8
250
  6
CONTINUOUS
 10
111.0
 20
-3.8666666666666649
 30
0.0
 40
2.799999999999998
  1
\U+220519
 50
90.0
1001
ACAD
1000
MTEXTBEGIN
1070
    73
1070
     1
1070
    44
1040
1.0
1070
    74
1070
     0
1000
MTEXTEND
  0
LINE
  5
42BC
  8
250
  6
CONTINUOUS
 10
99.1133429352869939
 20
11.0653841403323696
 30
0.0
 11
97.8246678000000003
 21
9.5
 31
0.0
  0
LINE
  5
42BD
  8
250
  6
CONTINUOUS
 10
98.5359926662447805
 20
11.3987174739209998
 30
0.0
 11
97.8246678000000003
 21
9.5
 31
0.0
  0
LINE
  5
42BE
  8
250
  6
CONTINUOUS
 10
97.8246678000000003
 20
9.5
 30
0.0
 11
98.8246678007658943
 21
11.23205080712669
 31
0.0
  0
POLYLINE
  5
42BF
  8
250
  6
CONTINUOUS
 66
     1
 10
0.0
 20
0.0
 30
0.0
1001
ACAD
1000
DSTYLE
1002
{
1070
     6
1000
OPEN
1070
    41
1040
2.0
1070
    42
1040
2.0
1070
    44
1040
2.0
1070
    79
1070
     2
1070
   140
1040
4.0
1070
   179
1070
     3
1070
   343
1005
594
1070
   371
1070
    -1
1070
   372
1070
    -1
1002
}
  0
VERTEX
  5
44C7
  8
250
  6
CONTINUOUS
 10
98.8246678007658943
 20
11.23205080712669
 30
0.0
  0
VERTEX
  5
44C8
  8
250
  6
CONTINUOUS
 10
104.7158550099999985
 20
21.4358863600000014
 30
0.0
  0
SEQEND
  5
44C9
  8
250
  6
CONTINUOUS
  0
TEXT
  5
42C0
  8
250
  6
CONTINUOUS
 10
107.1158550100000042
 20
22.4358863600000014
 30
0.0
 40
2.799999999999998
  1
CK1
  7
YOKO
1001
ITEMNAME
1000
LNSP3
1001
ACAD
1000
MTEXTBEGIN
1070
    73
1070
     1
1070
    44
1040
1.0
1070
    74
1070
     0
1000
MTEXTEND
1000
MTEXTBEGIN
1070
    73
1070
     1
1070
    44
1040
1.0
1070
    74
1070
     0
1000
MTEXTEND
  0
LINE
  5
42C1
  8
250
  6
CONTINUOUS
 10
104.7158550099999985
 20
21.4358863600000014
 30
0.0
 11
116.982521669999997
 21
21.4358863600000014
 31
0.0
1001
ITEMNAME
1000
LNSP2
  0
LINE
  5
42C2
  8
250
  6
CONTINUOUS
 10
0.0
 20
35.4249999999999972
 30
0.0
 11
0.0
 21
64.0
 31
0.0
  0
LINE
  5
42C3
  8
250
  6
CONTINUOUS
 10
102.0
 20
10.0
 30
0.0
 11
102.0
 21
64.0
 31
0.0
  0
LINE
  5
42C4
  8
250
  6
CONTINUOUS
 10
2.2299999999999991
 20
63.0
 30
0.0
 11
99.769999999999996
 21
63.0
 31
0.0
  0
LINE
  5
42C5
  8
250
  6
CONTINUOUS
 10
2.2299999999999991
 20
62.6283333333333303
 30
0.0
 11
0.0
 21
63.0
 31
0.0
  0
LINE
  5
42C6
  8
250
  6
CONTINUOUS
 10
2.2299999999999991
 20
63.3716666666666697
 30
0.0
 11
0.0
 21
63.0
 31
0.0
  0
LINE
  5
42C7
  8
250
  6
CONTINUOUS
 10
0.0
 20
63.0
 30
0.0
 11
2.2299999999999991
 21
63.0
 31
0.0
  0
LINE
  5
42C8
  8
250
  6
CONTINUOUS
 10
99.769999999999996
 20
63.3716666666666697
 30
0.0
 11
102.0
 21
63.0
 31
0.0
  0
LINE
  5
42C9
  8
250
  6
CONTINUOUS
 10
99.769999999999996
 20
62.6283333333333303
 30
0.0
 11
102.0
 21
63.0
 31
0.0
  0
LINE
  5
42CA
  8
250
  6
CONTINUOUS
 10
102.0
 20
63.0
 30
0.0
 11
99.769999999999996
 21
63.0
 31
0.0
  0
TEXT
  5
42CB
  8
250
  6
CONTINUOUS
 10
49.9341137800000112
 20
64.0000000000000142
 30
0.0
 40
2.799999999999998
  1
102
1001
ACAD
1000
MTEXTBEGIN
1070
    73
1070
     1
1070
    44
1040
1.0
1070
    74
1070
     0
1000
MTEXTEND
  0
CIRCLE
  5
42D7
  8
241
  6
CONTINUOUS
 10
97.0
 20
0.0
 30
0.0
 40
2.1000000000000001
  0
CIRCLE
  5
42D8
  8
242
  6
CONTINUOUS
 10
97.0
 20
0.0
 30
0.0
 40
1.75
  0
POLYLINE
  5
42D9
  8
241
  6
CONTINUOUS
 66
     1
 10
0.0
 20
0.0
 30
0.0
 70
     1
  0
VERTEX
  5
44CA
  8
241
  6
CONTINUOUS
 10
96.0
 20
-0.5773502700000001
 30
0.0
  0
VERTEX
  5
44CB
  8
241
  6
CONTINUOUS
 10
97.0
 20
-1.1547005400000001
 30
0.0
  0
VERTEX
  5
44CC
  8
241
  6
CONTINUOUS
 10
98.0
 20
-0.5773502700000001
 30
0.0
  0
VERTEX
  5
44CD
  8
241
  6
CONTINUOUS
 10
98.0
 20
0.5773502700000001
 30
0.0
  0
VERTEX
  5
44CE
  8
241
  6
CONTINUOUS
 10
97.0
 20
1.1547005400000001
 30
0.0
  0
VERTEX
  5
44CF
  8
241
  6
CONTINUOUS
 10
96.0
 20
0.5773502700000001
 30
0.0
  0
SEQEND
  5
44D0
  8
241
  6
CONTINUOUS
  0
LINE
  5
42DA
  8
245
  6
CENTER2
 10
97.0
 20
3.1000000000000001
 30
0.0
 11
97.0
 21
-3.1000000000000001
 31
0.0
  0
VIEWPORT
  5
22
 67
     1
  8
0
 10
261.517699115044195
 20
148.5
 30
0.0
 40
523.0353982300885036
 41
297.0
 68
     1
 69
     1
1001
ACAD
1000
MVIEW
1002
{
1070
    16
1010
0.0
1020
0.0
1030
0.0
1010
0.0
1020
0.0
1030
1.0
1040
0.0
1040
297.0
1040
261.517699115044195
1040
148.5
1040
50.0
1040
0.0
1040
0.0
1070
     0
1070
   100
1070
     1
1070
     1
1070
     0
1070
     0
1070
     0
1070
     0
1040
0.0
1040
0.0
1040
0.0
1040
1.0
1040
1.0
1040
10.0
1040
10.0
1070
     0
1002
{
1002
}
1002
}
1001
GENIUS_GENODEF_13
1002
{
1000
HIER
1070
     0
1002
}
1002
{
1000
MANEDIT
1070
     0
1002
}
1002
{
1000
NOSEL
1070
     0
1002
}
1002
{
1000
BEHIND
1070
     0
1002
}
1002
{
1000
OTHER
1070
     0
1002
}
1002
{
1000
REACTOR
1002
}
1001
GENIUS_GENOBJ-N-SDF_13
1002
{
1000
OWNER
1000
GEN
1002
}
1001
GENIUS_GENSCREG_15
1000
PF
1040
1.0
1000
DF
1040
1.0
1000
MIN
1011
0.0
1021
0.0
1031
0.0
1021
0.0
1031
0.0
1000
MAX
1011
523.0353982300885036
1021
0.0
1031
0.0
1021
297.0
1031
0.0
1000
FLAGS
1070
     4
  0
ENDSEC
  0
EOF
