  0
SECTION
  2
HEADER
  9
$ACADVER
  1
AC1009
  9
$INSBASE
 10
0.0
 20
0.0
 30
0.0
  9
$EXTMIN
 10
-67.450703158701145
 20
-36.000000000014261
 30
0.0
  9
$EXTMAX
 10
106.0
 20
68.0
 30
0.0
  9
$LIMMIN
 10
0.0
 20
0.0
  9
$LIMMAX
 10
297.0
 20
210.0
  9
$ORTHOMODE
 70
     0
  9
$REGENMODE
 70
     1
  9
$FILLMODE
 70
     1
  9
$QTEXTMODE
 70
     0
  9
$MIRRTEXT
 70
     1
  9
$DRAGMODE
 70
     2
  9
$LTSCALE
 40
10.0
  9
$OSMODE
 70
    63
  9
$ATTMODE
 70
     1
  9
$TEXTSIZE
 40
3.0
  9
$TRACEWID
 40
1.0
  9
$TEXTSTYLE
  7
YOKO
  9
$CLAYER
  8
240
  9
$CELTYPE
  6
BYLAYER
  9
$CECOLOR
 62
   256
  9
$DIMSCALE
 40
1.0
  9
$DIMASZ
 40
2.2299999999999991
  9
$DIMEXO
 40
0.5
  9
$DIMDLI
 40
7.0
  9
$DIMRND
 40
0.0
  9
$DIMDLE
 40
0.0
  9
$DIMEXE
 40
1.0
  9
$DIMTP
 40
0.0
  9
$DIMTM
 40
0.01
  9
$DIMTXT
 40
2.7999999999999989
  9
$DIMCEN
 40
0.0
  9
$DIMTSZ
 40
0.0
  9
$DIMTOL
 70
     0
  9
$DIMLIM
 70
     0
  9
$DIMTIH
 70
     0
  9
$DIMTOH
 70
     0
  9
$DIMSE1
 70
     0
  9
$DIMSE2
 70
     0
  9
$DIMTAD
 70
     3
  9
$DIMZIN
 70
     9
  9
$DIMBLK
  1
OPEN
  9
$DIMASO
 70
     1
  9
$DIMSHO
 70
     1
  9
$DIMPOST
  1

  9
$DIMAPOST
  1

  9
$DIMALT
 70
     0
  9
$DIMALTD
 70
     2
  9
$DIMALTF
 40
25.399999999999999
  9
$DIMLFAC
 40
1.0
  9
$DIMTOFL
 70
     1
  9
$DIMTVP
 40
0.0
  9
$DIMTIX
 70
     1
  9
$DIMSOXD
 70
     0
  9
$DIMSAH
 70
     0
  9
$DIMBLK1
  1

  9
$DIMBLK2
  1

  9
$DIMSTYLE
  2
BIGT
  9
$DIMCLRD
 70
   256
  9
$DIMCLRE
 70
   256
  9
$DIMCLRT
 70
    40
  9
$DIMTFAC
 40
1.0
  9
$DIMGAP
 40
1.0
  9
$LUNITS
 70
     2
  9
$LUPREC
 70
     6
  9
$SKETCHINC
 40
1.0
  9
$FILLETRAD
 40
0.0
  9
$AUNITS
 70
     0
  9
$AUPREC
 70
     6
  9
$MENU
  1
.
  9
$ELEVATION
 40
0.0
  9
$PELEVATION
 40
0.0
  9
$THICKNESS
 40
0.0
  9
$LIMCHECK
 70
     0
  9
$BLIPMODE
 70
     0
  9
$CHAMFERA
 40
0.2
  9
$CHAMFERB
 40
0.2
  9
$SKPOLY
 70
     0
  9
$TDCREATE
 40
2457241.6681904979
  9
$TDUPDATE
 40
2457242.3795211231
  9
$TDINDWG
 40
0.0174658912
  9
$TDUSRTIMER
 40
0.0174658565
  9
$USRTIMER
 70
     1
  9
$ANGBASE
 50
0.0
  9
$ANGDIR
 70
     0
  9
$PDMODE
 70
     1
  9
$PDSIZE
 40
0.0
  9
$PLINEWID
 40
0.0
  9
$COORDS
 70
     1
  9
$SPLFRAME
 70
     0
  9
$SPLINETYPE
 70
     6
  9
$SPLINESEGS
 70
     4
  9
$ATTDIA
 70
     1
  9
$ATTREQ
 70
     1
  9
$HANDLING
 70
     1
  9
$HANDSEED
  5
49DC
  9
$SURFTAB1
 70
     6
  9
$SURFTAB2
 70
     6
  9
$SURFTYPE
 70
     6
  9
$SURFU
 70
     6
  9
$SURFV
 70
     6
  9
$UCSNAME
  2

  9
$UCSORG
 10
0.0
 20
0.0
 30
0.0
  9
$UCSXDIR
 10
1.0
 20
0.0
 30
0.0
  9
$UCSYDIR
 10
0.0
 20
1.0
 30
0.0
  9
$PUCSNAME
  2

  9
$PUCSORG
 10
0.0
 20
0.0
 30
0.0
  9
$PUCSXDIR
 10
1.0
 20
0.0
 30
0.0
  9
$PUCSYDIR
 10
0.0
 20
1.0
 30
0.0
  9
$USERI1
 70
     1
  9
$USERI2
 70
     0
  9
$USERI3
 70
     0
  9
$USERI4
 70
     0
  9
$USERI5
 70
     0
  9
$USERR1
 40
0.0
  9
$USERR2
 40
0.0
  9
$USERR3
 40
0.0
  9
$USERR4
 40
0.0
  9
$USERR5
 40
0.0
  9
$WORLDVIEW
 70
     1
  9
$SHADEDGE
 70
     3
  9
$SHADEDIF
 70
    70
  9
$TILEMODE
 70
     1
  9
$MAXACTVP
 70
    16
  9
$PLIMCHECK
 70
     0
  9
$PEXTMIN
 10
1.0000000000000000E+020
 20
1.0000000000000000E+020
 30
1.0000000000000000E+020
  9
$PEXTMAX
 10
-1.0000000000000000E+020
 20
-1.0000000000000000E+020
 30
-1.0000000000000000E+020
  9
$PLIMMIN
 10
0.0
 20
0.0
  9
$PLIMMAX
 10
420.0
 20
297.0
  9
$UNITMODE
 70
     0
  9
$VISRETAIN
 70
     1
  9
$PLINEGEN
 70
     0
  9
$PSLTSCALE
 70
     1
  0
ENDSEC
  0
SECTION
  2
TABLES
  0
TABLE
  2
VPORT
 70
     1
  0
VPORT
  2
*ACTIVE
 70
     0
 10
0.0
 20
0.0
 11
1.0
 21
1.0
 12
19.274002616263431
 22
25.3347350258734
 13
0.0
 23
0.0
 14
7.0
 24
7.0
 15
7.0
 25
7.0
 16
0.0
 26
0.0
 36
1.0
 17
0.0
 27
0.0
 37
0.0
 40
123.40360909746801
 41
1.4355016538037479
 42
50.0
 43
0.0
 44
0.0
 50
0.0
 51
0.0
 71
     0
 72
  2000
 73
     1
 74
     0
 75
     0
 76
     1
 77
     0
 78
     0
  0
ENDTAB
  0
TABLE
  2
LTYPE
 70
    13
  0
LTYPE
  2
CONTINUOUS
 70
     0
  3
Solid line
 72
    65
 73
     0
 40
0.0
  0
LTYPE
  2
CENTER2
 70
     0
  3
___ _ ___ _ ___ _ ___ _ ___ _ ___ _ ___ _ ___ _
 72
    65
 73
     4
 40
1.125
 49
0.75
 49
-0.125
 49
0.125
 49
-0.125
  0
LTYPE
  2
HIDDEN2
 70
     0
  3
_ _ _ _ _ _ _ _ _ _ _ _ _ _ _ _ _ _ _ _ _ _ _ _
 72
    65
 73
     2
 40
0.1875
 49
0.125
 49
-0.0625
  0
LTYPE
  2
PHANTOM2
 70
     0
  3
___ _ _ ___ _ _ ___ _ _ ___ _ _ ___ _ _ ___ _ _
 72
    65
 73
     6
 40
1.25
 49
0.625
 49
-0.125
 49
0.125
 49
-0.125
 49
0.125
 49
-0.125
  0
LTYPE
  2
AM_ISO02W050
 70
     0
  3
__ __ __ __ __ __ __ __ __ __ __ __ __ __ __
 72
    65
 73
     2
 40
7.5
 49
6.0
 49
-1.5
  0
LTYPE
  2
AMCONSTR
 70
     0
  3
_______________________
 72
    65
 73
     2
 40
9999.0
 49
9999.0
 49
0.0
  0
LTYPE
  2
ACISOWELD
 70
     0
  3
_ _ _ _ _
 72
    65
 73
     2
 40
2.0
 49
2.0
 49
-1.0
  0
LTYPE
  2
ACISOTGB
 70
     0
  3
__ . . __ . .
 72
    65
 73
     6
 40
9.0
 49
4.0
 49
-1.0
 49
1.0
 49
-1.0
 49
1.0
 49
-1.0
  0
LTYPE
  2
ACISOTGL
 70
     0
  3
_ _ _ _ _
 72
    65
 73
     2
 40
3.0
 49
2.0
 49
-1.0
  0
LTYPE
  2
ACJISTGB
 70
     0
  3
__ . . __ . .
 72
    65
 73
     6
 40
9.0
 49
4.0
 49
-1.0
 49
1.0
 49
-1.0
 49
1.0
 49
-1.0
  0
LTYPE
  2
ACJISTGL
 70
     0
  3
_ _ _ _ _
 72
    65
 73
     2
 40
3.0
 49
2.0
 49
-1.0
  0
ENDTAB
  0
TABLE
  2
LAYER
 70
    10
  0
LAYER
  2
0
 70
     0
 62
     7
  6
CONTINUOUS
  0
LAYER
  2
DEFPOINTS
 70
     0
 62
     7
  6
CONTINUOUS
  0
LAYER
  2
245
 70
     0
 62
     2
  6
CENTER2
  0
LAYER
  2
240
 70
     0
 62
     4
  6
CONTINUOUS
  0
LAYER
  2
241
 70
     0
 62
   211
  6
CONTINUOUS
  0
LAYER
  2
242
 70
     0
 62
     3
  6
CONTINUOUS
  0
LAYER
  2
243
 70
     0
 62
   211
  6
HIDDEN2
  0
LAYER
  2
244
 70
     0
 62
     3
  6
HIDDEN2
  0
LAYER
  2
246
 70
     0
 62
     3
  6
PHANTOM2
  0
LAYER
  2
250
 70
     0
 62
     3
  6
CONTINUOUS
  0
ENDTAB
  0
TABLE
  2
STYLE
 70
     6
  0
STYLE
  2
STANDARD
 70
     0
 40
0.0
 41
1.0
 50
0.0
 71
     0
 42
3.0
  3
romans.shx
  4
extfont.shx
  0
STYLE
  2
ACISOTS
 70
     0
 40
1.0
 41
1.0
 50
0.0
 71
     0
 42
3.0
  3
amgdt.shx
  4
extfont.shx
  0
STYLE
  2
ACISOGDT
 70
     0
 40
0.0
 41
1.0
 50
0.0
 71
     0
 42
3.0
  3
amgdt.shx
  4
extfont.shx
  0
STYLE
  2
ACJISTS
 70
     0
 40
1.0
 41
1.0
 50
0.0
 71
     0
 42
3.0
  3
amgdt.shx
  4
extfont.shx
  0
STYLE
  2
ACJISGDT
 70
     0
 40
0.0
 41
1.0
 50
0.0
 71
     0
 42
3.0
  3
amgdt.shx
  4
extfont.shx
  0
STYLE
  2
YOKO
 70
     0
 40
0.0
 41
1.0
 50
0.0
 71
     0
 42
3.0
  3
romans.shx
  4
extfont.shx
  0
ENDTAB
  0
TABLE
  2
VIEW
 70
     0
  0
ENDTAB
  0
TABLE
  2
UCS
 70
     0
  0
ENDTAB
  0
TABLE
  2
APPID
 70
    41
  0
APPID
  2
ACAD
 70
     0
  0
APPID
  2
GLOBAL
 70
     0
  0
APPID
  2
DETAIL
 70
     0
  0
APPID
  2
GRPNAME
 70
     0
  0
APPID
  2
GPARA
 70
     0
  0
APPID
  2
MCAD_NO_VIS
 70
     0
  0
APPID
  2
ACAD_TEMP_GRAPHIC
 70
     0
  0
APPID
  2
ACATTRIBSERVICES
 70
     0
  0
APPID
  2
GENIUS_GENSCREG_15
 70
     0
  0
APPID
  2
GENIUS_GENODEF_13
 70
     0
  0
APPID
  2
GENIUS_GENOBJ-N-SDF_13
 70
     0
  0
APPID
  2
GENIUS_GENREC_14
 70
     0
  0
APPID
  2
GENIUS_GENOBJ-N-REC_13
 70
     0
  0
APPID
  2
GENIUS_GENDIMSH_14
 70
     0
  0
APPID
  2
GENIUS_GENOBJ-N-DIM_13
 70
     0
  0
APPID
  2
GENIUS_GENDIM_13
 70
     0
  0
APPID
  2
GENIUS_GENDTOL_13
 70
     0
  0
APPID
  2
GENIUS_GENOLIS_13
 70
     0
  0
APPID
  2
GENIUS_GENOENT_13
 70
     0
  0
APPID
  2
GENIUS_GENOBJ-F-FEM_13
 70
     0
  0
APPID
  2
GENIUS_GENOREF_13
 70
     0
  0
APPID
  2
GENIUS_GEFFEM_13
 70
     0
  0
APPID
  2
GENIUS_GEFFEMP_13
 70
     0
  0
APPID
  2
AD_DRAW
 70
     0
  0
APPID
  2
DESIGNERASSEMBLIES
 70
     0
  0
APPID
  2
ACADM_DIM_EDIT
 70
     0
  0
APPID
  2
AMDT_DM_ADJ
 70
     0
  0
APPID
  2
ITEMNAME
 70
     0
  0
APPID
  2
GENIUS_GENOBJ-N-FIL_13
 70
     0
  0
APPID
  2
GENIUS_GENFIL_13
 70
     0
  0
APPID
  2
GENIUS_GENOBJ-N-CHA_13
 70
     0
  0
APPID
  2
ACAD_NAV_VCDISPLAY
 70
     0
  0
APPID
  2
ACAD_DSTYLE_DIMJAG
 70
     0
  0
APPID
  2
ACAD_DSTYLE_DIMBREAK
 70
     0
  0
APPID
  2
ACAD_DSTYLE_DIMINSPECT
 70
     0
  0
APPID
  2
ACAD_EXEMPT_FROM_CAD_STANDARDS
 70
     0
  0
APPID
  2
ACAD_MLEADERVER
 70
     0
  0
APPID
  2
ACAD_DSTYLE_DIMARC_LENGTH_
 70
     0
  0
APPID
  2
ACAD_DSTYLE_DIM_LINETYPE
 70
     0
  0
APPID
  2
ACAD_DSTYLE_DIM_EXT1_LINETYPE
 70
     0
  0
APPID
  2
ACAD_DSTYLE_DIM_EXT2_LINETYPE
 70
     0
  0
ENDTAB
  0
TABLE
  2
DIMSTYLE
 70
    23
  0
DIMSTYLE
  2
BIGT
 70
     0
  3

  4

  5
OPEN
  6

  7

 40
1.0
 41
2.2299999999999991
 42
0.5
 43
7.0
 44
1.0
 45
0.0
 46
0.0
 47
0.0
 48
0.01
140
2.7999999999999989
141
0.0
142
0.0
143
25.399999999999999
144
1.0
145
0.0
146
1.0
147
1.0
 71
     0
 72
     0
 73
     0
 74
     0
 75
     0
 76
     0
 77
     3
 78
     9
170
     0
171
     2
172
     1
173
     0
174
     1
175
     0
176
   256
177
   256
178
    40
  0
DIMSTYLE
  2
AM_ISO
 70
     0
  3

  4
"
  5

  6

  7

 40
1.0
 41
2.5
 42
1.0
 43
10.0
 44
1.0
 45
0.0
 46
0.0
 47
0.1
 48
0.1
140
3.5
141
0.0
142
0.0
143
0.0393701
144
1.0
145
0.0
146
0.71
147
1.5
 71
     0
 72
     0
 73
     0
 74
     0
 75
     0
 76
     0
 77
     1
 78
     8
170
     0
171
     2
172
     1
173
     0
174
     0
175
     0
176
   256
177
   256
178
     2
  0
DIMSTYLE
  2
AM_ISO$3
 70
     0
  3

  4
"
  5

  6

  7

 40
1.0
 41
2.5
 42
1.0
 43
10.0
 44
1.0
 45
0.0
 46
0.0
 47
0.1
 48
0.1
140
3.5
141
0.0
142
0.0
143
0.0393701
144
1.0
145
0.0
146
0.71
147
1.5
 71
     0
 72
     0
 73
     0
 74
     1
 75
     0
 76
     0
 77
     1
 78
     8
170
     0
171
     2
172
     0
173
     0
174
     0
175
     0
176
   256
177
   256
178
     2
  0
DIMSTYLE
  2
AM_ISO$4
 70
     0
  3

  4
"
  5

  6

  7

 40
1.0
 41
2.5
 42
1.0
 43
10.0
 44
1.0
 45
0.0
 46
0.0
 47
0.1
 48
0.1
140
3.5
141
0.0
142
0.0
143
0.0393701
144
1.0
145
0.0
146
0.71
147
1.5
 71
     0
 72
     0
 73
     0
 74
     1
 75
     0
 76
     0
 77
     1
 78
     8
170
     0
171
     2
172
     0
173
     0
174
     0
175
     0
176
   256
177
   256
178
     2
  0
DIMSTYLE
  2
AM_ISO$6
 70
     0
  3

  4
"
  5

  6

  7

 40
1.0
 41
2.5
 42
1.0
 43
10.0
 44
1.0
 45
0.0
 46
0.0
 47
0.1
 48
0.1
140
3.5
141
0.0
142
0.0
143
0.0393701
144
1.0
145
0.0
146
0.71
147
1.5
 71
     0
 72
     0
 73
     0
 74
     0
 75
     0
 76
     0
 77
     0
 78
     8
170
     0
171
     2
172
     1
173
     0
174
     0
175
     0
176
   256
177
   256
178
     2
  0
DIMSTYLE
  2
AM_ISO$7
 70
     0
  3

  4
"
  5

  6

  7

 40
1.0
 41
2.5
 42
1.0
 43
10.0
 44
1.0
 45
0.0
 46
0.0
 47
0.1
 48
0.1
140
5.0
141
0.0
142
0.0
143
0.0393701
144
1.0
145
0.0
146
0.71
147
1.5
 71
     0
 72
     0
 73
     0
 74
     0
 75
     0
 76
     0
 77
     1
 78
     8
170
     0
171
     2
172
     1
173
     0
174
     0
175
     0
176
   256
177
   256
178
     2
  0
DIMSTYLE
  2
AM_ISO$SF
 70
     0
  3

  4
"
  5

  6

  7

 40
1.0
 41
2.5
 42
1.0
 43
10.0
 44
1.0
 45
0.0
 46
0.0
 47
0.1
 48
0.1
140
3.5
141
0.0
142
0.0
143
0.0393701
144
1.0
145
0.0
146
0.71
147
1.5
 71
     0
 72
     0
 73
     0
 74
     0
 75
     1
 76
     1
 77
     1
 78
     8
170
     0
171
     2
172
     1
173
     0
174
     0
175
     0
176
   256
177
   256
178
     2
  0
DIMSTYLE
  2
AM_ISO$SH
 70
     0
  3

  4
"
  5

  6
GENAXEH
  7

 40
1.0
 41
2.5
 42
1.0
 43
10.0
 44
1.0
 45
0.0
 46
0.0
 47
0.1
 48
0.1
140
3.5
141
0.0
142
0.0
143
0.0393701
144
2.0
145
0.0
146
0.71
147
1.5
 71
     0
 72
     0
 73
     0
 74
     0
 75
     1
 76
     1
 77
     1
 78
     8
170
     0
171
     2
172
     1
173
     1
174
     0
175
     0
176
   256
177
   256
178
     2
  0
DIMSTYLE
  2
BIGT$2
 70
     0
  3

  4

  5
OPEN
  6

  7

 40
1.0
 41
2.2299999999999991
 42
0.5
 43
7.0
 44
1.0
 45
0.0
 46
0.0
 47
0.0
 48
0.01
140
2.7999999999999989
141
0.0
142
0.0
143
25.399999999999999
144
1.0
145
0.0
146
1.0
147
1.0
 71
     0
 72
     0
 73
     0
 74
     0
 75
     0
 76
     0
 77
     3
 78
     9
170
     0
171
     2
172
     1
173
     0
174
     0
175
     0
176
   256
177
   256
178
    40
  0
DIMSTYLE
  2
BIGT$3
 70
     0
  3

  4

  5
OPEN
  6

  7

 40
1.0
 41
2.2299999999999991
 42
0.5
 43
2.5
 44
1.0
 45
0.0
 46
0.0
 47
0.0
 48
0.01
140
2.7999999999999989
141
0.0
142
0.0
143
25.399999999999999
144
1.0
145
0.0
146
1.0
147
1.0
 71
     0
 72
     0
 73
     0
 74
     0
 75
     0
 76
     0
 77
     3
 78
     9
170
     0
171
     2
172
     1
173
     0
174
     0
175
     0
176
   256
177
   256
178
    40
  0
DIMSTYLE
  2
BIGT$7
 70
     0
  3

  4

  5
OPEN
  6

  7

 40
0.0
 41
2.2299999999999991
 42
0.5
 43
7.0
 44
1.0
 45
0.0
 46
0.0
 47
0.0
 48
0.01
140
2.7999999999999989
141
0.0
142
0.0
143
25.399999999999999
144
1.0
145
0.0
146
1.0
147
1.0
 71
     0
 72
     0
 73
     0
 74
     0
 75
     0
 76
     0
 77
     3
 78
     9
170
     0
171
     2
172
     0
173
     0
174
     0
175
     0
176
   256
177
   256
178
    40
  0
DIMSTYLE
  2
BIGT$6
 70
     0
  3

  4

  5
OPEN
  6

  7

 40
1.0
 41
2.2299999999999991
 42
0.5
 43
2.5
 44
1.0
 45
0.0
 46
0.0
 47
0.0
 48
0.01
140
2.7999999999999989
141
0.0
142
0.0
143
25.399999999999999
144
1.0
145
0.0
146
1.0
147
1.0
 71
     0
 72
     0
 73
     0
 74
     0
 75
     0
 76
     0
 77
     3
 78
     9
170
     0
171
     2
172
     1
173
     0
174
     0
175
     0
176
   256
177
   256
178
    40
  0
DIMSTYLE
  2
BIGT$0
 70
     0
  3

  4

  5
OPEN
  6

  7

 40
1.0
 41
2.2299999999999991
 42
0.5
 43
7.0
 44
1.0
 45
0.0
 46
0.0
 47
0.0
 48
0.01
140
2.7999999999999989
141
0.0
142
0.0
143
25.399999999999999
144
1.0
145
0.0
146
1.0
147
1.0
 71
     0
 72
     0
 73
     0
 74
     0
 75
     0
 76
     0
 77
     3
 78
     9
170
     0
171
     2
172
     1
173
     0
174
     1
175
     0
176
   256
177
   256
178
    40
  0
DIMSTYLE
  2
BIGT$4
 70
     0
  3

  4

  5
OPEN
  6

  7

 40
1.0
 41
2.2299999999999991
 42
0.5
 43
2.5
 44
1.0
 45
0.0
 46
0.0
 47
0.0
 48
0.01
140
2.7999999999999989
141
0.0
142
0.0
143
25.399999999999999
144
1.0
145
0.0
146
1.0
147
1.0
 71
     0
 72
     0
 73
     0
 74
     0
 75
     0
 76
     0
 77
     3
 78
     9
170
     0
171
     2
172
     1
173
     0
174
     0
175
     0
176
   256
177
   256
178
    40
  0
DIMSTYLE
  2
BIGT$SH
 70
     0
  3

  4

  5
OPEN
  6

  7

 40
1.0
 41
2.2299999999999991
 42
0.5
 43
7.0
 44
1.0
 45
0.0
 46
0.0
 47
0.0
 48
0.0
140
2.7999999999999989
141
0.0
142
0.0
143
25.399999999999999
144
1.0
145
0.0
146
1.0
147
1.0
 71
     0
 72
     0
 73
     0
 74
     0
 75
     0
 76
     0
 77
     3
 78
     9
170
     0
171
     2
172
     1
173
     0
174
     0
175
     0
176
   256
177
   256
178
    40
  0
DIMSTYLE
  2
BIGT$SF
 70
     0
  3

  4

  5
OPEN
  6

  7

 40
1.0
 41
2.2299999999999991
 42
0.5
 43
7.0
 44
1.0
 45
0.0
 46
0.0
 47
0.0
 48
0.0
140
2.7999999999999989
141
0.0
142
0.0
143
25.399999999999999
144
1.0
145
0.0
146
1.0
147
1.0
 71
     0
 72
     0
 73
     0
 74
     0
 75
     0
 76
     0
 77
     3
 78
     9
170
     0
171
     2
172
     1
173
     0
174
     0
175
     0
176
   256
177
   256
178
    40
  0
DIMSTYLE
  2
TECHNICAL_OSAKA
 70
     0
  3

  4
"
  5
OPEN30
  6

  7

 40
1.0
 41
2.5
 42
1.0
 43
10.0
 44
1.0
 45
0.0
 46
0.0
 47
0.1
 48
0.1
140
2.7999999999999989
141
0.0
142
0.0
143
0.0393701
144
1.0
145
0.0
146
0.71
147
1.5
 71
     0
 72
     0
 73
     0
 74
     0
 75
     0
 76
     0
 77
     3
 78
     8
170
     0
171
     2
172
     1
173
     0
174
     0
175
     0
176
   256
177
   256
178
    40
  0
DIMSTYLE
  2
TECHNICAL_OSAKA$3
 70
     0
  3

  4
"
  5
OPEN30
  6

  7

 40
1.0
 41
2.5
 42
1.0
 43
10.0
 44
1.0
 45
0.0
 46
0.0
 47
0.1
 48
0.1
140
2.7999999999999989
141
0.0
142
0.0
143
0.0393701
144
1.0
145
0.0
146
0.71
147
1.5
 71
     0
 72
     0
 73
     0
 74
     1
 75
     0
 76
     0
 77
     3
 78
     8
170
     0
171
     2
172
     0
173
     0
174
     0
175
     0
176
   256
177
   256
178
    40
  0
DIMSTYLE
  2
TECHNICAL_OSAKA$4
 70
     0
  3

  4
"
  5
OPEN30
  6

  7

 40
1.0
 41
2.5
 42
1.0
 43
10.0
 44
1.0
 45
0.0
 46
0.0
 47
0.1
 48
0.1
140
2.7999999999999989
141
0.0
142
0.0
143
0.0393701
144
1.0
145
0.0
146
0.71
147
1.5
 71
     0
 72
     0
 73
     0
 74
     1
 75
     0
 76
     0
 77
     3
 78
     8
170
     0
171
     2
172
     0
173
     0
174
     0
175
     0
176
   256
177
   256
178
    40
  0
DIMSTYLE
  2
TECHNICAL_OSAKA$6
 70
     0
  3

  4
"
  5
OPEN30
  6

  7

 40
1.0
 41
2.5
 42
1.0
 43
10.0
 44
1.0
 45
0.0
 46
0.0
 47
0.1
 48
0.1
140
2.7999999999999989
141
0.0
142
0.0
143
0.0393701
144
1.0
145
0.0
146
0.71
147
1.5
 71
     0
 72
     0
 73
     0
 74
     0
 75
     0
 76
     0
 77
     0
 78
     8
170
     0
171
     2
172
     1
173
     0
174
     0
175
     0
176
   256
177
   256
178
    40
  0
DIMSTYLE
  2
TECHNICAL_OSAKA$7
 70
     0
  3

  4
"
  5
OPEN30
  6

  7

 40
1.0
 41
2.5
 42
1.0
 43
10.0
 44
1.0
 45
0.0
 46
0.0
 47
0.1
 48
0.1
140
2.7999999999999989
141
0.0
142
0.0
143
0.0393701
144
1.0
145
0.0
146
0.71
147
1.5
 71
     0
 72
     0
 73
     0
 74
     0
 75
     0
 76
     0
 77
     3
 78
     8
170
     0
171
     2
172
     1
173
     0
174
     0
175
     0
176
   256
177
   256
178
    40
  0
DIMSTYLE
  2
TECHNICAL_OSAKA$SF
 70
     0
  3

  4
"
  5
OPEN30
  6
OPEN30
  7
OPEN30
 40
1.0
 41
2.5
 42
1.0
 43
10.0
 44
1.0
 45
0.0
 46
0.0
 47
0.1
 48
0.1
140
3.5
141
0.0
142
0.0
143
0.0393701
144
1.0
145
0.0
146
0.71
147
1.5
 71
     0
 72
     0
 73
     0
 74
     0
 75
     1
 76
     1
 77
     3
 78
     8
170
     0
171
     2
172
     1
173
     0
174
     0
175
     0
176
   256
177
   256
178
    40
  0
DIMSTYLE
  2
TECHNICAL_OSAKA$SH
 70
     0
  3

  4
"
  5
OPEN30
  6
GENAXEH
  7
OPEN30
 40
1.0
 41
2.5
 42
1.0
 43
10.0
 44
1.0
 45
0.0
 46
0.0
 47
0.1
 48
0.1
140
3.5
141
0.0
142
0.0
143
0.0393701
144
2.0
145
0.0
146
0.71
147
1.5
 71
     0
 72
     0
 73
     0
 74
     0
 75
     1
 76
     1
 77
     3
 78
     8
170
     0
171
     2
172
     1
173
     1
174
     0
175
     0
176
   256
177
   256
178
    40
  0
ENDTAB
  0
ENDSEC
  0
SECTION
  2
BLOCKS
  0
BLOCK
  8
0
  2
$MODEL_SPACE
 70
     0
 10
0.0
 20
0.0
 30
0.0
  3
$MODEL_SPACE
  1

  0
ENDBLK
  5
1C
  8
0
  0
BLOCK
 67
     1
  8
0
  2
$PAPER_SPACE
 70
     0
 10
0.0
 20
0.0
 30
0.0
  3
$PAPER_SPACE
  1

  0
ENDBLK
  5
19
 67
     1
  8
0
  0
BLOCK
  8
0
  2
_OPEN
 70
     0
 10
0.0
 20
0.0
 30
0.0
  3
_OPEN
  1

  0
LINE
  5
48DC
  8
0
  6
BYBLOCK
 62
     0
 10
-1.0
 20
0.1666666666666666
 30
0.0
 11
0.0
 21
0.0
 31
0.0
  0
LINE
  5
48DD
  8
0
  6
BYBLOCK
 62
     0
 10
-1.0
 20
-0.1666666666666666
 30
0.0
 11
0.0
 21
0.0
 31
0.0
  0
LINE
  5
48DE
  8
0
  6
BYBLOCK
 62
     0
 10
0.0
 20
0.0
 30
0.0
 11
-1.0
 21
0.0
 31
0.0
  0
ENDBLK
  5
48DF
  8
0
  0
BLOCK
  8
0
  2
GENAXEH
 70
     0
 10
0.0
 20
0.0
 30
0.0
  3
GENAXEH
  1

  0
LINE
  5
4917
  8
0
 10
-1.0
 20
0.0
 30
0.0
 11
1.0
 21
0.0
 31
0.0
  0
ENDBLK
  5
4918
  8
0
  0
BLOCK
  8
0
  2
_OPEN30
 70
     0
 10
0.0
 20
0.0
 30
0.0
  3
_OPEN30
  1

  0
LINE
  5
4953
  8
0
  6
BYBLOCK
 62
     0
 10
-1.0
 20
0.26794919
 30
0.0
 11
0.0
 21
0.0
 31
0.0
  0
LINE
  5
4954
  8
0
  6
BYBLOCK
 62
     0
 10
0.0
 20
0.0
 30
0.0
 11
-1.0
 21
-0.26794919
 31
0.0
  0
LINE
  5
4955
  8
0
  6
BYBLOCK
 62
     0
 10
0.0
 20
0.0
 30
0.0
 11
-1.0
 21
0.0
 31
0.0
  0
ENDBLK
  5
4956
  8
0
  0
ENDSEC
  0
SECTION
  2
ENTITIES
  0
LINE
  5
437D
  8
241
 10
27.49999999999989
 20
0.0000000000000142
 30
0.0
 11
27.49999999999989
 21
22.00000000000038
 31
0.0
1001
GRPNAME
1000
PASTMD03
  0
LINE
  5
437E
  8
240
 10
52.999999999994138
 20
10.25000000000021
 30
0.0
 11
52.749999999994174
 21
10.50000000000021
 31
0.0
  0
LINE
  5
437F
  8
240
 10
52.999999999994138
 20
10.25000000000021
 30
0.0
 11
73.499999999999943
 21
10.250000000000099
 31
0.0
  0
LINE
  5
4380
  8
240
 10
27.49999999999989
 20
22.00000000000038
 30
0.0
 11
26.99999999999994
 21
22.50000000000033
 31
0.0
  0
LINE
  5
4381
  8
240
 10
26.99999999999994
 20
22.50000000000033
 30
0.0
 11
26.99999999999994
 21
22.50000000000033
 31
0.0
  0
LINE
  5
4382
  8
240
 10
52.499999999995907
 20
-10.50000000000021
 30
0.0
 11
52.749999999994152
 21
-10.50000000000021
 31
0.0
  0
LINE
  5
4383
  8
240
 10
52.99999999999411
 20
-10.25000000000021
 30
0.0
 11
52.749999999994152
 21
-10.50000000000021
 31
0.0
  0
LINE
  5
4384
  8
240
 10
27.499999999999829
 20
-22.000000000000298
 30
0.0
 11
26.99999999999989
 21
-22.500000000000242
 31
0.0
  0
LINE
  5
4385
  8
240
 10
26.99999999999989
 20
-22.500000000000242
 30
0.0
 11
26.99999999999989
 21
-22.500000000000242
 31
0.0
  0
LINE
  5
4386
  8
240
 10
52.99999999999423
 20
-10.250000000000069
 30
0.0
 11
73.499999999999943
 21
-10.250000000000069
 31
0.0
  0
LINE
  5
438A
  8
241
 10
26.99999999999989
 20
-22.500000000000242
 30
0.0
 11
26.99999999999989
 21
22.500000000000352
 31
0.0
  0
LINE
  5
438B
  8
241
 10
27.499999999999829
 20
-22.000000000000298
 30
0.0
 11
27.499999999999829
 21
-0.0000000000000142
 31
0.0
  0
LINE
  5
438C
  8
241
 10
52.99999999999423
 20
-10.250000000000099
 30
0.0
 11
52.999999999994259
 21
10.250000000000149
 31
0.0
  0
LINE
  5
438D
  8
240
 10
52.499999999995907
 20
10.50000000000021
 30
0.0
 11
52.749999999994174
 21
10.50000000000021
 31
0.0
  0
LINE
  5
438E
  8
241
 10
37.499999999999751
 20
-21.749999999999929
 30
0.0
 11
37.499999999999751
 21
-0.0000000000000142
 31
0.0
1001
GRPNAME
1000
PASTMD03
  0
LINE
  5
438F
  8
241
 10
37.499999999999723
 20
13.999999999999901
 30
0.0
 11
37.499999999999751
 21
21.749999999999901
 31
0.0
1001
GRPNAME
1000
PASTMD03
  0
LINE
  5
4390
  8
240
 10
37.749999999999751
 20
21.999999999999901
 30
0.0
 11
37.499999999999751
 21
21.749999999999901
 31
0.0
1001
GENIUS_GENFIL_13
1070
     0
1040
0.25
1040
0.25
1040
0.2500000000000284
1040
45.00000000000162
1002
{
1002
}
1001
GENIUS_GENODEF_13
1002
{
1000
HIER
1070
     0
1002
}
1002
{
1000
MANEDIT
1070
     0
1002
}
1002
{
1000
NOSEL
1070
     0
1002
}
1002
{
1000
BEHIND
1070
     0
1002
}
1002
{
1000
OTHER
1070
     0
1002
}
1002
{
1000
REACTOR
1002
}
1001
GENIUS_GENOBJ-N-CHA_13
1002
{
1000
OWNER
1000
GEN
1002
}
  0
LINE
  5
4391
  8
240
 10
37.749999999999751
 20
21.999999999999901
 30
0.0
 11
44.671572875249659
 21
22.000000000000011
 31
0.0
  0
LINE
  5
4392
  8
240
 10
52.499999999995943
 20
14.171572875253799
 30
0.0
 11
52.499999999995907
 21
10.50000000000021
 31
0.0
  0
LINE
  5
4393
  8
240
 10
52.499999999995907
 20
-10.50000000000021
 30
0.0
 11
52.499999999995943
 21
-14.171572875253769
 31
0.0
  0
LINE
  5
4394
  8
240
 10
37.749999999999801
 20
-21.999999999999989
 30
0.0
 11
37.499999999999801
 21
-21.749999999999979
 31
0.0
1001
GENIUS_GENFIL_13
1070
     0
1040
0.25
1040
0.25
1040
0.2500000000000284
1040
45.00000000000162
1002
{
1002
}
1001
GENIUS_GENODEF_13
1002
{
1000
HIER
1070
     0
1002
}
1002
{
1000
MANEDIT
1070
     0
1002
}
1002
{
1000
NOSEL
1070
     0
1002
}
1002
{
1000
BEHIND
1070
     0
1002
}
1002
{
1000
OTHER
1070
     0
1002
}
1002
{
1000
REACTOR
1002
}
1001
GENIUS_GENOBJ-N-CHA_13
1002
{
1000
OWNER
1000
GEN
1002
}
  0
LINE
  5
4395
  8
240
 10
46.085786437622772
 20
21.414213562373121
 30
0.0
 11
51.914213562369042
 21
15.58578643762691
 31
0.0
  0
ARC
  5
4396
  8
240
 10
44.671572875249723
 20
20.000000000000011
 30
0.0
 40
2.0
 50
45.0
 51
90.0
1001
GENIUS_GENODEF_13
1002
{
1000
HIER
1070
     0
1002
}
1002
{
1000
MANEDIT
1070
     0
1002
}
1002
{
1000
NOSEL
1070
     0
1002
}
1002
{
1000
BEHIND
1070
     0
1002
}
1002
{
1000
OTHER
1070
     0
1002
}
1002
{
1000
REACTOR
1002
}
1001
GENIUS_GENOBJ-N-FIL_13
1002
{
1000
OWNER
1000
GEN
1002
}
  0
ARC
  5
4397
  8
240
 10
50.499999999996049
 20
14.171572875253799
 30
0.0
 40
2.0
 50
359.99999999999352
 51
45.0
1001
GENIUS_GENODEF_13
1002
{
1000
HIER
1070
     0
1002
}
1002
{
1000
MANEDIT
1070
     0
1002
}
1002
{
1000
NOSEL
1070
     0
1002
}
1002
{
1000
BEHIND
1070
     0
1002
}
1002
{
1000
OTHER
1070
     0
1002
}
1002
{
1000
REACTOR
1002
}
1001
GENIUS_GENOBJ-N-FIL_13
1002
{
1000
OWNER
1000
GEN
1002
}
  0
LINE
  5
4398
  8
240
 10
37.749999999999908
 20
-21.999999999999869
 30
0.0
 11
44.671572875249829
 21
-21.999999999999989
 31
0.0
  0
LINE
  5
4399
  8
240
 10
46.085786437622943
 20
-21.414213562373089
 30
0.0
 11
51.914213562369149
 21
-15.585786437626879
 31
0.0
  0
ARC
  5
439A
  8
240
 10
44.671572875249829
 20
-19.999999999999979
 30
0.0
 40
2.0
 50
269.99999999999682
 51
315.0
1001
GENIUS_GENODEF_13
1002
{
1000
HIER
1070
     0
1002
}
1002
{
1000
MANEDIT
1070
     0
1002
}
1002
{
1000
NOSEL
1070
     0
1002
}
1002
{
1000
BEHIND
1070
     0
1002
}
1002
{
1000
OTHER
1070
     0
1002
}
1002
{
1000
REACTOR
1002
}
1001
GENIUS_GENOBJ-N-FIL_13
1002
{
1000
OWNER
1000
GEN
1002
}
  0
ARC
  5
439B
  8
240
 10
50.49999999999617
 20
-14.171572875253769
 30
0.0
 40
2.0
 50
315.0
 51
0.0
1001
GENIUS_GENODEF_13
1002
{
1000
HIER
1070
     0
1002
}
1002
{
1000
MANEDIT
1070
     0
1002
}
1002
{
1000
NOSEL
1070
     0
1002
}
1002
{
1000
BEHIND
1070
     0
1002
}
1002
{
1000
OTHER
1070
     0
1002
}
1002
{
1000
REACTOR
1002
}
1001
GENIUS_GENOBJ-N-FIL_13
1002
{
1000
OWNER
1000
GEN
1002
}
  0
LINE
  5
439C
  8
241
 10
45.499999999996049
 20
-21.82035944224889
 30
0.0
 11
45.499999999996049
 21
21.820359442248861
 31
0.0
  0
LINE
  5
439D
  8
241
 10
37.999999999999737
 20
-0.0000000000003268
 30
0.0
 11
40.999999999999737
 21
-0.0000000000003268
 31
0.0
  0
LINE
  5
439E
  8
241
 10
39.999999999999687
 20
-1.9174263404488121
 30
0.0
 11
37.999999999999687
 21
-1.9174263404488121
 31
0.0
  0
LINE
  5
439F
  8
241
 10
37.999999999999687
 20
-3.8057226663522812
 30
0.0
 11
40.99999999999968
 21
-3.8057226663522812
 31
0.0
  0
LINE
  5
43A0
  8
241
 10
37.999999999999687
 20
-5.6940189922558631
 30
0.0
 11
39.999999999999687
 21
-5.6940189922558631
 31
0.0
  0
LINE
  5
43A1
  8
241
 10
37.999999999999687
 20
-7.4958103752758367
 30
0.0
 11
40.99999999999968
 21
-7.4958103752758234
 31
0.0
  0
LINE
  5
43A2
  8
241
 10
37.999999999999687
 20
-9.2976017582958121
 30
0.0
 11
39.999999999999687
 21
-9.2976017582958121
 31
0.0
  0
LINE
  5
43A3
  8
241
 10
37.999999999999581
 20
-11.000000000000471
 30
0.0
 11
40.999999999999567
 21
-11.000000000000449
 31
0.0
  0
LINE
  5
43A4
  8
241
 10
37.999999999999581
 20
-12.61868159972347
 30
0.0
 11
39.999999999999567
 21
-12.61868159972347
 31
0.0
  0
LINE
  5
43A5
  8
241
 10
37.999999999999581
 20
-14.05650560968844
 30
0.0
 11
40.999999999999567
 21
-14.056505609688431
 31
0.0
  0
LINE
  5
43A6
  8
241
 10
37.999999999999581
 20
-15.49014754013883
 30
0.0
 11
39.999999999999567
 21
-15.49014754013883
 31
0.0
  0
LINE
  5
43A7
  8
241
 10
37.999999999999581
 20
-16.852977748618009
 30
0.0
 11
40.999999999999567
 21
-16.852977748617999
 31
0.0
  0
LINE
  5
43A8
  8
241
 10
37.999999999999517
 20
-17.952768315938108
 30
0.0
 11
39.999999999999517
 21
-17.952768315938108
 31
0.0
  0
LINE
  5
43A9
  8
241
 10
37.999999999999517
 20
-18.907833293106261
 30
0.0
 11
40.99999999999951
 21
-18.90783329310625
 31
0.0
  0
LINE
  5
43AA
  8
241
 10
37.999999999999517
 20
-19.938771314806861
 30
0.0
 11
39.999999999999517
 21
-19.938771314806861
 31
0.0
  0
LINE
  5
43AB
  8
241
 10
37.999999999999517
 20
-20.594569746583499
 30
0.0
 11
40.99999999999951
 21
-20.594569746583488
 31
0.0
  0
LINE
  5
43AC
  8
241
 10
37.999999999999517
 20
-21.250368178360091
 30
0.0
 11
39.999999999999517
 21
-21.250368178360091
 31
0.0
  0
LINE
  5
43AD
  8
241
 10
37.499999999999751
 20
-21.999999999999659
 30
0.0
 11
37.499999999999751
 21
-0.0000000000000142
 31
0.0
1001
GRPNAME
1000
PASTMD03
  0
LINE
  5
43AE
  8
241
 10
37.499999999999687
 20
-0.0000000000000426
 30
0.0
 11
37.499999999999751
 21
22.000000000000181
 31
0.0
1001
GRPNAME
1000
PASTMD03
  0
ARC
  5
43AF
  8
240
 10
36.999999999999737
 20
22.000000000000181
 30
0.0
 40
0.5
 50
0.0
 51
90.0
1001
GRPNAME
1000
PASTMD03
1001
GENIUS_GENOBJ-N-FIL_13
1002
{
1000
OWNER
1000
GEN
1002
}
1001
GENIUS_GENODEF_13
1002
{
1000
HIER
1070
     0
1002
}
1002
{
1000
MANEDIT
1070
     0
1002
}
1002
{
1000
NOSEL
1070
     0
1002
}
1002
{
1000
BEHIND
1070
     0
1002
}
1002
{
1000
OTHER
1070
     0
1002
}
1002
{
1000
REACTOR
1002
}
  0
ARC
  5
43B0
  8
240
 10
36.999999999999737
 20
-21.999999999999659
 30
0.0
 40
0.5
 50
270.0
 51
0.0
1001
GRPNAME
1000
PASTMD03
1001
GENIUS_GENOBJ-N-FIL_13
1002
{
1000
OWNER
1000
GEN
1002
}
1001
GENIUS_GENODEF_13
1002
{
1000
HIER
1070
     0
1002
}
1002
{
1000
MANEDIT
1070
     0
1002
}
1002
{
1000
NOSEL
1070
     0
1002
}
1002
{
1000
BEHIND
1070
     0
1002
}
1002
{
1000
OTHER
1070
     0
1002
}
1002
{
1000
REACTOR
1002
}
  0
LINE
  5
43B1
  8
240
 10
27.999999999999801
 20
-22.49999999999968
 30
0.0
 11
27.499999999999801
 21
-21.99999999999967
 31
0.0
1001
GENIUS_GENFIL_13
1070
     0
1040
0.4999999999999432
1040
0.4999999999998864
1040
0.4999999999999432
1040
44.999999999993477
1002
{
1002
}
1001
GRPNAME
1000
PASTMD03
1001
GENIUS_GENOREF_13
1005
0
  0
LINE
  5
43B2
  8
240
 10
27.999999999999741
 20
22.50000000000027
 30
0.0
 11
36.999999999999737
 21
22.500000000000188
 31
0.0
  0
LINE
  5
43B3
  8
240
 10
27.499999999999751
 20
22.00000000000027
 30
0.0
 11
27.999999999999741
 21
22.50000000000027
 31
0.0
1001
GENIUS_GENFIL_13
1070
     0
1040
0.5
1040
0.5
1040
0.2500000000000284
1040
45.00000000000162
1002
{
1002
}
1001
GENIUS_GENOBJ-N-CHA_13
1002
{
1000
OWNER
1000
GEN
1002
}
1001
GENIUS_GENODEF_13
1002
{
1000
HIER
1070
     0
1002
}
1002
{
1000
MANEDIT
1070
     0
1002
}
1002
{
1000
NOSEL
1070
     0
1002
}
1002
{
1000
BEHIND
1070
     0
1002
}
1002
{
1000
OTHER
1070
     0
1002
}
1002
{
1000
REACTOR
1002
}
  0
LINE
  5
43B4
  8
240
 10
27.999999999999801
 20
-22.49999999999968
 30
0.0
 11
36.999999999999737
 21
-22.499999999999659
 31
0.0
  0
LINE
  5
43B5
  8
241
 10
27.499999999999801
 20
-21.99999999999967
 30
0.0
 11
27.499999999999829
 21
-0.0000000000000142
 31
0.0
  0
LINE
  5
43B6
  8
241
 10
27.499999999999829
 20
17.50000000000021
 30
0.0
 11
27.499999999999801
 21
22.00000000000033
 31
0.0
  0
LINE
  5
43B7
  8
241
 10
37.499999999999751
 20
-3.046754139410055
 30
0.0
 11
27.499999999999829
 21
-3.046754139410055
 31
0.0
  0
LINE
  5
43B8
  8
241
 10
37.499999999999751
 20
-8.5078150951329832
 30
0.0
 11
27.499999999999829
 21
-8.5078150951329832
 31
0.0
  0
LINE
  5
43B9
  8
241
 10
37.499999999999751
 20
-13.784948062762579
 30
0.0
 11
27.499999999999801
 21
-13.784948062762579
 31
0.0
  0
LINE
  5
43BA
  8
241
 10
37.499999999999751
 20
-17.782722145581641
 30
0.0
 11
27.499999999999801
 21
-17.782722145581641
 31
0.0
  0
LINE
  5
43BB
  8
241
 10
37.499999999999751
 20
-20.8294762849916
 30
0.0
 11
27.499999999999801
 21
-20.8294762849916
 31
0.0
  0
POLYLINE
  5
43BC
  8
241
 66
     1
 10
0.0
 20
0.0
 30
0.0
 70
     1
  0
VERTEX
  5
49D1
  8
241
 10
30.999999999999751
 20
18.221687836487249
 30
0.0
  0
VERTEX
  5
49D2
  8
241
 10
30.999999999999719
 20
16.778312163513199
 30
0.0
  0
VERTEX
  5
49D3
  8
241
 10
32.249999999999751
 20
16.056624327026171
 30
0.0
  0
VERTEX
  5
49D4
  8
241
 10
33.499999999999751
 20
16.778312163513199
 30
0.0
  0
VERTEX
  5
49D5
  8
241
 10
33.499999999999751
 20
18.22168783648727
 30
0.0
  0
VERTEX
  5
49D6
  8
241
 10
32.249999999999751
 20
18.94337567297428
 30
0.0
  0
SEQEND
  5
49D7
  8
241
  0
ARC
  5
43BD
  8
240
 10
73.499999999999943
 20
-9.2500000000000711
 30
0.0
 40
1.0
 50
270.0
 51
0.0
  0
LINE
  5
43BE
  8
240
 10
74.499999999999943
 20
-9.2500000000000711
 30
0.0
 11
74.499999999999943
 21
-8.9999999999999005
 31
0.0
  0
ARC
  5
43BF
  8
240
 10
73.499999999999943
 20
9.2500000000002132
 30
0.0
 40
1.0
 50
0.0
 51
90.0
1001
GENIUS_GENODEF_13
1002
{
1000
HIER
1070
     0
1002
}
1002
{
1000
MANEDIT
1070
     0
1002
}
1002
{
1000
NOSEL
1070
     0
1002
}
1002
{
1000
BEHIND
1070
     0
1002
}
1002
{
1000
OTHER
1070
     0
1002
}
1002
{
1000
REACTOR
1002
}
1001
GENIUS_GENOBJ-N-FIL_13
1002
{
1000
OWNER
1000
GEN
1002
}
  0
LINE
  5
43C0
  8
240
 10
74.499999999999943
 20
9.2500000000002132
 30
0.0
 11
74.499999999999943
 21
9.0000000000000995
 31
0.0
  0
LINE
  5
43C1
  8
240
 10
26.99999999999994
 20
-30.500000000000028
 30
0.0
 11
26.99999999999994
 21
-22.500000000000188
 31
0.0
  0
LINE
  5
43C2
  8
240
 10
-65.39999999999992
 20
0.0000000000003126
 30
0.0
 11
-65.399999999999977
 21
-10.9580111940609
 31
0.0
  0
ARC
  5
43C3
  8
240
 10
25.99999999999994
 20
-30.500000000000028
 30
0.0
 40
1.0
 50
270.0
 51
0.0
  0
LINE
  5
43C4
  8
240
 10
26.99999999999994
 20
30.499999999999989
 30
0.0
 11
26.99999999999994
 21
22.50000000000033
 31
0.0
  0
LINE
  5
43C5
  8
240
 10
-65.39999999999992
 20
-0.0000000000003695
 30
0.0
 11
-65.399999999999977
 21
10.958011194060861
 31
0.0
  0
ARC
  5
43C6
  8
240
 10
25.99999999999994
 20
30.499999999999989
 30
0.0
 40
1.0
 50
0.0
 51
90.0
  0
LINE
  5
43C7
  8
240
 10
-0.0000000000000568
 20
22.225000000000009
 30
0.0
 11
-63.688613786143442
 21
12.93707715618738
 31
0.0
  0
LINE
  5
43C9
  8
240
 10
-0.0000000000000568
 20
-22.225000000000051
 30
0.0
 11
-63.688613786143442
 21
-12.937077156187479
 31
0.0
  0
LINE
  5
43CE
  8
240
 10
0.9999999999999431
 20
31.000000000000039
 30
0.0
 11
0.9999999999999431
 21
22.225000000001948
 31
0.0
  0
LINE
  5
43CF
  8
240
 10
0.9999999999999431
 20
-31.000000000000071
 30
0.0
 11
0.9999999999999431
 21
-22.224999999999941
 31
0.0
  0
ARC
  5
43D1
  8
240
 10
1.4999999999999429
 20
31.000000000000039
 30
0.0
 40
0.5
 50
90.0
 51
180.0
  0
ARC
  5
43D2
  8
240
 10
1.4999999999999429
 20
-31.000000000000071
 30
0.0
 40
0.5
 50
180.0
 51
270.0
  0
LINE
  5
43D3
  8
241
 10
0.0000000000000568
 20
-22.225000000000069
 30
0.0
 11
-0.0000000000000568
 21
22.225000000000009
 31
0.0
  0
LINE
  5
43D4
  8
241
 10
0.9999999999999431
 20
22.225000000001948
 30
0.0
 11
0.9999999999999431
 21
-22.224999999999941
 31
0.0
  0
LINE
  5
43D5
  8
245
 10
-19.178882901802289
 20
-0.0000000000000426
 30
0.0
 11
-67.450703158701145
 21
-0.0000000000000284
 31
0.0
  0
LINE
  5
43D6
  8
245
 10
92.415334706543263
 20
-0.0000000000000526
 30
0.0
 11
41.972879762818422
 21
-0.0000000000000142
 31
0.0
  0
LINE
  5
43D7
  8
245
 10
36.870311122541523
 20
-0.0000000000000142
 30
0.0
 11
-67.450703158701145
 21
-0.0000000000000284
 31
0.0
  0
LINE
  5
43D8
  8
243
 10
22.99999999999994
 20
-22.500000000000028
 30
0.0
 11
0.9999999999999431
 21
-22.500000000000011
 31
0.0
  0
LINE
  5
43D9
  8
243
 10
22.99999999999994
 20
-22.500000000000028
 30
0.0
 11
22.99999999999994
 21
-31.500000000000028
 31
0.0
  0
LINE
  5
43DA
  8
243
 10
22.99999999999994
 20
22.499999999999989
 30
0.0
 11
22.99999999999994
 21
31.499999999999989
 31
0.0
  0
LINE
  5
43DB
  8
243
 10
22.99999999999994
 20
22.499999999999989
 30
0.0
 11
0.9999999999999431
 21
22.499999999999819
 31
0.0
  0
ARC
  5
43E0
  8
240
 10
-63.399999999999977
 20
10.958011194060861
 30
0.0
 40
2.0
 50
98.297144969836936
 51
180.0
  0
ARC
  5
43E1
  8
240
 10
-63.399999999999977
 20
-10.95801119406091
 30
0.0
 40
2.0
 50
180.0
 51
261.70285503016311
  0
LINE
  5
43E6
  8
241
 10
11.56550565266622
 20
-0.0000000000004263
 30
0.0
 11
11.56550565266474
 21
31.3267949192409
 31
0.0
  0
LINE
  5
43E7
  8
241
 10
14.452256998613731
 20
-0.0000000000003268
 30
0.0
 11
14.45225699861248
 21
26.555051025722371
 31
0.0
  0
LINE
  5
43E8
  8
241
 10
18.74774300138483
 20
-0.0000000000001279
 30
0.0
 11
18.747743001383579
 21
26.555051025720768
 31
0.0
  0
LINE
  5
43E9
  8
241
 10
21.63449434733355
 20
-0.0000000000000284
 30
0.0
 11
21.634494347332069
 21
31.32679491924425
 31
0.0
  0
LINE
  5
43EA
  8
240
 10
1.4999999999998861
 20
31.500000000000039
 30
0.0
 11
11.265505652666491
 21
31.499999999999591
 31
0.0
  0
LINE
  5
43EB
  8
240
 10
21.93449434733208
 20
31.500000000000039
 30
0.0
 11
25.99999999999989
 21
31.499999999999989
 31
0.0
  0
LINE
  5
43EC
  8
240
 10
11.26550565266586
 20
31.499999999999929
 30
0.0
 11
11.715505652665851
 21
31.240192378864592
 31
0.0
  0
LINE
  5
43ED
  8
240
 10
11.715505652665851
 20
31.240192378864592
 30
0.0
 11
14.365654458235319
 21
26.650000000000531
 31
0.0
  0
ARC
  5
43EE
  8
240
 10
18.574537920627961
 20
26.799999999999091
 30
0.0
 40
0.3
 50
269.99999999998039
 51
330.00000000000028
  0
ARC
  5
43EF
  8
240
 10
14.62546207937066
 20
26.800000000000509
 30
0.0
 40
0.3
 50
209.99999999999611
 51
269.99999999998039
  0
LINE
  5
43F0
  8
240
 10
18.57453792062784
 20
26.49999999999908
 30
0.0
 11
14.62546207937055
 21
26.500000000000501
 31
0.0
  0
LINE
  5
43F1
  8
240
 10
21.48449434733249
 20
31.240192378864929
 30
0.0
 11
18.834345541763302
 21
26.64999999999911
 31
0.0
  0
LINE
  5
43F2
  8
240
 10
21.48449434733249
 20
31.240192378864929
 30
0.0
 11
21.934494347332471
 21
31.50000000000027
 31
0.0
  0
LINE
  5
43F3
  8
240
 10
1.4999999999998861
 20
-31.500000000000099
 30
0.0
 11
11.265505652667059
 21
-31.500000000000099
 31
0.0
  0
LINE
  5
43F4
  8
240
 10
21.934494347331171
 20
-31.500000000000039
 30
0.0
 11
25.99999999999989
 21
-31.500000000000039
 31
0.0
  0
LINE
  5
43F5
  8
240
 10
21.48449434733271
 20
-31.240192378865562
 30
0.0
 11
21.934494347332699
 21
-31.500000000000899
 31
0.0
  0
ARC
  5
43F6
  8
240
 10
18.574537920628192
 20
-26.79999999999977
 30
0.0
 40
0.3
 50
29.99999999999973
 51
90.000000000019526
  0
ARC
  5
43F7
  8
240
 10
14.625462079370889
 20
-26.800000000001191
 30
0.0
 40
0.3
 50
90.000000000019526
 51
150.00000000000389
  0
LINE
  5
43F8
  8
240
 10
18.574537920628071
 20
-26.499999999999758
 30
0.0
 11
14.625462079370781
 21
-26.50000000000118
 31
0.0
  0
LINE
  5
43F9
  8
240
 10
11.265505652666089
 20
-31.500000000000639
 30
0.0
 11
11.71550565266608
 21
-31.240192378865309
 31
0.0
  0
LINE
  5
43FA
  8
240
 10
11.71550565266608
 20
-31.240192378865309
 30
0.0
 11
14.36565445823555
 21
-26.650000000001221
 31
0.0
  0
LINE
  5
43FB
  8
240
 10
21.48449434733271
 20
-31.240192378865562
 30
0.0
 11
18.834345541763518
 21
-26.649999999999761
 31
0.0
  0
LINE
  5
43FC
  8
241
 10
21.63449434733355
 20
-0.0000000000003837
 30
0.0
 11
21.63449434733355
 21
-31.32679491924468
 31
0.0
  0
LINE
  5
43FD
  8
241
 10
18.74774300138483
 20
-0.0000000000004121
 30
0.0
 11
18.74774300138483
 21
-26.55505102572128
 31
0.0
  0
LINE
  5
43FE
  8
241
 10
11.56550565266622
 20
-0.0000000000004405
 30
0.0
 11
11.56550565266622
 21
-31.326794919241749
 31
0.0
  0
LINE
  5
43FF
  8
241
 10
14.452256998613731
 20
-0.0000000000004121
 30
0.0
 11
14.452256998613731
 21
-26.555051025723099
 31
0.0
  0
CIRCLE
  5
4400
  8
241
 10
32.249999999999751
 20
17.50000000000021
 30
0.0
 40
2.5
  0
ARC
  5
4402
  8
241
 10
32.249999999999751
 20
17.50000000000021
 30
0.0
 40
2.75
 50
180.0
 51
0.0
  0
LINE
  5
4403
  8
241
 10
29.499999999999741
 20
20.25000000000021
 30
0.0
 11
34.999999999999751
 21
20.25000000000021
 31
0.0
  0
LINE
  5
4404
  8
241
 10
29.499999999999741
 20
20.25000000000021
 30
0.0
 11
29.499999999999741
 21
17.50000000000021
 31
0.0
  0
LINE
  5
4405
  8
241
 10
34.999999999999751
 20
20.25000000000021
 30
0.0
 11
34.999999999999751
 21
17.50000000000021
 31
0.0
  0
LINE
  5
4406
  8
241
 10
52.499999999995943
 20
-10.50000000000021
 30
0.0
 11
52.499999999995957
 21
10.50000000000021
 31
0.0
  0
LINE
  5
4407
  8
241
 10
39.999999999999659
 20
1.9174263404488121
 30
0.0
 11
37.999999999999659
 21
1.9174263404488121
 31
0.0
  0
LINE
  5
4408
  8
241
 10
37.999999999999659
 20
3.8057226663522812
 30
0.0
 11
40.999999999999652
 21
3.8057226663522812
 31
0.0
  0
LINE
  5
4409
  8
241
 10
37.999999999999659
 20
5.6940189922558631
 30
0.0
 11
39.999999999999659
 21
5.6940189922558631
 31
0.0
  0
LINE
  5
440A
  8
241
 10
37.999999999999659
 20
7.4958103752758367
 30
0.0
 11
40.999999999999652
 21
7.4958103752758234
 31
0.0
  0
LINE
  5
440B
  8
241
 10
37.999999999999659
 20
9.2976017582958121
 30
0.0
 11
39.999999999999659
 21
9.2976017582958121
 31
0.0
  0
LINE
  5
440C
  8
241
 10
37.999999999999538
 20
11.000000000000471
 30
0.0
 11
40.999999999999538
 21
11.000000000000441
 31
0.0
  0
LINE
  5
440D
  8
241
 10
37.999999999999538
 20
12.61868159972347
 30
0.0
 11
39.999999999999552
 21
12.61868159972347
 31
0.0
  0
LINE
  5
440E
  8
241
 10
37.999999999999538
 20
14.05650560968844
 30
0.0
 11
40.999999999999538
 21
14.05650560968841
 31
0.0
  0
LINE
  5
440F
  8
241
 10
37.999999999999538
 20
15.49014754013883
 30
0.0
 11
39.999999999999552
 21
15.49014754013883
 31
0.0
  0
LINE
  5
4410
  8
241
 10
37.999999999999538
 20
16.852977748618009
 30
0.0
 11
40.999999999999538
 21
16.852977748617992
 31
0.0
  0
LINE
  5
4411
  8
241
 10
37.999999999999488
 20
17.952768315938108
 30
0.0
 11
39.999999999999488
 21
17.952768315938108
 31
0.0
  0
LINE
  5
4412
  8
241
 10
37.999999999999488
 20
18.907833293106261
 30
0.0
 11
40.999999999999488
 21
18.907833293106229
 31
0.0
  0
LINE
  5
4413
  8
241
 10
37.999999999999488
 20
19.938771314806861
 30
0.0
 11
39.999999999999488
 21
19.938771314806861
 31
0.0
  0
LINE
  5
4414
  8
241
 10
37.999999999999488
 20
20.594569746583499
 30
0.0
 11
40.999999999999488
 21
20.594569746583471
 31
0.0
  0
LINE
  5
4415
  8
241
 10
37.999999999999488
 20
21.250368178360091
 30
0.0
 11
39.999999999999488
 21
21.250368178360091
 31
0.0
  0
ARC
  5
441B
  8
240
 10
75.499999999999972
 20
9.0000000000000426
 30
0.0
 40
1.0
 50
180.0
 51
270.0
  0
LINE
  5
441C
  8
240
 10
78.999999999999972
 20
8.0000000000000426
 30
0.0
 11
75.499999999999972
 21
8.0000000000000426
 31
0.0
  0
LINE
  5
441D
  8
240
 10
78.999999999999972
 20
-7.9999999999999574
 30
0.0
 11
75.499999999999972
 21
-7.9999999999999574
 31
0.0
  0
ARC
  5
441E
  8
240
 10
75.499999999999972
 20
-8.9999999999999574
 30
0.0
 40
1.0
 50
90.0
 51
180.0
  0
LINE
  5
441F
  8
240
 10
78.999999999999972
 20
9.5000000000000426
 30
0.0
 11
79.299999999999983
 21
9.800000000000054
 31
0.0
  0
LINE
  5
4420
  8
240
 10
78.999999999999972
 20
-9.4999999999999574
 30
0.0
 11
79.299999999999983
 21
-9.7999999999999545
 31
0.0
  0
LINE
  5
4421
  8
240
 10
79.299999999999983
 20
9.800000000000054
 30
0.0
 11
79.299999999999983
 21
11.90000000000005
 31
0.0
  0
ARC
  5
4422
  8
240
 10
79.899999999999935
 20
11.90000000000005
 30
0.0
 40
0.5999999999999944
 50
90.0
 51
180.0
  0
LINE
  5
4423
  8
240
 10
79.299999999999983
 20
-11.899999999999951
 30
0.0
 11
79.299999999999983
 21
-9.7999999999999545
 31
0.0
  0
ARC
  5
4424
  8
240
 10
79.899999999999935
 20
-11.899999999999951
 30
0.0
 40
0.5999999999999944
 50
180.0
 51
270.0
  0
LINE
  5
4425
  8
240
 10
79.899999999999935
 20
12.500000000000041
 30
0.0
 11
89.05147186257588
 21
12.50000000000024
 31
0.0
  0
ARC
  5
4426
  8
240
 10
89.05147186257588
 20
11.900000000000251
 30
0.0
 40
0.5999999999999888
 50
44.999999999999417
 51
90.000000000001606
  0
LINE
  5
4427
  8
240
 10
79.899999999999935
 20
-12.499999999999959
 30
0.0
 11
89.051471862575923
 21
-12.50000000000011
 31
0.0
  0
ARC
  5
4428
  8
240
 10
89.051471862575994
 20
-11.900000000000119
 30
0.0
 40
0.5999999999999944
 50
269.99999999999682
 51
314.99999999999829
  0
LINE
  5
4429
  8
240
 10
89.853553390593234
 20
11.946446609406779
 30
0.0
 11
89.475735931287844
 21
12.32426406871217
 31
0.0
  0
LINE
  5
442A
  8
240
 10
89.999999999999986
 20
0.0000000000000426
 30
0.0
 11
89.999999999999986
 21
11.592893218813501
 31
0.0
  0
ARC
  5
442B
  8
240
 10
89.499999999999972
 20
11.592893218813501
 30
0.0
 40
0.5
 50
0.0
 51
44.999999999999417
  0
LINE
  5
442C
  8
240
 10
89.999999999999986
 20
0.0000000000000426
 30
0.0
 11
89.999999999999986
 21
-11.59289321881343
 31
0.0
  0
LINE
  5
442D
  8
240
 10
89.475735931287844
 20
-12.324264068712051
 30
0.0
 11
89.853553390593234
 21
-11.946446609406699
 31
0.0
  0
ARC
  5
442E
  8
240
 10
89.499999999999972
 20
-11.59289321881343
 30
0.0
 40
0.500000000000004
 50
315.00000000000063
 51
0.0
  0
LINE
  5
442F
  8
240
 10
78.999999999999972
 20
9.5000000000000426
 30
0.0
 11
78.999999999999972
 21
8.0000000000000426
 31
0.0
  0
LINE
  5
4430
  8
240
 10
78.999999999999972
 20
-9.4999999999999574
 30
0.0
 11
78.999999999999972
 21
-7.9999999999999574
 31
0.0
  0
LINE
  5
4431
  8
241
 10
76.499999999999972
 20
7.5000000000000417
 30
0.0
 11
76.499999999999972
 21
0.0000000000000426
 31
0.0
  0
LINE
  5
4432
  8
241
 10
76.499999999999972
 20
-7.4999999999999574
 30
0.0
 11
76.499999999999972
 21
0.0000000000000568
 31
0.0
  0
LINE
  5
4433
  8
241
 10
79.299999999999983
 20
9.800000000000054
 30
0.0
 11
79.299999999999983
 21
0.0000000000000426
 31
0.0
  0
LINE
  5
4434
  8
241
 10
79.299999999999983
 20
-9.7999999999999545
 30
0.0
 11
79.299999999999983
 21
0.0000000000000426
 31
0.0
  0
LINE
  5
4435
  8
241
 10
89.051471862575923
 20
12.1381267738884
 30
0.0
 11
89.051471862575923
 21
-12.185430463576109
 31
0.0
  0
LINE
  5
4436
  8
241
 10
79.899999999999935
 20
12.500000000000041
 30
0.0
 11
79.899999999999935
 21
11.49709263010239
 31
0.0
  0
LINE
  5
4437
  8
241
 10
79.899999999999935
 20
9.997092630102415
 30
0.0
 11
79.899999999999935
 21
1.500000000000056
 31
0.0
  0
LINE
  5
4438
  8
241
 10
79.899999999999935
 20
-1.4999999999999709
 30
0.0
 11
79.899999999999935
 21
-9.9970926301023297
 31
0.0
  0
LINE
  5
4439
  8
241
 10
79.899999999999935
 20
-11.49709263010231
 30
0.0
 11
79.899999999999935
 21
-12.499999999999959
 31
0.0
  0
LINE
  5
443A
  8
241
 10
74.499999999999972
 20
9.0000000000000426
 30
0.0
 11
74.499999999999972
 21
0.0000000000000426
 31
0.0
  0
LINE
  5
443B
  8
241
 10
74.499999999999972
 20
-8.9999999999999574
 30
0.0
 11
74.499999999999972
 21
0.0000000000000426
 31
0.0
  0
LINE
  5
443C
  8
241
 10
78.999999999999972
 20
-7.9999999999999574
 30
0.0
 11
78.999999999999972
 21
0.0000000000000426
 31
0.0
  0
LINE
  5
443D
  8
241
 10
78.999999999999972
 20
8.0000000000000426
 30
0.0
 11
78.999999999999972
 21
0.0000000000000426
 31
0.0
  0
LINE
  5
443E
  8
241
 10
85.999999999999972
 20
11.49709263010239
 30
0.0
 11
79.299999999999983
 21
11.49709263010239
 31
0.0
  0
LINE
  5
443F
  8
241
 10
85.999999999999972
 20
9.997092630102415
 30
0.0
 11
79.299999999999983
 21
9.997092630102415
 31
0.0
  0
LINE
  5
4440
  8
241
 10
85.999999999999972
 20
11.49709263010239
 30
0.0
 11
85.999999999999972
 21
9.997092630102415
 31
0.0
  0
LINE
  5
4441
  8
241
 10
85.999999999999972
 20
1.500000000000056
 30
0.0
 11
79.299999999999983
 21
1.500000000000056
 31
0.0
  0
LINE
  5
4442
  8
241
 10
85.999999999999972
 20
-1.4999999999999709
 30
0.0
 11
79.299999999999983
 21
-1.4999999999999709
 31
0.0
  0
LINE
  5
4443
  8
241
 10
85.999999999999972
 20
-1.4999999999999709
 30
0.0
 11
85.999999999999972
 21
0.0000000000000426
 31
0.0
  0
LINE
  5
4444
  8
241
 10
85.999999999999972
 20
1.500000000000056
 30
0.0
 11
85.999999999999972
 21
0.0000000000000426
 31
0.0
  0
LINE
  5
4445
  8
241
 10
85.999999999999972
 20
-9.9970926301023155
 30
0.0
 11
79.299999999999983
 21
-9.9970926301023297
 31
0.0
  0
LINE
  5
4446
  8
241
 10
85.999999999999972
 20
-11.4970926301023
 30
0.0
 11
79.299999999999983
 21
-11.49709263010231
 31
0.0
  0
LINE
  5
4447
  8
241
 10
85.999999999999972
 20
-11.4970926301023
 30
0.0
 11
85.999999999999972
 21
-9.9970926301023155
 31
0.0
  0
LINE
  5
4448
  8
242
 10
76.499999999999972
 20
7.5000000000000417
 30
0.0
 11
75.999999999999972
 21
8.0000000000000426
 31
0.0
  0
LINE
  5
4449
  8
242
 10
76.499999999999972
 20
-7.4999999999999574
 30
0.0
 11
75.999999999999972
 21
-7.9999999999999574
 31
0.0
  0
LINE
  5
444A
  8
242
 10
78.999999999999972
 20
7.5000000000000417
 30
0.0
 11
76.499999999999972
 21
7.5000000000000417
 31
0.0
  0
LINE
  5
444B
  8
242
 10
78.999999999999972
 20
-7.4999999999999574
 30
0.0
 11
76.499999999999972
 21
-7.4999999999999432
 31
0.0
  0
LINE
  5
444C
  8
243
 10
83.299999999999983
 20
-7.9999999999999574
 30
0.0
 11
78.999999999999972
 21
-7.9999999999999574
 31
0.0
  0
LINE
  5
444D
  8
243
 10
83.999999999999957
 20
7.300000000000054
 30
0.0
 11
83.299999999999983
 21
8.0000000000000426
 31
0.0
  0
LINE
  5
444E
  8
243
 10
83.299999999999983
 20
8.0000000000000426
 30
0.0
 11
78.999999999999972
 21
8.0000000000000426
 31
0.0
  0
LINE
  5
444F
  8
243
 10
83.999999999999957
 20
-7.2999999999999536
 30
0.0
 11
83.299999999999983
 21
-7.9999999999999574
 31
0.0
  0
LINE
  5
4450
  8
246
 10
45.599999999999987
 20
4.500000000000056
 30
0.0
 11
44.999999999999943
 21
3.9000000000000479
 31
0.0
  0
LINE
  5
4451
  8
246
 10
42.999999999999972
 20
3.9000000000000479
 30
0.0
 11
44.999999999999943
 21
3.9000000000000479
 31
0.0
  0
ARC
  5
4452
  8
246
 10
42.999999999999972
 20
2.9000000000000479
 30
0.0
 40
1.0
 50
90.0
 51
180.0
  0
LINE
  5
4453
  8
246
 10
50.499999999999972
 20
2.000000000000028
 30
0.0
 11
50.499999999999972
 21
1.029999694814947
 31
0.0
  0
LINE
  5
4454
  8
246
 10
50.499999999999972
 20
2.000000000000028
 30
0.0
 11
50.821367205045853
 21
1.443375672974099
 31
0.0
  0
LINE
  5
4455
  8
246
 10
52.693375672974042
 20
1.443375672974099
 30
0.0
 11
50.821367205045853
 21
1.443375672974099
 31
0.0
  0
LINE
  5
4456
  8
246
 10
52.693375672974042
 20
0.7216878364870638
 30
0.0
 11
50.821367205045853
 21
0.7216878364870638
 31
0.0
  0
LINE
  5
4457
  8
246
 10
52.693375672974042
 20
1.443375672974099
 30
0.0
 11
54.999999999999972
 21
3.7500000000000422
 31
0.0
  0
LINE
  5
4459
  8
246
 10
89.999999999999986
 20
4.0000000000000417
 30
0.0
 11
71.999999999999972
 21
4.0000000000000417
 31
0.0
  0
LINE
  5
445A
  8
246
 10
86.399999999999949
 20
6.2500000000000142
 30
0.0
 11
71.999999999999972
 21
4.7364990121742769
 31
0.0
  0
LINE
  5
445B
  8
246
 10
86.399999999999949
 20
5.2500000000000417
 30
0.0
 11
88.299999999999983
 21
5.2500000000000417
 31
0.0
  0
LINE
  5
445C
  8
246
 10
86.399999999999949
 20
5.2500000000000417
 30
0.0
 11
86.399999999999949
 21
6.2500000000000142
 31
0.0
  0
LINE
  5
445D
  8
246
 10
88.299999999999983
 20
5.2500000000000417
 30
0.0
 11
88.299999999999983
 21
6.2500000000000417
 31
0.0
  0
LINE
  5
445E
  8
246
 10
88.299999999999983
 20
6.2500000000000417
 30
0.0
 11
88.399999999999935
 21
6.2500000000000417
 31
0.0
  0
LINE
  5
445F
  8
246
 10
89.999999999999986
 20
5.3262395692966464
 30
0.0
 11
88.399999999999935
 21
6.2500000000000417
 31
0.0
  0
LINE
  5
4460
  8
246
 10
45.599999999999987
 20
-4.4999999999999707
 30
0.0
 11
44.999999999999943
 21
-3.899999999999948
 31
0.0
  0
LINE
  5
4461
  8
246
 10
42.999999999999972
 20
-3.899999999999948
 30
0.0
 11
44.999999999999943
 21
-3.899999999999948
 31
0.0
  0
LINE
  5
4462
  8
246
 10
50.499999999999972
 20
-1.9999999999999281
 30
0.0
 11
50.499999999999972
 21
-1.0299996948148611
 31
0.0
  0
LINE
  5
4463
  8
246
 10
50.499999999999972
 20
-1.9999999999999281
 30
0.0
 11
50.821367205045853
 21
-1.443375672973999
 31
0.0
  0
LINE
  5
4464
  8
246
 10
52.693375672974042
 20
-1.443375672973999
 30
0.0
 11
50.821367205045853
 21
-1.443375672973999
 31
0.0
  0
LINE
  5
4465
  8
246
 10
52.693375672974042
 20
-0.7216878364869644
 30
0.0
 11
50.821367205045853
 21
-0.7216878364869644
 31
0.0
  0
LINE
  5
4466
  8
246
 10
52.693375672974042
 20
-1.443375672973999
 30
0.0
 11
54.999999999999972
 21
-3.7499999999999432
 31
0.0
  0
LINE
  5
4468
  8
246
 10
89.999999999999986
 20
-3.9999999999999569
 30
0.0
 11
71.999999999999972
 21
-3.9999999999999569
 31
0.0
  0
LINE
  5
4469
  8
246
 10
86.399999999999949
 20
-6.2499999999999281
 30
0.0
 11
71.999999999999972
 21
-4.7364990121741917
 31
0.0
  0
LINE
  5
446A
  8
246
 10
86.399999999999949
 20
-5.2499999999999574
 30
0.0
 11
88.299999999999983
 21
-5.2499999999999574
 31
0.0
  0
LINE
  5
446B
  8
246
 10
86.399999999999949
 20
-5.2499999999999574
 30
0.0
 11
86.399999999999949
 21
-6.2499999999999281
 31
0.0
  0
LINE
  5
446C
  8
246
 10
88.299999999999983
 20
-5.2499999999999574
 30
0.0
 11
88.299999999999983
 21
-6.2499999999999574
 31
0.0
  0
LINE
  5
446D
  8
246
 10
88.299999999999983
 20
-6.2499999999999574
 30
0.0
 11
88.399999999999935
 21
-6.2499999999999574
 31
0.0
  0
LINE
  5
446E
  8
246
 10
89.999999999999986
 20
-5.3262395692965461
 30
0.0
 11
88.399999999999935
 21
-6.2499999999999574
 31
0.0
  0
LINE
  5
446F
  8
246
 10
50.821367205045853
 20
1.443375672974099
 30
0.0
 11
50.821367205045853
 21
-1.443375672973999
 31
0.0
  0
LINE
  5
4470
  8
246
 10
52.693375672974042
 20
1.443375672974099
 30
0.0
 11
52.693375672974042
 21
-1.443375672973999
 31
0.0
  0
LINE
  5
4472
  8
246
 10
71.999999999999972
 20
4.7364990121742769
 30
0.0
 11
71.999999999999972
 21
-4.7364990121741917
 31
0.0
  0
LINE
  5
4473
  8
246
 10
54.499999999999972
 20
-4.4999999999999574
 30
0.0
 11
54.999999999999972
 21
-3.9999999999999569
 31
0.0
  0
LINE
  5
4474
  8
246
 10
54.999999999999972
 20
4.0000000000000417
 30
0.0
 11
54.999999999999972
 21
-3.9999999999999569
 31
0.0
  0
LINE
  5
4475
  8
246
 10
54.999999999999972
 20
4.0000000000000417
 30
0.0
 11
54.499999999999972
 21
4.5000000000000417
 31
0.0
  0
LINE
  5
4476
  8
246
 10
45.599999999999987
 20
-4.4999999999999574
 30
0.0
 11
54.499999999999972
 21
-4.4999999999999574
 31
0.0
  0
LINE
  5
4477
  8
246
 10
41.999999999999972
 20
-2.899999999999948
 30
0.0
 11
41.999999999999972
 21
2.9000000000000479
 31
0.0
  0
ARC
  5
4478
  8
246
 10
42.999999999999972
 20
-2.899999999999948
 30
0.0
 40
1.0
 50
180.0
 51
270.0
  0
LINE
  5
447A
  8
246
 10
45.599999999999987
 20
4.5000000000000417
 30
0.0
 11
54.499999999999972
 21
4.5000000000000417
 31
0.0
  0
LINE
  5
4483
  8
246
 10
41.999999999999972
 20
2.0000000000000711
 30
0.0
 11
50.499999999999972
 21
2.000000000000028
 31
0.0
  0
LINE
  5
4484
  8
246
 10
41.999999999999972
 20
-1.9999999999999709
 30
0.0
 11
50.499999999999972
 21
-1.9999999999999281
 31
0.0
  0
LINE
  5
4485
  8
243
 10
83.999999999999957
 20
7.300000000000054
 30
0.0
 11
83.999999999999957
 21
5.9977498353623977
 31
0.0
  0
LINE
  5
4486
  8
243
 10
83.999999999999957
 20
-5.9977498353623133
 30
0.0
 11
83.999999999999957
 21
-7.2999999999999536
 31
0.0
  0
LINE
  5
4487
  8
244
 10
78.999999999999972
 20
7.5000000000000417
 30
0.0
 11
83.799999999999983
 21
7.5000000000000417
 31
0.0
  0
LINE
  5
4488
  8
244
 10
78.999999999999972
 20
-7.4999999999999574
 30
0.0
 11
83.799999999999983
 21
-7.4999999999999574
 31
0.0
  0
LINE
  5
448F
  8
246
 10
45.299999999999983
 20
-4.1999999999999744
 30
0.0
 11
54.799999999999933
 21
-4.1999999999999744
 31
0.0
  0
LINE
  5
4490
  8
246
 10
45.299999999999947
 20
4.2000000000000588
 30
0.0
 11
54.799999999999933
 21
4.2000000000000588
 31
0.0
  0
LINE
  5
4491
  8
241
 10
73.499999999999943
 20
10.250000000000099
 30
0.0
 11
73.499999999999915
 21
7.3091115288520276
 31
0.0
  0
LINE
  5
4492
  8
241
 10
73.499999999999915
 20
-7.1636681860907032
 30
0.0
 11
73.499999999999943
 21
-10.250000000000069
 31
0.0
  0
LINE
  5
4499
  8
241
 10
37.499999999999773
 20
3.0467541394099409
 30
0.0
 11
27.49999999999984
 21
3.0467541394100119
 31
0.0
  0
LINE
  5
45AE
  8
250
 10
-52.392950668240481
 20
-33.02168492845091
 30
0.0
 11
-35.828794979130009
 21
-33.02168492845091
 31
0.0
  0
LINE
  5
45AF
  8
250
 10
-35.828794979130009
 20
-33.02168492845091
 30
0.0
 11
-23.423053257184151
 21
-20.615943206505051
 31
0.0
  0
LINE
  5
45B0
  8
250
 10
-23.423053257184151
 20
-20.615943206505051
 30
0.0
 11
-21.846205135138149
 21
-19.039095084459049
 31
0.0
  0
LINE
  5
45B1
  8
250
 10
-23.215457264527029
 20
-20.82353919916217
 30
0.0
 11
-21.846205135138149
 21
-19.039095084459049
 31
0.0
  0
LINE
  5
45B2
  8
250
 10
-21.846205135138149
 20
-19.039095084459049
 30
0.0
 11
-23.630649249841269
 21
-20.408347213847929
 31
0.0
  0
TEXT
  5
45B3
  8
250
 10
-53.251689126751941
 20
-31.6216849284509
 30
0.0
 40
2.799999999999998
  1
 BBT40
  7
ACJISTS
  0
TEXT
  5
45B4
  8
241
 10
-63.0
 20
63.0
 30
0.0
 40
5.0
  1
BBT40-NBS8-90NRA
  7
YOKO
 11
-63.0
 21
63.0
 31
0.0
 73
     1
  0
LINE
  5
4655
  8
240
 10
-0.0000000000000568
 20
22.225000000000009
 30
0.0
 11
0.9999999999999431
 21
22.225000000001948
 31
0.0
  0
LINE
  5
4656
  8
240
 10
0.0000000000000568
 20
-22.224999999999941
 30
0.0
 11
0.9999999999999431
 21
-22.224999999999941
 31
0.0
  0
LINE
  5
4677
  8
250
 10
-0.0000000000000568
 20
22.725000000000009
 30
0.0
 11
-0.0000000000000556
 21
42.999999999992923
 31
0.0
  0
LINE
  5
4678
  8
250
 10
52.499999999995943
 20
14.671572875253799
 30
0.0
 11
52.499999999995943
 21
42.999999999992923
 31
0.0
  0
LINE
  5
4679
  8
250
 10
2.229999999999944
 20
41.99999999999293
 30
0.0
 11
50.269999999995939
 21
41.99999999999293
 31
0.0
  0
LINE
  5
467E
  8
250
 10
52.499999999998607
 20
14.671572875246561
 30
0.0
 11
52.499999999998607
 21
42.999999999992923
 31
0.0
  0
LINE
  5
467F
  8
250
 10
90.00000000000216
 20
12.09289321879916
 30
0.0
 11
90.00000000000216
 21
42.999999999992923
 31
0.0
  0
LINE
  5
4680
  8
250
 10
54.729999999998597
 20
41.99999999999293
 30
0.0
 11
87.770000000002156
 21
41.99999999999293
 31
0.0
  0
LINE
  5
4684
  8
250
 10
0.0000000000042511
 20
22.72500000000278
 30
0.0
 11
0.0000000000042527
 21
50.0
 31
0.0
  0
LINE
  5
4685
  8
250
 10
90.00000000000216
 20
12.09289321879916
 30
0.0
 11
90.00000000000216
 21
50.0
 31
0.0
  0
LINE
  5
4686
  8
250
 10
2.2300000000042521
 20
49.0
 30
0.0
 11
87.770000000002156
 21
49.0
 31
0.0
  0
LINE
  5
468A
  8
250
 10
90.499999999999972
 20
-3.9999999999999569
 30
0.0
 11
99.0
 21
-3.99999999999996
 31
0.0
  0
LINE
  5
468B
  8
250
 10
90.499999999999972
 20
4.0000000000000409
 30
0.0
 11
99.0
 21
4.0000000000000391
 31
0.0
  0
LINE
  5
468C
  8
250
 10
98.0
 20
-1.7699999999999589
 30
0.0
 11
98.0
 21
1.7700000000000391
 31
0.0
  0
LINE
  5
468D
  8
250
 10
98.0
 20
4.0000000000000391
 30
0.0
 11
98.000000000000014
 21
32.301941985239949
 31
0.0
  0
LINE
  5
4691
  8
250
 10
89.551471862575994
 20
-12.500000000000099
 30
0.0
 11
106.0
 21
-12.500000000000099
 31
0.0
  0
LINE
  5
4692
  8
250
 10
89.551471862575852
 20
12.50000000000024
 30
0.0
 11
106.0
 21
12.500000000000229
 31
0.0
  0
LINE
  5
4693
  8
250
 10
105.0
 20
-10.270000000000101
 30
0.0
 11
105.0
 21
10.270000000000231
 31
0.0
  0
LINE
  5
4697
  8
250
 10
54.999999999999261
 20
-4.2500000000077067
 30
0.0
 11
54.999999999999261
 21
-36.000000000014261
 31
0.0
  0
LINE
  5
4698
  8
250
 10
89.999999999997769
 20
-12.09289321882777
 30
0.0
 11
89.999999999997769
 21
-36.000000000014261
 31
0.0
  0
LINE
  5
4699
  8
250
 10
57.229999999999258
 20
-35.000000000014253
 30
0.0
 11
87.769999999997779
 21
-35.000000000014253
 31
0.0
  0
TEXT
  5
469D
  8
250
 10
97.0
 20
15.87337055666854
 30
0.0
 40
3.0
  1
MAX.\U+22058
 50
90.0
  0
LINE
  5
469E
  8
250
 10
97.62833333333333
 20
1.7700000000000391
 30
0.0
 11
98.0
 21
4.0000000000000391
 31
0.0
  0
LINE
  5
469F
  8
250
 10
98.371666666666684
 20
1.7700000000000391
 30
0.0
 11
98.0
 21
4.0000000000000391
 31
0.0
  0
LINE
  5
46A0
  8
250
 10
98.0
 20
4.0000000000000391
 30
0.0
 11
98.0
 21
1.7700000000000391
 31
0.0
  0
LINE
  5
46A1
  8
250
 10
98.371666666666684
 20
-1.7699999999999589
 30
0.0
 11
98.0
 21
-3.9999999999999591
 31
0.0
  0
LINE
  5
46A2
  8
250
 10
97.62833333333333
 20
-1.7699999999999589
 30
0.0
 11
98.0
 21
-3.9999999999999591
 31
0.0
  0
LINE
  5
46A3
  8
250
 10
98.0
 20
-3.9999999999999591
 30
0.0
 11
98.0
 21
-1.7699999999999589
 31
0.0
  0
TEXT
  5
46A4
  8
250
 10
104.0
 20
-4.2142857142856309
 30
0.0
 40
3.0
  1
\U+220525
 50
90.0
  0
LINE
  5
46A5
  8
250
 10
104.6283333333333
 20
10.270000000000231
 30
0.0
 11
105.0
 21
12.500000000000229
 31
0.0
  0
LINE
  5
46A6
  8
250
 10
105.3716666666666
 20
10.270000000000231
 30
0.0
 11
105.0
 21
12.500000000000229
 31
0.0
  0
LINE
  5
46A7
  8
250
 10
105.0
 20
12.500000000000229
 30
0.0
 11
105.0
 21
10.270000000000231
 31
0.0
  0
LINE
  5
46A8
  8
250
 10
105.3716666666666
 20
-10.270000000000101
 30
0.0
 11
105.0
 21
-12.500000000000099
 31
0.0
  0
LINE
  5
46A9
  8
250
 10
104.6283333333333
 20
-10.270000000000101
 30
0.0
 11
105.0
 21
-12.500000000000099
 31
0.0
  0
LINE
  5
46AA
  8
250
 10
105.0
 20
-12.500000000000099
 30
0.0
 11
105.0
 21
-10.270000000000101
 31
0.0
  0
TEXT
  5
46AB
  8
250
 10
21.583333333331279
 20
42.999999999992923
 30
0.0
 40
2.7999999999999989
  1
52.5
  0
LINE
  5
46AC
  8
250
 10
50.269999999995939
 20
42.371666666659593
 30
0.0
 11
52.499999999995943
 21
41.99999999999293
 31
0.0
  0
LINE
  5
46AD
  8
250
 10
50.269999999995939
 20
41.62833333332626
 30
0.0
 11
52.499999999995943
 21
41.99999999999293
 31
0.0
  0
LINE
  5
46AE
  8
250
 10
52.499999999995943
 20
41.99999999999293
 30
0.0
 11
50.269999999995939
 21
41.99999999999293
 31
0.0
  0
LINE
  5
46AF
  8
250
 10
2.229999999999944
 20
41.62833333332626
 30
0.0
 11
-0.0000000000000556
 21
41.99999999999293
 31
0.0
  0
LINE
  5
46B0
  8
250
 10
2.229999999999944
 20
42.371666666659593
 30
0.0
 11
-0.0000000000000556
 21
41.99999999999293
 31
0.0
  0
LINE
  5
46B1
  8
250
 10
-0.0000000000000556
 20
41.99999999999293
 30
0.0
 11
2.229999999999944
 21
41.99999999999293
 31
0.0
  0
TEXT
  5
46B2
  8
250
 10
66.583333333333712
 20
42.999999999992923
 30
0.0
 40
2.7999999999999989
  1
37.5
  0
LINE
  5
46B3
  8
250
 10
87.770000000002156
 20
42.371666666659593
 30
0.0
 11
90.00000000000216
 21
41.99999999999293
 31
0.0
  0
LINE
  5
46B4
  8
250
 10
87.770000000002156
 20
41.62833333332626
 30
0.0
 11
90.00000000000216
 21
41.99999999999293
 31
0.0
  0
LINE
  5
46B5
  8
250
 10
90.00000000000216
 20
41.99999999999293
 30
0.0
 11
87.770000000002156
 21
41.99999999999293
 31
0.0
  0
LINE
  5
46B6
  8
250
 10
54.729999999998597
 20
41.62833333332626
 30
0.0
 11
52.499999999998607
 21
41.99999999999293
 31
0.0
  0
LINE
  5
46B7
  8
250
 10
54.729999999998597
 20
42.371666666659593
 30
0.0
 11
52.499999999998607
 21
41.99999999999293
 31
0.0
  0
LINE
  5
46B8
  8
250
 10
52.499999999998607
 20
41.99999999999293
 30
0.0
 11
54.729999999998597
 21
41.99999999999293
 31
0.0
  0
TEXT
  5
46B9
  8
250
 10
42.33333333333654
 20
50.0
 30
0.0
 40
2.7999999999999989
  1
90
  0
LINE
  5
46BA
  8
250
 10
87.770000000002156
 20
49.37166666666667
 30
0.0
 11
90.00000000000216
 21
49.0
 31
0.0
  0
LINE
  5
46BB
  8
250
 10
87.770000000002156
 20
48.62833333333333
 30
0.0
 11
90.00000000000216
 21
49.0
 31
0.0
  0
LINE
  5
46BC
  8
250
 10
90.00000000000216
 20
49.0
 30
0.0
 11
87.770000000002156
 21
49.0
 31
0.0
  0
LINE
  5
46BD
  8
250
 10
2.2300000000042521
 20
48.62833333333333
 30
0.0
 11
0.0000000000042527
 21
49.0
 31
0.0
  0
LINE
  5
46BE
  8
250
 10
2.2300000000042521
 20
49.37166666666667
 30
0.0
 11
0.0000000000042527
 21
49.0
 31
0.0
  0
LINE
  5
46BF
  8
250
 10
0.0000000000042527
 20
49.0
 30
0.0
 11
2.2300000000042521
 21
49.0
 31
0.0
  0
TEXT
  5
46C0
  8
250
 10
64.985714285712803
 20
-34.000000000014253
 30
0.0
 40
3.0
  1
26ü`42
  0
LINE
  5
46C1
  8
250
 10
87.769999999997779
 20
-34.628333333347591
 30
0.0
 11
89.999999999997769
 21
-35.000000000014253
 31
0.0
  0
LINE
  5
46C2
  8
250
 10
87.769999999997779
 20
-35.371666666680923
 30
0.0
 11
89.999999999997769
 21
-35.000000000014253
 31
0.0
  0
LINE
  5
46C3
  8
250
 10
89.999999999997769
 20
-35.000000000014253
 30
0.0
 11
87.769999999997779
 21
-35.000000000014253
 31
0.0
  0
LINE
  5
46C4
  8
250
 10
57.229999999999258
 20
-35.371666666680923
 30
0.0
 11
54.999999999999261
 21
-35.000000000014253
 31
0.0
  0
LINE
  5
46C5
  8
250
 10
57.229999999999258
 20
-34.628333333347591
 30
0.0
 11
54.999999999999261
 21
-35.000000000014253
 31
0.0
  0
LINE
  5
46C6
  8
250
 10
54.999999999999261
 20
-35.000000000014253
 30
0.0
 11
57.229999999999258
 21
-35.000000000014253
 31
0.0
  0
VIEWPORT
  5
22
 67
     1
  8
0
 10
261.51769911504419
 20
148.5
 30
0.0
 40
523.0353982300885
 41
297.0
 68
     1
 69
     1
1001
ACAD
1000
MVIEW
1002
{
1070
    16
1010
0.0
1020
0.0
1030
0.0
1010
0.0
1020
0.0
1030
1.0
1040
0.0
1040
297.0
1040
261.51769911504419
1040
148.5
1040
50.0
1040
0.0
1040
0.0
1070
     0
1070
   100
1070
     1
1070
     1
1070
     0
1070
     0
1070
     0
1070
     0
1040
0.0
1040
0.0
1040
0.0
1040
1.0
1040
1.0
1040
10.0
1040
10.0
1070
     0
1002
{
1002
}
1002
}
1001
GENIUS_GENODEF_13
1002
{
1000
HIER
1070
     0
1002
}
1002
{
1000
MANEDIT
1070
     0
1002
}
1002
{
1000
NOSEL
1070
     0
1002
}
1002
{
1000
BEHIND
1070
     0
1002
}
1002
{
1000
OTHER
1070
     0
1002
}
1002
{
1000
REACTOR
1002
}
1001
GENIUS_GENOBJ-N-SDF_13
1002
{
1000
OWNER
1000
GEN
1002
}
1001
GENIUS_GENSCREG_15
1000
PF
1040
1.0
1000
DF
1040
1.0
1000
MIN
1011
0.0
1021
0.0
1031
0.0
1021
0.0
1031
0.0
1000
MAX
1011
523.0353982300885
1021
0.0
1031
0.0
1021
297.0
1031
0.0
1000
FLAGS
1070
     4
  0
ENDSEC
  0
EOF
